ISO-10303-21;
HEADER;
FILE_DESCRIPTION (( 'STEP AP214' ),
    '1' );
FILE_NAME ('59787.STEP',
    '2023-07-24T15:39:25',
    ( '' ),
    ( '' ),
    'SwSTEP 2.0',
    'SolidWorks 2023',
    '' );
FILE_SCHEMA (( 'AUTOMOTIVE_DESIGN' ));
ENDSEC;

DATA;
#1 = STYLED_ITEM ( 'NONE', ( #139 ), #182 ) ;
#2 =( LENGTH_UNIT ( ) NAMED_UNIT ( * ) SI_UNIT ( .MILLI., .METRE. ) );
#3 = FILL_AREA_STYLE_COLOUR ( '', #40 ) ;
#4 = CARTESIAN_POINT ( 'NONE',  ( 0.000000000000000000, 0.000000000000000000, 0.000000000000000000 ) ) ;
#5 = EDGE_LOOP ( 'NONE', ( #266, #144 ) ) ;
#6 = PRODUCT_DEFINITION_FORMATION_WITH_SPECIFIED_SOURCE ( 'ANY', '', #265, .NOT_KNOWN. ) ;
#7 = COLOUR_RGB ( '',1.000000000000000000, 0.000000000000000000, 0.000000000000000000 ) ;
#8 = ORIENTED_EDGE ( 'NONE', *, *, #196, .F. ) ;
#9 = CARTESIAN_POINT ( 'NONE',  ( -4.408728476930469278E-15, 124.9999999999999858, 0.000000000000000000 ) ) ;
#10 = ORIENTED_EDGE ( 'NONE', *, *, #58, .F. ) ;
#11 = VERTEX_POINT ( 'NONE', #120 ) ;
#12 = DIRECTION ( 'NONE',  ( 0.000000000000000000, -0.000000000000000000, 1.000000000000000000 ) ) ;
#13 = MECHANICAL_DESIGN_GEOMETRIC_PRESENTATION_REPRESENTATION (  '', ( #287 ), #222 ) ;
#14 = ORIENTED_EDGE ( 'NONE', *, *, #70, .T. ) ;
#15 = DIRECTION ( 'NONE',  ( -0.000000000000000000, -1.000000000000000000, -0.000000000000000000 ) ) ;
#16 = APPLICATION_PROTOCOL_DEFINITION ( 'draft international standard', 'automotive_design', 1998, #87 ) ;
#17 = CARTESIAN_POINT ( 'NONE',  ( 4.987329993433318819E-15, 50.00000000000000000, 0.000000000000000000 ) ) ;
#18 = CARTESIAN_POINT ( 'NONE',  ( 1.224646799147353256E-15, 0.000000000000000000, 10.00000000000000000 ) ) ;
#19 = PRESENTATION_LAYER_ASSIGNMENT (  '', '', ( #166 ) ) ;
#20 = APPLICATION_CONTEXT ( 'automotive_design' ) ;
#21 = PRESENTATION_STYLE_ASSIGNMENT (( #278 ) ) ;
#22 = FILL_AREA_STYLE ('',( #107 ) ) ;
#23 = PRODUCT_DEFINITION_CONTEXT ( 'detailed design', #87, 'design' ) ;
#24 = DIRECTION ( 'NONE',  ( 0.000000000000000000, 0.000000000000000000, -1.000000000000000000 ) ) ;
#25 = PLANE ( 'NONE',  #129 ) ;
#26 = EDGE_CURVE ( 'NONE', #11, #80, #165, .T. ) ;
#27 = FILL_AREA_STYLE ('',( #285 ) ) ;
#28 = COLOUR_RGB ( '',1.000000000000000000, 0.000000000000000000, 0.000000000000000000 ) ;
#29 = CARTESIAN_POINT ( 'NONE',  ( 4.987329993433320396E-15, 50.00000000000000000, 0.000000000000000000 ) ) ;
#30 = SURFACE_STYLE_USAGE ( .BOTH. , #169 ) ;
#31 = FACE_OUTER_BOUND ( 'NONE', #305, .T. ) ;
#32 = EDGE_CURVE ( 'NONE', #290, #327, #331, .T. ) ;
#33 = FILL_AREA_STYLE ('',( #164 ) ) ;
#34 = AXIS2_PLACEMENT_3D ( 'NONE', #97, #207, #310 ) ;
#35 = CIRCLE ( 'NONE', #206, 9.999999999999996447 ) ;
#36 = SURFACE_SIDE_STYLE ('',( #85 ) ) ;
#37 = MANIFOLD_SOLID_BREP ( 'Revolve - Tool Body (Straight Shanked)', #124 ) ;
#38 =( NAMED_UNIT ( * ) SI_UNIT ( $, .STERADIAN. ) SOLID_ANGLE_UNIT ( ) );
#39 = ORIENTED_EDGE ( 'NONE', *, *, #291, .T. ) ;
#40 = COLOUR_RGB ( '',1.000000000000000000, 0.000000000000000000, 0.000000000000000000 ) ;
#41 = CARTESIAN_POINT ( 'NONE',  ( 0.000000000000000000, 0.5000000000000000000, 0.000000000000000000 ) ) ;
#42 = ORIENTED_EDGE ( 'NONE', *, *, #26, .T. ) ;
#43 = DIRECTION ( 'NONE',  ( 0.000000000000000000, 0.000000000000000000, 1.000000000000000000 ) ) ;
#44 = EDGE_LOOP ( 'NONE', ( #101, #123, #10, #46 ) ) ;
#45 = LINE ( 'NONE', #100, #48 ) ;
#46 = ORIENTED_EDGE ( 'NONE', *, *, #117, .F. ) ;
#47 = MECHANICAL_DESIGN_GEOMETRIC_PRESENTATION_REPRESENTATION (  '', ( #198 ), #208 ) ;
#48 = VECTOR ( 'NONE', #86, 1000.000000000000000 ) ;
#49 = CIRCLE ( 'NONE', #257, 9.500000000000000000 ) ;
#50 = PRESENTATION_STYLE_ASSIGNMENT (( #184 ) ) ;
#51 =( NAMED_UNIT ( * ) SI_UNIT ( $, .STERADIAN. ) SOLID_ANGLE_UNIT ( ) );
#52 = DIRECTION ( 'NONE',  ( -0.000000000000000000, -1.000000000000000000, -0.000000000000000000 ) ) ;
#53 = UNCERTAINTY_MEASURE_WITH_UNIT (LENGTH_MEASURE( 1.000000000000000082E-05 ), #259, 'distance_accuracy_value', 'NONE');
#54 = CARTESIAN_POINT ( 'NONE',  ( 0.000000000000000000, 0.5000000000000000000, -10.00000000000000000 ) ) ;
#55 = AXIS2_PLACEMENT_3D ( 'NONE', #308, #303, #105 ) ;
#56 = PRESENTATION_STYLE_ASSIGNMENT (( #309 ) ) ;
#57 = STYLED_ITEM ( 'NONE', ( #62 ), #170 ) ;
#58 = EDGE_CURVE ( 'NONE', #80, #11, #73, .T. ) ;
#59 = UNCERTAINTY_MEASURE_WITH_UNIT (LENGTH_MEASURE( 1.000000000000000082E-05 ), #253, 'distance_accuracy_value', 'NONE');
#60 =( NAMED_UNIT ( * ) PLANE_ANGLE_UNIT ( ) SI_UNIT ( $, .RADIAN. ) );
#61 = PRODUCT_DEFINITION ( 'UNKNOWN', '', #6, #23 ) ;
#62 = PRESENTATION_STYLE_ASSIGNMENT (( #349 ) ) ;
#63 = MECHANICAL_DESIGN_GEOMETRIC_PRESENTATION_REPRESENTATION (  '', ( #57 ), #116 ) ;
#64 = CARTESIAN_POINT ( 'NONE',  ( 0.000000000000000000, 0.000000000000000000, -10.00000000000000000 ) ) ;
#65 =( NAMED_UNIT ( * ) SI_UNIT ( $, .STERADIAN. ) SOLID_ANGLE_UNIT ( ) );
#66 = CARTESIAN_POINT ( 'NONE',  ( 1.224646799147353256E-15, 0.5000000000000000000, 10.00000000000000000 ) ) ;
#67 = CARTESIAN_POINT ( 'NONE',  ( 0.000000000000000000, 0.000000000000000000, 0.000000000000000000 ) ) ;
#68 =( GEOMETRIC_REPRESENTATION_CONTEXT ( 3 ) GLOBAL_UNCERTAINTY_ASSIGNED_CONTEXT ( ( #318 ) ) GLOBAL_UNIT_ASSIGNED_CONTEXT ( ( #2, #203, #181 ) ) REPRESENTATION_CONTEXT ( 'NONE', 'WORKASPACE' ) );
#69 = CARTESIAN_POINT ( 'NONE',  ( -4.408728476930469278E-15, 124.9999999999999858, 0.000000000000000000 ) ) ;
#70 = EDGE_CURVE ( 'NONE', #335, #356, #321, .T. ) ;
#71 = EDGE_LOOP ( 'NONE', ( #14, #147, #143, #236 ) ) ;
#72 = ORIENTED_EDGE ( 'NONE', *, *, #114, .T. ) ;
#73 = CIRCLE ( 'NONE', #354, 10.00000000000000533 ) ;
#74 = DIRECTION ( 'NONE',  ( -0.000000000000000000, -1.000000000000000000, -0.000000000000000000 ) ) ;
#75 = EDGE_LOOP ( 'NONE', ( #150, #176, #359, #213 ) ) ;
#76 = ORIENTED_EDGE ( 'NONE', *, *, #250, .F. ) ;
#77 = CARTESIAN_POINT ( 'NONE',  ( 0.000000000000000000, 50.00000000000000000, -10.00000000000000000 ) ) ;
#78 = SHAPE_DEFINITION_REPRESENTATION ( #104, #112 ) ;
#79 =( NAMED_UNIT ( * ) PLANE_ANGLE_UNIT ( ) SI_UNIT ( $, .RADIAN. ) );
#80 = VERTEX_POINT ( 'NONE', #212 ) ;
#81 = DIRECTION ( 'NONE',  ( -1.252807796048505441E-16, 1.000000000000000000, -0.000000000000000000 ) ) ;
#82 = PRODUCT_CONTEXT ( 'NONE', #20, 'mechanical' ) ;
#83 = MECHANICAL_DESIGN_GEOMETRIC_PRESENTATION_REPRESENTATION (  '', ( #166 ), #187 ) ;
#84 = CARTESIAN_POINT ( 'NONE',  ( 0.000000000000000000, 50.00000000000000000, 0.000000000000000000 ) ) ;
#85 = SURFACE_STYLE_FILL_AREA ( #342 ) ;
#86 = DIRECTION ( 'NONE',  ( -1.252807796048505441E-16, 1.000000000000000000, -0.000000000000000000 ) ) ;
#87 = APPLICATION_CONTEXT ( 'automotive_design' ) ;
#88 = SURFACE_SIDE_STYLE ('',( #110 ) ) ;
#89 = DIRECTION ( 'NONE',  ( 0.000000000000000000, 0.000000000000000000, -1.000000000000000000 ) ) ;
#90 = DIRECTION ( 'NONE',  ( -1.252807796048505441E-16, 1.000000000000000000, -0.000000000000000000 ) ) ;
#91 = PRESENTATION_LAYER_ASSIGNMENT (  '', '', ( #198 ) ) ;
#92 = AXIS2_PLACEMENT_3D ( 'NONE', #67, #113, #200 ) ;
#93 = CARTESIAN_POINT ( 'NONE',  ( 0.000000000000000000, 0.000000000000000000, 0.000000000000000000 ) ) ;
#94 = DIRECTION ( 'NONE',  ( -0.000000000000000000, -1.000000000000000000, -0.000000000000000000 ) ) ;
#95 = COLOUR_RGB ( '',1.000000000000000000, 0.000000000000000000, 0.000000000000000000 ) ;
#96 = DIRECTION ( 'NONE',  ( 0.000000000000000000, 0.000000000000000000, -1.000000000000000000 ) ) ;
#97 = CARTESIAN_POINT ( 'NONE',  ( -4.408728476930469278E-15, 124.9999999999999858, 0.000000000000000000 ) ) ;
#98 = ADVANCED_FACE ( 'NONE', ( #146 ), #267, .T. ) ;
#99 = SURFACE_STYLE_USAGE ( .BOTH. , #36 ) ;
#100 = CARTESIAN_POINT ( 'NONE',  ( -10.00000000000000533, 124.9999999999999858, 0.000000000000000000 ) ) ;
#101 = ORIENTED_EDGE ( 'NONE', *, *, #294, .T. ) ;
#102 = CARTESIAN_POINT ( 'NONE',  ( 4.987329993433318819E-15, 50.00000000000000000, 0.000000000000000000 ) ) ;
#103 = DIRECTION ( 'NONE',  ( -0.000000000000000000, -1.000000000000000000, -0.000000000000000000 ) ) ;
#104 = PRODUCT_DEFINITION_SHAPE ( 'NONE', 'NONE',  #61 ) ;
#105 = DIRECTION ( 'NONE',  ( 1.000000000000000000, 0.000000000000000000, 0.000000000000000000 ) ) ;
#106 = STYLED_ITEM ( 'NONE', ( #56 ), #135 ) ;
#107 = FILL_AREA_STYLE_COLOUR ( '', #185 ) ;
#108 = CARTESIAN_POINT ( 'NONE',  ( 0.000000000000000000, 0.000000000000000000, -9.500000000000000000 ) ) ;
#109 = EDGE_CURVE ( 'NONE', #356, #335, #270, .T. ) ;
#110 = SURFACE_STYLE_FILL_AREA ( #229 ) ;
#111 = AXIS2_PLACEMENT_3D ( 'NONE', #69, #128, #242 ) ;
#112 = ADVANCED_BREP_SHAPE_REPRESENTATION ( '59787', ( #160, #37, #55 ), #68 ) ;
#113 = DIRECTION ( 'NONE',  ( -0.000000000000000000, -1.000000000000000000, -0.000000000000000000 ) ) ;
#114 = EDGE_CURVE ( 'NONE', #335, #334, #151, .T. ) ;
#115 =( NAMED_UNIT ( * ) PLANE_ANGLE_UNIT ( ) SI_UNIT ( $, .RADIAN. ) );
#116 =( GEOMETRIC_REPRESENTATION_CONTEXT ( 3 ) GLOBAL_UNCERTAINTY_ASSIGNED_CONTEXT ( ( #53 ) ) GLOBAL_UNIT_ASSIGNED_CONTEXT ( ( #259, #171, #65 ) ) REPRESENTATION_CONTEXT ( 'NONE', 'WORKASPACE' ) );
#117 = EDGE_CURVE ( 'NONE', #244, #80, #45, .T. ) ;
#118 = FACE_OUTER_BOUND ( 'NONE', #119, .T. ) ;
#119 = EDGE_LOOP ( 'NONE', ( #214, #39, #299, #8 ) ) ;
#120 = CARTESIAN_POINT ( 'NONE',  ( 10.00000000000000000, 124.9999999999999858, 1.224646799147353454E-15 ) ) ;
#121 = DIRECTION ( 'NONE',  ( -1.252807796048505441E-16, 1.000000000000000000, -0.000000000000000000 ) ) ;
#122 = EDGE_LOOP ( 'NONE', ( #239, #293 ) ) ;
#123 = ORIENTED_EDGE ( 'NONE', *, *, #250, .T. ) ;
#124 = CLOSED_SHELL ( 'NONE', ( #233, #328, #98, #337 ) ) ;
#125 =( NAMED_UNIT ( * ) PLANE_ANGLE_UNIT ( ) SI_UNIT ( $, .RADIAN. ) );
#126 = DIRECTION ( 'NONE',  ( 0.000000000000000000, 0.000000000000000000, -1.000000000000000000 ) ) ;
#127 = SURFACE_SIDE_STYLE ('',( #279 ) ) ;
#128 = DIRECTION ( 'NONE',  ( -1.252807796048505441E-16, 1.000000000000000000, -0.000000000000000000 ) ) ;
#129 = AXIS2_PLACEMENT_3D ( 'NONE', #29, #225, #365 ) ;
#130 = AXIS2_PLACEMENT_3D ( 'NONE', #301, #174, #43 ) ;
#131 = SURFACE_STYLE_FILL_AREA ( #22 ) ;
#132 = FACE_OUTER_BOUND ( 'NONE', #357, .T. ) ;
#133 =( LENGTH_UNIT ( ) NAMED_UNIT ( * ) SI_UNIT ( .MILLI., .METRE. ) );
#134 = LINE ( 'NONE', #64, #297 ) ;
#135 = ADVANCED_FACE ( 'NONE', ( #275 ), #322, .T. ) ;
#136 = SURFACE_STYLE_FILL_AREA ( #33 ) ;
#137 =( GEOMETRIC_REPRESENTATION_CONTEXT ( 3 ) GLOBAL_UNCERTAINTY_ASSIGNED_CONTEXT ( ( #205 ) ) GLOBAL_UNIT_ASSIGNED_CONTEXT ( ( #220, #188, #277 ) ) REPRESENTATION_CONTEXT ( 'NONE', 'WORKASPACE' ) );
#138 = EDGE_CURVE ( 'NONE', #327, #290, #141, .T. ) ;
#139 = PRESENTATION_STYLE_ASSIGNMENT (( #30 ) ) ;
#140 = VECTOR ( 'NONE', #103, 1000.000000000000000 ) ;
#141 = CIRCLE ( 'NONE', #348, 10.00000000000000000 ) ;
#142 = DIRECTION ( 'NONE',  ( 0.000000000000000000, 1.000000000000000000, 0.000000000000000000 ) ) ;
#143 = ORIENTED_EDGE ( 'NONE', *, *, #262, .F. ) ;
#144 = ORIENTED_EDGE ( 'NONE', *, *, #138, .F. ) ;
#145 = AXIS2_PLACEMENT_3D ( 'NONE', #243, #162, #247 ) ;
#146 = FACE_OUTER_BOUND ( 'NONE', #148, .T. ) ;
#147 = ORIENTED_EDGE ( 'NONE', *, *, #369, .T. ) ;
#148 = EDGE_LOOP ( 'NONE', ( #76, #264, #209, #362 ) ) ;
#149 = CYLINDRICAL_SURFACE ( 'NONE', #295, 10.00000000000000000 ) ;
#150 = ORIENTED_EDGE ( 'NONE', *, *, #291, .F. ) ;
#151 = CIRCLE ( 'NONE', #130, 0.5000000000000004441 ) ;
#152 = CARTESIAN_POINT ( 'NONE',  ( 0.000000000000000000, 50.00000000000000000, 0.000000000000000000 ) ) ;
#153 = COLOUR_RGB ( '',1.000000000000000000, 0.000000000000000000, 0.000000000000000000 ) ;
#154 =( NAMED_UNIT ( * ) PLANE_ANGLE_UNIT ( ) SI_UNIT ( $, .RADIAN. ) );
#155 = PRESENTATION_STYLE_ASSIGNMENT (( #216 ) ) ;
#156 = ADVANCED_FACE ( 'NONE', ( #132 ), #341, .T. ) ;
#157 = FILL_AREA_STYLE_COLOUR ( '', #252 ) ;
#158 = SURFACE_SIDE_STYLE ('',( #312 ) ) ;
#159 = FACE_OUTER_BOUND ( 'NONE', #271, .T. ) ;
#160 = MANIFOLD_SOLID_BREP ( 'Revolve - Cutting Edge', #228 ) ;
#161 =( GEOMETRIC_REPRESENTATION_CONTEXT ( 3 ) GLOBAL_UNCERTAINTY_ASSIGNED_CONTEXT ( ( #59 ) ) GLOBAL_UNIT_ASSIGNED_CONTEXT ( ( #253, #115, #254 ) ) REPRESENTATION_CONTEXT ( 'NONE', 'WORKASPACE' ) );
#162 = DIRECTION ( 'NONE',  ( -0.000000000000000000, -1.000000000000000000, -0.000000000000000000 ) ) ;
#163 = EDGE_CURVE ( 'NONE', #268, #244, #35, .T. ) ;
#164 = FILL_AREA_STYLE_COLOUR ( '', #28 ) ;
#165 = CIRCLE ( 'NONE', #34, 10.00000000000000533 ) ;
#166 = STYLED_ITEM ( 'NONE', ( #50 ), #160 ) ;
#167 = DIRECTION ( 'NONE',  ( -0.000000000000000000, -1.000000000000000000, -0.000000000000000000 ) ) ;
#168 = UNCERTAINTY_MEASURE_WITH_UNIT (LENGTH_MEASURE( 1.000000000000000082E-05 ), #261, 'distance_accuracy_value', 'NONE');
#169 = SURFACE_SIDE_STYLE ('',( #136 ) ) ;
#170 = ADVANCED_FACE ( 'NONE', ( #31 ), #226, .T. ) ;
#171 =( NAMED_UNIT ( * ) PLANE_ANGLE_UNIT ( ) SI_UNIT ( $, .RADIAN. ) );
#172 = AXIS2_PLACEMENT_3D ( 'NONE', #344, #346, #24 ) ;
#173 = CARTESIAN_POINT ( 'NONE',  ( 9.999999999999994671, 124.9999999999999858, 1.224646799147353256E-15 ) ) ;
#174 = DIRECTION ( 'NONE',  ( -1.000000000000000000, 0.000000000000000000, 0.000000000000000000 ) ) ;
#175 = CARTESIAN_POINT ( 'NONE',  ( 0.000000000000000000, 0.000000000000000000, 0.000000000000000000 ) ) ;
#176 = ORIENTED_EDGE ( 'NONE', *, *, #138, .T. ) ;
#177 = AXIS2_PLACEMENT_3D ( 'NONE', #282, #202, #286 ) ;
#178 = ORIENTED_EDGE ( 'NONE', *, *, #109, .T. ) ;
#179 = MECHANICAL_DESIGN_GEOMETRIC_PRESENTATION_REPRESENTATION (  '', ( #235 ), #307 ) ;
#180 = ORIENTED_EDGE ( 'NONE', *, *, #58, .T. ) ;
#181 =( NAMED_UNIT ( * ) SI_UNIT ( $, .STERADIAN. ) SOLID_ANGLE_UNIT ( ) );
#182 = ADVANCED_FACE ( 'NONE', ( #232 ), #370, .T. ) ;
#183 = DIRECTION ( 'NONE',  ( -1.252807796048505441E-16, 1.000000000000000000, -0.000000000000000000 ) ) ;
#184 = SURFACE_STYLE_USAGE ( .BOTH. , #127 ) ;
#185 = COLOUR_RGB ( '',1.000000000000000000, 0.000000000000000000, 0.000000000000000000 ) ;
#186 = DIRECTION ( 'NONE',  ( -1.000000000000000000, 0.000000000000000000, 0.000000000000000000 ) ) ;
#187 =( GEOMETRIC_REPRESENTATION_CONTEXT ( 3 ) GLOBAL_UNCERTAINTY_ASSIGNED_CONTEXT ( ( #190 ) ) GLOBAL_UNIT_ASSIGNED_CONTEXT ( ( #313, #154, #284 ) ) REPRESENTATION_CONTEXT ( 'NONE', 'WORKASPACE' ) );
#188 =( NAMED_UNIT ( * ) PLANE_ANGLE_UNIT ( ) SI_UNIT ( $, .RADIAN. ) );
#189 = PRESENTATION_STYLE_ASSIGNMENT (( #99 ) ) ;
#190 = UNCERTAINTY_MEASURE_WITH_UNIT (LENGTH_MEASURE( 1.000000000000000082E-05 ), #313, 'distance_accuracy_value', 'NONE');
#191 = FILL_AREA_STYLE_COLOUR ( '', #199 ) ;
#192 = CARTESIAN_POINT ( 'NONE',  ( 0.000000000000000000, 0.5000000000000000000, 0.000000000000000000 ) ) ;
#193 = PLANE ( 'NONE',  #227 ) ;
#194 = SURFACE_SIDE_STYLE ('',( #343 ) ) ;
#195 = SURFACE_STYLE_USAGE ( .BOTH. , #88 ) ;
#196 = EDGE_CURVE ( 'NONE', #290, #335, #134, .T. ) ;
#197 = SURFACE_SIDE_STYLE ('',( #323 ) ) ;
#198 = STYLED_ITEM ( 'NONE', ( #189 ), #319 ) ;
#199 = COLOUR_RGB ( '',0.7921568627450980005, 0.8196078431372548767, 0.9333333333333333481 ) ;
#200 = DIRECTION ( 'NONE',  ( 0.000000000000000000, 0.000000000000000000, -1.000000000000000000 ) ) ;
#201 = PRESENTATION_LAYER_ASSIGNMENT (  '', '', ( #57 ) ) ;
#202 = DIRECTION ( 'NONE',  ( 1.000000000000000000, 0.000000000000000000, -1.224646799147353207E-16 ) ) ;
#203 =( NAMED_UNIT ( * ) PLANE_ANGLE_UNIT ( ) SI_UNIT ( $, .RADIAN. ) );
#204 =( NAMED_UNIT ( * ) SI_UNIT ( $, .STERADIAN. ) SOLID_ANGLE_UNIT ( ) );
#205 = UNCERTAINTY_MEASURE_WITH_UNIT (LENGTH_MEASURE( 1.000000000000000082E-05 ), #220, 'distance_accuracy_value', 'NONE');
#206 = AXIS2_PLACEMENT_3D ( 'NONE', #17, #90, #224 ) ;
#207 = DIRECTION ( 'NONE',  ( -1.252807796048505441E-16, 1.000000000000000000, -0.000000000000000000 ) ) ;
#208 =( GEOMETRIC_REPRESENTATION_CONTEXT ( 3 ) GLOBAL_UNCERTAINTY_ASSIGNED_CONTEXT ( ( #314 ) ) GLOBAL_UNIT_ASSIGNED_CONTEXT ( ( #336, #325, #204 ) ) REPRESENTATION_CONTEXT ( 'NONE', 'WORKASPACE' ) );
#209 = ORIENTED_EDGE ( 'NONE', *, *, #117, .T. ) ;
#210 = MECHANICAL_DESIGN_GEOMETRIC_PRESENTATION_REPRESENTATION (  '', ( #352 ), #223 ) ;
#211 = ADVANCED_FACE ( 'NONE', ( #256 ), #251, .T. ) ;
#212 = CARTESIAN_POINT ( 'NONE',  ( -10.00000000000001066, 124.9999999999999858, 0.000000000000000000 ) ) ;
#213 = ORIENTED_EDGE ( 'NONE', *, *, #109, .F. ) ;
#214 = ORIENTED_EDGE ( 'NONE', *, *, #32, .T. ) ;
#215 = CARTESIAN_POINT ( 'NONE',  ( 10.00000000000000355, 50.00000000000000000, 1.224646799147353848E-15 ) ) ;
#216 = SURFACE_STYLE_USAGE ( .BOTH. , #194 ) ;
#217 = AXIS2_PLACEMENT_3D ( 'NONE', #41, #292, #358 ) ;
#218 = DIRECTION ( 'NONE',  ( 0.000000000000000000, 0.000000000000000000, -1.000000000000000000 ) ) ;
#219 = MECHANICAL_DESIGN_GEOMETRIC_PRESENTATION_REPRESENTATION (  '', ( #106 ), #137 ) ;
#220 =( LENGTH_UNIT ( ) NAMED_UNIT ( * ) SI_UNIT ( .MILLI., .METRE. ) );
#221 = SURFACE_SIDE_STYLE ('',( #131 ) ) ;
#222 =( GEOMETRIC_REPRESENTATION_CONTEXT ( 3 ) GLOBAL_UNCERTAINTY_ASSIGNED_CONTEXT ( ( #249 ) ) GLOBAL_UNIT_ASSIGNED_CONTEXT ( ( #133, #60, #38 ) ) REPRESENTATION_CONTEXT ( 'NONE', 'WORKASPACE' ) );
#223 =( GEOMETRIC_REPRESENTATION_CONTEXT ( 3 ) GLOBAL_UNCERTAINTY_ASSIGNED_CONTEXT ( ( #168 ) ) GLOBAL_UNIT_ASSIGNED_CONTEXT ( ( #261, #125, #51 ) ) REPRESENTATION_CONTEXT ( 'NONE', 'WORKASPACE' ) );
#224 = DIRECTION ( 'NONE',  ( -1.000000000000000000, 0.000000000000000000, 0.000000000000000000 ) ) ;
#225 = DIRECTION ( 'NONE',  ( -1.252807796048505441E-16, 1.000000000000000000, 0.000000000000000000 ) ) ;
#226 = PLANE ( 'NONE',  #316 ) ;
#227 = AXIS2_PLACEMENT_3D ( 'NONE', #280, #255, #231 ) ;
#228 = CLOSED_SHELL ( 'NONE', ( #319, #135, #170, #156, #182, #211 ) ) ;
#229 = FILL_AREA_STYLE ('',( #367 ) ) ;
#230 = PRESENTATION_LAYER_ASSIGNMENT (  '', '', ( #235 ) ) ;
#231 = DIRECTION ( 'NONE',  ( 1.000000000000000000, 1.252807796048505441E-16, 0.000000000000000000 ) ) ;
#232 = FACE_OUTER_BOUND ( 'NONE', #75, .T. ) ;
#233 = ADVANCED_FACE ( 'NONE', ( #340 ), #274, .T. ) ;
#234 = CARTESIAN_POINT ( 'NONE',  ( 0.000000000000000000, 0.000000000000000000, 0.000000000000000000 ) ) ;
#235 = STYLED_ITEM ( 'NONE', ( #155 ), #156 ) ;
#236 = ORIENTED_EDGE ( 'NONE', *, *, #114, .F. ) ;
#237 = ORIENTED_EDGE ( 'NONE', *, *, #300, .F. ) ;
#238 = DIRECTION ( 'NONE',  ( -1.000000000000000000, 0.000000000000000000, 0.000000000000000000 ) ) ;
#239 = ORIENTED_EDGE ( 'NONE', *, *, #294, .F. ) ;
#240 = ORIENTED_EDGE ( 'NONE', *, *, #262, .T. ) ;
#241 = PRESENTATION_LAYER_ASSIGNMENT (  '', '', ( #352 ) ) ;
#242 = DIRECTION ( 'NONE',  ( -1.000000000000000000, 0.000000000000000000, 0.000000000000000000 ) ) ;
#243 = CARTESIAN_POINT ( 'NONE',  ( 0.000000000000000000, 0.5000000000000000000, 0.000000000000000000 ) ) ;
#244 = VERTEX_POINT ( 'NONE', #355 ) ;
#245 = CARTESIAN_POINT ( 'NONE',  ( 1.224646799147353256E-15, 50.00000000000000000, 10.00000000000000000 ) ) ;
#246 = LINE ( 'NONE', #173, #272 ) ;
#247 = DIRECTION ( 'NONE',  ( 0.000000000000000000, 0.000000000000000000, -1.000000000000000000 ) ) ;
#248 = AXIS2_PLACEMENT_3D ( 'NONE', #102, #81, #186 ) ;
#249 = UNCERTAINTY_MEASURE_WITH_UNIT (LENGTH_MEASURE( 1.000000000000000082E-05 ), #133, 'distance_accuracy_value', 'NONE');
#250 = EDGE_CURVE ( 'NONE', #268, #11, #246, .T. ) ;
#251 = PLANE ( 'NONE',  #368 ) ;
#252 = COLOUR_RGB ( '',0.7921568627450980005, 0.8196078431372548767, 0.9333333333333333481 ) ;
#253 =( LENGTH_UNIT ( ) NAMED_UNIT ( * ) SI_UNIT ( .MILLI., .METRE. ) );
#254 =( NAMED_UNIT ( * ) SI_UNIT ( $, .STERADIAN. ) SOLID_ANGLE_UNIT ( ) );
#255 = DIRECTION ( 'NONE',  ( 1.252807796048505441E-16, -1.000000000000000000, 0.000000000000000000 ) ) ;
#256 = FACE_OUTER_BOUND ( 'NONE', #5, .T. ) ;
#257 = AXIS2_PLACEMENT_3D ( 'NONE', #175, #360, #96 ) ;
#258 = PRESENTATION_LAYER_ASSIGNMENT (  '', '', ( #287 ) ) ;
#259 =( LENGTH_UNIT ( ) NAMED_UNIT ( * ) SI_UNIT ( .MILLI., .METRE. ) );
#260 = PRESENTATION_LAYER_ASSIGNMENT (  '', '', ( #1 ) ) ;
#261 =( LENGTH_UNIT ( ) NAMED_UNIT ( * ) SI_UNIT ( .MILLI., .METRE. ) );
#262 = EDGE_CURVE ( 'NONE', #334, #339, #49, .T. ) ;
#263 = LINE ( 'NONE', #18, #140 ) ;
#264 = ORIENTED_EDGE ( 'NONE', *, *, #163, .T. ) ;
#265 = PRODUCT ( '59787', '59787', '', ( #82 ) ) ;
#266 = ORIENTED_EDGE ( 'NONE', *, *, #32, .F. ) ;
#267 = CYLINDRICAL_SURFACE ( 'NONE', #347, 10.00000000000000000 ) ;
#268 = VERTEX_POINT ( 'NONE', #215 ) ;
#269 = CIRCLE ( 'NONE', #329, 9.500000000000000000 ) ;
#270 = CIRCLE ( 'NONE', #296, 10.00000000000000000 ) ;
#271 = EDGE_LOOP ( 'NONE', ( #180, #42 ) ) ;
#272 = VECTOR ( 'NONE', #306, 1000.000000000000000 ) ;
#273 = FILL_AREA_STYLE_COLOUR ( '', #95 ) ;
#274 = CYLINDRICAL_SURFACE ( 'NONE', #111, 10.00000000000000000 ) ;
#275 = FACE_OUTER_BOUND ( 'NONE', #71, .T. ) ;
#276 = CARTESIAN_POINT ( 'NONE',  ( -4.408728476930469278E-15, 124.9999999999999858, 0.000000000000000000 ) ) ;
#277 =( NAMED_UNIT ( * ) SI_UNIT ( $, .STERADIAN. ) SOLID_ANGLE_UNIT ( ) );
#278 = SURFACE_STYLE_USAGE ( .BOTH. , #158 ) ;
#279 = SURFACE_STYLE_FILL_AREA ( #317 ) ;
#280 = CARTESIAN_POINT ( 'NONE',  ( 10.00000000000000000, 124.9999999999999858, 0.000000000000000000 ) ) ;
#281 = UNCERTAINTY_MEASURE_WITH_UNIT (LENGTH_MEASURE( 1.000000000000000082E-05 ), #345, 'distance_accuracy_value', 'NONE');
#282 = CARTESIAN_POINT ( 'NONE',  ( 1.163414459189985485E-15, 0.5000000000000000000, 9.500000000000000000 ) ) ;
#283 = PRODUCT_RELATED_PRODUCT_CATEGORY ( 'part', '', ( #265 ) ) ;
#284 =( NAMED_UNIT ( * ) SI_UNIT ( $, .STERADIAN. ) SOLID_ANGLE_UNIT ( ) );
#285 = FILL_AREA_STYLE_COLOUR ( '', #7 ) ;
#286 = DIRECTION ( 'NONE',  ( -1.224646799147353454E-16, 0.000000000000000000, -1.000000000000000000 ) ) ;
#287 = STYLED_ITEM ( 'NONE', ( #21 ), #37 ) ;
#288 = PRESENTATION_LAYER_ASSIGNMENT (  '', '', ( #106 ) ) ;
#289 = PRESENTATION_STYLE_ASSIGNMENT (( #195 ) ) ;
#290 = VERTEX_POINT ( 'NONE', #77 ) ;
#291 = EDGE_CURVE ( 'NONE', #327, #356, #263, .T. ) ;
#292 = DIRECTION ( 'NONE',  ( -0.000000000000000000, -1.000000000000000000, -0.000000000000000000 ) ) ;
#293 = ORIENTED_EDGE ( 'NONE', *, *, #163, .F. ) ;
#294 = EDGE_CURVE ( 'NONE', #244, #268, #320, .T. ) ;
#295 = AXIS2_PLACEMENT_3D ( 'NONE', #234, #15, #126 ) ;
#296 = AXIS2_PLACEMENT_3D ( 'NONE', #333, #74, #304 ) ;
#297 = VECTOR ( 'NONE', #167, 1000.000000000000000 ) ;
#298 = DIRECTION ( 'NONE',  ( -1.000000000000000000, 0.000000000000000000, 0.000000000000000000 ) ) ;
#299 = ORIENTED_EDGE ( 'NONE', *, *, #70, .F. ) ;
#300 = EDGE_CURVE ( 'NONE', #339, #334, #269, .T. ) ;
#301 = CARTESIAN_POINT ( 'NONE',  ( 0.000000000000000000, 0.5000000000000000000, -9.500000000000000000 ) ) ;
#302 = ORIENTED_EDGE ( 'NONE', *, *, #369, .F. ) ;
#303 = DIRECTION ( 'NONE',  ( 0.000000000000000000, 0.000000000000000000, 1.000000000000000000 ) ) ;
#304 = DIRECTION ( 'NONE',  ( 0.000000000000000000, 0.000000000000000000, -1.000000000000000000 ) ) ;
#305 = EDGE_LOOP ( 'NONE', ( #240, #326 ) ) ;
#306 = DIRECTION ( 'NONE',  ( -1.252807796048505441E-16, 1.000000000000000000, -0.000000000000000000 ) ) ;
#307 =( GEOMETRIC_REPRESENTATION_CONTEXT ( 3 ) GLOBAL_UNCERTAINTY_ASSIGNED_CONTEXT ( ( #281 ) ) GLOBAL_UNIT_ASSIGNED_CONTEXT ( ( #345, #79, #366 ) ) REPRESENTATION_CONTEXT ( 'NONE', 'WORKASPACE' ) );
#308 = CARTESIAN_POINT ( 'NONE',  ( 0.000000000000000000, 0.000000000000000000, 0.000000000000000000 ) ) ;
#309 = SURFACE_STYLE_USAGE ( .BOTH. , #221 ) ;
#310 = DIRECTION ( 'NONE',  ( -1.000000000000000000, 0.000000000000000000, 0.000000000000000000 ) ) ;
#311 = DIRECTION ( 'NONE',  ( 0.000000000000000000, 0.000000000000000000, -1.000000000000000000 ) ) ;
#312 = SURFACE_STYLE_FILL_AREA ( #315 ) ;
#313 =( LENGTH_UNIT ( ) NAMED_UNIT ( * ) SI_UNIT ( .MILLI., .METRE. ) );
#314 = UNCERTAINTY_MEASURE_WITH_UNIT (LENGTH_MEASURE( 1.000000000000000082E-05 ), #336, 'distance_accuracy_value', 'NONE');
#315 = FILL_AREA_STYLE ('',( #191 ) ) ;
#316 = AXIS2_PLACEMENT_3D ( 'NONE', #93, #350, #89 ) ;
#317 = FILL_AREA_STYLE ('',( #157 ) ) ;
#318 = UNCERTAINTY_MEASURE_WITH_UNIT (LENGTH_MEASURE( 1.000000000000000082E-05 ), #2, 'distance_accuracy_value', 'NONE');
#319 = ADVANCED_FACE ( 'NONE', ( #118 ), #149, .T. ) ;
#320 = CIRCLE ( 'NONE', #248, 9.999999999999996447 ) ;
#321 = CIRCLE ( 'NONE', #217, 10.00000000000000000 ) ;
#322 = TOROIDAL_SURFACE ( 'NONE', #145, 9.500000000000000000, 0.5000000000000002220 ) ;
#323 = SURFACE_STYLE_FILL_AREA ( #27 ) ;
#324 = AXIS2_PLACEMENT_3D ( 'NONE', #192, #361, #311 ) ;
#325 =( NAMED_UNIT ( * ) PLANE_ANGLE_UNIT ( ) SI_UNIT ( $, .RADIAN. ) );
#326 = ORIENTED_EDGE ( 'NONE', *, *, #300, .T. ) ;
#327 = VERTEX_POINT ( 'NONE', #245 ) ;
#328 = ADVANCED_FACE ( 'NONE', ( #363 ), #25, .F. ) ;
#329 = AXIS2_PLACEMENT_3D ( 'NONE', #4, #94, #218 ) ;
#330 = APPLICATION_PROTOCOL_DEFINITION ( 'draft international standard', 'automotive_design', 1998, #20 ) ;
#331 = CIRCLE ( 'NONE', #172, 10.00000000000000000 ) ;
#332 = MECHANICAL_DESIGN_GEOMETRIC_PRESENTATION_REPRESENTATION (  '', ( #1 ), #161 ) ;
#333 = CARTESIAN_POINT ( 'NONE',  ( 0.000000000000000000, 0.5000000000000000000, 0.000000000000000000 ) ) ;
#334 = VERTEX_POINT ( 'NONE', #108 ) ;
#335 = VERTEX_POINT ( 'NONE', #54 ) ;
#336 =( LENGTH_UNIT ( ) NAMED_UNIT ( * ) SI_UNIT ( .MILLI., .METRE. ) );
#337 = ADVANCED_FACE ( 'NONE', ( #159 ), #193, .F. ) ;
#338 = DIRECTION ( 'NONE',  ( 0.000000000000000000, 0.000000000000000000, -1.000000000000000000 ) ) ;
#339 = VERTEX_POINT ( 'NONE', #353 ) ;
#340 = FACE_OUTER_BOUND ( 'NONE', #44, .T. ) ;
#341 = TOROIDAL_SURFACE ( 'NONE', #324, 9.500000000000000000, 0.5000000000000002220 ) ;
#342 = FILL_AREA_STYLE ('',( #3 ) ) ;
#343 = SURFACE_STYLE_FILL_AREA ( #364 ) ;
#344 = CARTESIAN_POINT ( 'NONE',  ( 0.000000000000000000, 50.00000000000000000, 0.000000000000000000 ) ) ;
#345 =( LENGTH_UNIT ( ) NAMED_UNIT ( * ) SI_UNIT ( .MILLI., .METRE. ) );
#346 = DIRECTION ( 'NONE',  ( -0.000000000000000000, -1.000000000000000000, -0.000000000000000000 ) ) ;
#347 = AXIS2_PLACEMENT_3D ( 'NONE', #9, #121, #238 ) ;
#348 = AXIS2_PLACEMENT_3D ( 'NONE', #84, #52, #338 ) ;
#349 = SURFACE_STYLE_USAGE ( .BOTH. , #197 ) ;
#350 = DIRECTION ( 'NONE',  ( 0.000000000000000000, -1.000000000000000000, -0.000000000000000000 ) ) ;
#351 = CIRCLE ( 'NONE', #177, 0.5000000000000004441 ) ;
#352 = STYLED_ITEM ( 'NONE', ( #289 ), #211 ) ;
#353 = CARTESIAN_POINT ( 'NONE',  ( 1.194030629168669469E-15, 0.000000000000000000, 9.500000000000000000 ) ) ;
#354 = AXIS2_PLACEMENT_3D ( 'NONE', #276, #183, #298 ) ;
#355 = CARTESIAN_POINT ( 'NONE',  ( -9.999999999999991118, 50.00000000000000000, 0.000000000000000000 ) ) ;
#356 = VERTEX_POINT ( 'NONE', #66 ) ;
#357 = EDGE_LOOP ( 'NONE', ( #302, #178, #72, #237 ) ) ;
#358 = DIRECTION ( 'NONE',  ( 0.000000000000000000, 0.000000000000000000, -1.000000000000000000 ) ) ;
#359 = ORIENTED_EDGE ( 'NONE', *, *, #196, .T. ) ;
#360 = DIRECTION ( 'NONE',  ( -0.000000000000000000, -1.000000000000000000, -0.000000000000000000 ) ) ;
#361 = DIRECTION ( 'NONE',  ( -0.000000000000000000, -1.000000000000000000, -0.000000000000000000 ) ) ;
#362 = ORIENTED_EDGE ( 'NONE', *, *, #26, .F. ) ;
#363 = FACE_OUTER_BOUND ( 'NONE', #122, .T. ) ;
#364 = FILL_AREA_STYLE ('',( #273 ) ) ;
#365 = DIRECTION ( 'NONE',  ( -1.000000000000000000, -1.252807796048505441E-16, 0.000000000000000000 ) ) ;
#366 =( NAMED_UNIT ( * ) SI_UNIT ( $, .STERADIAN. ) SOLID_ANGLE_UNIT ( ) );
#367 = FILL_AREA_STYLE_COLOUR ( '', #153 ) ;
#368 = AXIS2_PLACEMENT_3D ( 'NONE', #152, #142, #12 ) ;
#369 = EDGE_CURVE ( 'NONE', #356, #339, #351, .T. ) ;
#370 = CYLINDRICAL_SURFACE ( 'NONE', #92, 10.00000000000000000 ) ;
ENDSEC;
END-ISO-10303-21;
