ISO-10303-21;
HEADER;
FILE_DESCRIPTION (( 'STEP AP214' ),
    '1' );
FILE_NAME ('59670.STEP',
    '2023-07-24T15:52:27',
    ( '' ),
    ( '' ),
    'SwSTEP 2.0',
    'SolidWorks 2023',
    '' );
FILE_SCHEMA (( 'AUTOMOTIVE_DESIGN' ));
ENDSEC;

DATA;
#1 = FILL_AREA_STYLE ('',( #198 ) ) ;
#2 = ORIENTED_EDGE ( 'NONE', *, *, #46, .T. ) ;
#3 = FILL_AREA_STYLE_COLOUR ( '', #107 ) ;
#4 =( NAMED_UNIT ( * ) SI_UNIT ( $, .STERADIAN. ) SOLID_ANGLE_UNIT ( ) );
#5 = UNCERTAINTY_MEASURE_WITH_UNIT (LENGTH_MEASURE( 1.000000000000000082E-05 ), #249, 'distance_accuracy_value', 'NONE');
#6 = CIRCLE ( 'NONE', #48, 5.000000000000000000 ) ;
#7 = ORIENTED_EDGE ( 'NONE', *, *, #156, .T. ) ;
#8 = CLOSED_SHELL ( 'NONE', ( #182, #106, #122, #11 ) ) ;
#9 = PRESENTATION_LAYER_ASSIGNMENT (  '', '', ( #23 ) ) ;
#10 =( LENGTH_UNIT ( ) NAMED_UNIT ( * ) SI_UNIT ( .MILLI., .METRE. ) );
#11 = ADVANCED_FACE ( 'NONE', ( #97 ), #80, .F. ) ;
#12 = SHAPE_DEFINITION_REPRESENTATION ( #254, #190 ) ;
#13 = FACE_OUTER_BOUND ( 'NONE', #72, .T. ) ;
#14 = CARTESIAN_POINT ( 'NONE',  ( 6.123233995736762930E-15, 75.00000000000000000, 0.000000000000000000 ) ) ;
#15 = AXIS2_PLACEMENT_3D ( 'NONE', #284, #20, #186 ) ;
#16 = APPLICATION_PROTOCOL_DEFINITION ( 'draft international standard', 'automotive_design', 1998, #195 ) ;
#17 = DIRECTION ( 'NONE',  ( -0.000000000000000000, -1.000000000000000000, -0.000000000000000000 ) ) ;
#18 = SURFACE_STYLE_USAGE ( .BOTH. , #215 ) ;
#19 = CARTESIAN_POINT ( 'NONE',  ( 5.000000000000000000, 75.00000000000000000, 6.123233995736764310E-16 ) ) ;
#20 = DIRECTION ( 'NONE',  ( -0.000000000000000000, -1.000000000000000000, -0.000000000000000000 ) ) ;
#21 =( NAMED_UNIT ( * ) SI_UNIT ( $, .STERADIAN. ) SOLID_ANGLE_UNIT ( ) );
#22 = MECHANICAL_DESIGN_GEOMETRIC_PRESENTATION_REPRESENTATION (  '', ( #218 ), #286 ) ;
#23 = STYLED_ITEM ( 'NONE', ( #117 ), #205 ) ;
#24 = EDGE_CURVE ( 'NONE', #159, #274, #43, .T. ) ;
#25 = ORIENTED_EDGE ( 'NONE', *, *, #24, .T. ) ;
#26 = STYLED_ITEM ( 'NONE', ( #113 ), #177 ) ;
#27 = MECHANICAL_DESIGN_GEOMETRIC_PRESENTATION_REPRESENTATION (  '', ( #165 ), #214 ) ;
#28 = ORIENTED_EDGE ( 'NONE', *, *, #226, .T. ) ;
#29 = SURFACE_STYLE_USAGE ( .BOTH. , #272 ) ;
#30 = COLOUR_RGB ( '',1.000000000000000000, 0.000000000000000000, 0.000000000000000000 ) ;
#31 = PRODUCT_DEFINITION_FORMATION_WITH_SPECIFIED_SOURCE ( 'ANY', '', #96, .NOT_KNOWN. ) ;
#32 = ORIENTED_EDGE ( 'NONE', *, *, #236, .F. ) ;
#33 = PRODUCT_RELATED_PRODUCT_CATEGORY ( 'part', '', ( #96 ) ) ;
#34 = FILL_AREA_STYLE_COLOUR ( '', #219 ) ;
#35 = ORIENTED_EDGE ( 'NONE', *, *, #244, .F. ) ;
#36 = CARTESIAN_POINT ( 'NONE',  ( 0.000000000000000000, 0.000000000000000000, 0.000000000000000000 ) ) ;
#37 = AXIS2_PLACEMENT_3D ( 'NONE', #263, #208, #67 ) ;
#38 = DIRECTION ( 'NONE',  ( 1.224646799147352961E-16, 1.000000000000000000, -0.000000000000000000 ) ) ;
#39 = CARTESIAN_POINT ( 'NONE',  ( 3.749399456654642377E-32, 25.00000000000000000, 0.000000000000000000 ) ) ;
#40 = VERTEX_POINT ( 'NONE', #235 ) ;
#41 = VERTEX_POINT ( 'NONE', #279 ) ;
#42 = DIRECTION ( 'NONE',  ( -1.224646799147352961E-16, -1.000000000000000000, 0.000000000000000000 ) ) ;
#43 = CIRCLE ( 'NONE', #241, 5.000000000000000000 ) ;
#44 = PLANE ( 'NONE',  #256 ) ;
#45 = SURFACE_SIDE_STYLE ('',( #155 ) ) ;
#46 = EDGE_CURVE ( 'NONE', #41, #77, #170, .T. ) ;
#47 = AXIS2_PLACEMENT_3D ( 'NONE', #65, #17, #258 ) ;
#48 = AXIS2_PLACEMENT_3D ( 'NONE', #57, #133, #251 ) ;
#49 = DIRECTION ( 'NONE',  ( 1.224646799147352961E-16, 1.000000000000000000, -0.000000000000000000 ) ) ;
#50 = VERTEX_POINT ( 'NONE', #282 ) ;
#51 = PRESENTATION_STYLE_ASSIGNMENT (( #245 ) ) ;
#52 =( LENGTH_UNIT ( ) NAMED_UNIT ( * ) SI_UNIT ( .MILLI., .METRE. ) );
#53 = MECHANICAL_DESIGN_GEOMETRIC_PRESENTATION_REPRESENTATION (  '', ( #26 ), #66 ) ;
#54 = FACE_OUTER_BOUND ( 'NONE', #119, .T. ) ;
#55 = VERTEX_POINT ( 'NONE', #134 ) ;
#56 = PRODUCT_DEFINITION_CONTEXT ( 'detailed design', #162, 'design' ) ;
#57 = CARTESIAN_POINT ( 'NONE',  ( -7.703719777548943412E-31, 25.00000000000000000, 0.000000000000000000 ) ) ;
#58 = AXIS2_PLACEMENT_3D ( 'NONE', #267, #49, #110 ) ;
#59 = SURFACE_STYLE_USAGE ( .BOTH. , #115 ) ;
#60 = ORIENTED_EDGE ( 'NONE', *, *, #196, .F. ) ;
#61 = UNCERTAINTY_MEASURE_WITH_UNIT (LENGTH_MEASURE( 1.000000000000000082E-05 ), #52, 'distance_accuracy_value', 'NONE');
#62 = CYLINDRICAL_SURFACE ( 'NONE', #139, 5.000000000000000000 ) ;
#63 = ORIENTED_EDGE ( 'NONE', *, *, #236, .T. ) ;
#64 = SURFACE_STYLE_FILL_AREA ( #171 ) ;
#65 = CARTESIAN_POINT ( 'NONE',  ( 0.000000000000000000, 0.000000000000000000, 0.000000000000000000 ) ) ;
#66 =( GEOMETRIC_REPRESENTATION_CONTEXT ( 3 ) GLOBAL_UNCERTAINTY_ASSIGNED_CONTEXT ( ( #95 ) ) GLOBAL_UNIT_ASSIGNED_CONTEXT ( ( #91, #273, #4 ) ) REPRESENTATION_CONTEXT ( 'NONE', 'WORKASPACE' ) );
#67 = DIRECTION ( 'NONE',  ( -1.000000000000000000, 0.000000000000000000, 0.000000000000000000 ) ) ;
#68 = ORIENTED_EDGE ( 'NONE', *, *, #24, .F. ) ;
#69 = LINE ( 'NONE', #239, #202 ) ;
#70 = EDGE_CURVE ( 'NONE', #55, #50, #128, .T. ) ;
#71 = ORIENTED_EDGE ( 'NONE', *, *, #46, .F. ) ;
#72 = EDGE_LOOP ( 'NONE', ( #68, #103 ) ) ;
#73 = CARTESIAN_POINT ( 'NONE',  ( 6.123233995736762930E-15, 75.00000000000000000, 0.000000000000000000 ) ) ;
#74 = VERTEX_POINT ( 'NONE', #287 ) ;
#75 = DIRECTION ( 'NONE',  ( -1.000000000000000000, 0.000000000000000000, 0.000000000000000000 ) ) ;
#76 = CLOSED_SHELL ( 'NONE', ( #78, #129, #177, #221 ) ) ;
#77 = VERTEX_POINT ( 'NONE', #19 ) ;
#78 = ADVANCED_FACE ( 'NONE', ( #145 ), #187, .T. ) ;
#79 = CIRCLE ( 'NONE', #268, 4.999999999999993783 ) ;
#80 = PLANE ( 'NONE',  #138 ) ;
#81 = FILL_AREA_STYLE ('',( #283 ) ) ;
#82 = CARTESIAN_POINT ( 'NONE',  ( 0.000000000000000000, 25.00000000000000000, -5.000000000000000000 ) ) ;
#83 = STYLED_ITEM ( 'NONE', ( #281 ), #129 ) ;
#84 = FILL_AREA_STYLE_COLOUR ( '', #193 ) ;
#85 =( NAMED_UNIT ( * ) SI_UNIT ( $, .STERADIAN. ) SOLID_ANGLE_UNIT ( ) );
#86 = LINE ( 'NONE', #191, #152 ) ;
#87 = CARTESIAN_POINT ( 'NONE',  ( 6.123233995736762930E-15, 75.00000000000000000, 0.000000000000000000 ) ) ;
#88 = PRESENTATION_LAYER_ASSIGNMENT (  '', '', ( #188 ) ) ;
#89 = EDGE_CURVE ( 'NONE', #159, #55, #86, .T. ) ;
#90 =( NAMED_UNIT ( * ) PLANE_ANGLE_UNIT ( ) SI_UNIT ( $, .RADIAN. ) );
#91 =( LENGTH_UNIT ( ) NAMED_UNIT ( * ) SI_UNIT ( .MILLI., .METRE. ) );
#92 = COLOUR_RGB ( '',0.7921568627450980005, 0.8196078431372548767, 0.9333333333333333481 ) ;
#93 =( LENGTH_UNIT ( ) NAMED_UNIT ( * ) SI_UNIT ( .MILLI., .METRE. ) );
#94 = UNCERTAINTY_MEASURE_WITH_UNIT (LENGTH_MEASURE( 1.000000000000000082E-05 ), #93, 'distance_accuracy_value', 'NONE');
#95 = UNCERTAINTY_MEASURE_WITH_UNIT (LENGTH_MEASURE( 1.000000000000000082E-05 ), #91, 'distance_accuracy_value', 'NONE');
#96 = PRODUCT ( '59670', '59670', '', ( #262 ) ) ;
#97 = FACE_OUTER_BOUND ( 'NONE', #200, .T. ) ;
#98 = FACE_OUTER_BOUND ( 'NONE', #127, .T. ) ;
#99 = DIRECTION ( 'NONE',  ( -1.000000000000000000, 0.000000000000000000, 0.000000000000000000 ) ) ;
#100 = EDGE_CURVE ( 'NONE', #274, #50, #69, .T. ) ;
#101 = FACE_OUTER_BOUND ( 'NONE', #277, .T. ) ;
#102 =( GEOMETRIC_REPRESENTATION_CONTEXT ( 3 ) GLOBAL_UNCERTAINTY_ASSIGNED_CONTEXT ( ( #94 ) ) GLOBAL_UNIT_ASSIGNED_CONTEXT ( ( #93, #160, #21 ) ) REPRESENTATION_CONTEXT ( 'NONE', 'WORKASPACE' ) );
#103 = ORIENTED_EDGE ( 'NONE', *, *, #151, .F. ) ;
#104 = MECHANICAL_DESIGN_GEOMETRIC_PRESENTATION_REPRESENTATION (  '', ( #188 ), #124 ) ;
#105 = FILL_AREA_STYLE_COLOUR ( '', #146 ) ;
#106 = ADVANCED_FACE ( 'NONE', ( #101 ), #44, .F. ) ;
#107 = COLOUR_RGB ( '',0.7921568627450980005, 0.8196078431372548767, 0.9333333333333333481 ) ;
#108 =( GEOMETRIC_REPRESENTATION_CONTEXT ( 3 ) GLOBAL_UNCERTAINTY_ASSIGNED_CONTEXT ( ( #5 ) ) GLOBAL_UNIT_ASSIGNED_CONTEXT ( ( #249, #130, #278 ) ) REPRESENTATION_CONTEXT ( 'NONE', 'WORKASPACE' ) );
#109 = CARTESIAN_POINT ( 'NONE',  ( 0.000000000000000000, 0.000000000000000000, 0.000000000000000000 ) ) ;
#110 = DIRECTION ( 'NONE',  ( -1.000000000000000000, 0.000000000000000000, 0.000000000000000000 ) ) ;
#111 = ORIENTED_EDGE ( 'NONE', *, *, #156, .F. ) ;
#112 =( LENGTH_UNIT ( ) NAMED_UNIT ( * ) SI_UNIT ( .MILLI., .METRE. ) );
#113 = PRESENTATION_STYLE_ASSIGNMENT (( #18 ) ) ;
#114 = UNCERTAINTY_MEASURE_WITH_UNIT (LENGTH_MEASURE( 1.000000000000000082E-05 ), #10, 'distance_accuracy_value', 'NONE');
#115 = SURFACE_SIDE_STYLE ('',( #230 ) ) ;
#116 = UNCERTAINTY_MEASURE_WITH_UNIT (LENGTH_MEASURE( 1.000000000000000082E-05 ), #184, 'distance_accuracy_value', 'NONE');
#117 = PRESENTATION_STYLE_ASSIGNMENT (( #59 ) ) ;
#118 = DIRECTION ( 'NONE',  ( 0.000000000000000000, 0.000000000000000000, -1.000000000000000000 ) ) ;
#119 = EDGE_LOOP ( 'NONE', ( #266, #131 ) ) ;
#120 = SURFACE_SIDE_STYLE ('',( #231 ) ) ;
#121 = CYLINDRICAL_SURFACE ( 'NONE', #37, 4.999999999999997335 ) ;
#122 = ADVANCED_FACE ( 'NONE', ( #98 ), #121, .T. ) ;
#123 = CARTESIAN_POINT ( 'NONE',  ( 0.000000000000000000, 0.000000000000000000, 0.000000000000000000 ) ) ;
#124 =( GEOMETRIC_REPRESENTATION_CONTEXT ( 3 ) GLOBAL_UNCERTAINTY_ASSIGNED_CONTEXT ( ( #61 ) ) GLOBAL_UNIT_ASSIGNED_CONTEXT ( ( #52, #90, #204 ) ) REPRESENTATION_CONTEXT ( 'NONE', 'WORKASPACE' ) );
#125 = ORIENTED_EDGE ( 'NONE', *, *, #140, .F. ) ;
#126 = PRODUCT_DEFINITION ( 'UNKNOWN', '', #31, #56 ) ;
#127 = EDGE_LOOP ( 'NONE', ( #71, #224, #63, #111 ) ) ;
#128 = CIRCLE ( 'NONE', #276, 5.000000000000000000 ) ;
#129 = ADVANCED_FACE ( 'NONE', ( #13 ), #148, .T. ) ;
#130 =( NAMED_UNIT ( * ) PLANE_ANGLE_UNIT ( ) SI_UNIT ( $, .RADIAN. ) );
#131 = ORIENTED_EDGE ( 'NONE', *, *, #244, .T. ) ;
#132 = PRESENTATION_STYLE_ASSIGNMENT (( #29 ) ) ;
#133 = DIRECTION ( 'NONE',  ( 1.224646799147352961E-16, 1.000000000000000000, -0.000000000000000000 ) ) ;
#134 = CARTESIAN_POINT ( 'NONE',  ( 0.000000000000000000, 0.000000000000000000, -5.000000000000000000 ) ) ;
#135 = CARTESIAN_POINT ( 'NONE',  ( -4.999999999999991118, 75.00000000000000000, 0.000000000000000000 ) ) ;
#136 = UNCERTAINTY_MEASURE_WITH_UNIT (LENGTH_MEASURE( 1.000000000000000082E-05 ), #112, 'distance_accuracy_value', 'NONE');
#137 = DIRECTION ( 'NONE',  ( 1.224646799147352961E-16, 1.000000000000000000, -0.000000000000000000 ) ) ;
#138 = AXIS2_PLACEMENT_3D ( 'NONE', #206, #42, #252 ) ;
#139 = AXIS2_PLACEMENT_3D ( 'NONE', #109, #180, #149 ) ;
#140 = EDGE_CURVE ( 'NONE', #74, #77, #79, .T. ) ;
#141 =( NAMED_UNIT ( * ) PLANE_ANGLE_UNIT ( ) SI_UNIT ( $, .RADIAN. ) );
#142 = CARTESIAN_POINT ( 'NONE',  ( 0.000000000000000000, 0.000000000000000000, 0.000000000000000000 ) ) ;
#143 = DIRECTION ( 'NONE',  ( -0.000000000000000000, -1.000000000000000000, -0.000000000000000000 ) ) ;
#144 = DIRECTION ( 'NONE',  ( 0.000000000000000000, 0.000000000000000000, -1.000000000000000000 ) ) ;
#145 = FACE_OUTER_BOUND ( 'NONE', #153, .T. ) ;
#146 = COLOUR_RGB ( '',1.000000000000000000, 0.000000000000000000, 0.000000000000000000 ) ;
#147 = ORIENTED_EDGE ( 'NONE', *, *, #100, .F. ) ;
#148 = PLANE ( 'NONE',  #199 ) ;
#149 = DIRECTION ( 'NONE',  ( 0.000000000000000000, 0.000000000000000000, -1.000000000000000000 ) ) ;
#150 = SURFACE_SIDE_STYLE ('',( #168 ) ) ;
#151 = EDGE_CURVE ( 'NONE', #274, #159, #264, .T. ) ;
#152 = VECTOR ( 'NONE', #143, 1000.000000000000000 ) ;
#153 = EDGE_LOOP ( 'NONE', ( #25, #167, #271, #179 ) ) ;
#154 = EDGE_LOOP ( 'NONE', ( #28, #2, #125, #32 ) ) ;
#155 = SURFACE_STYLE_FILL_AREA ( #1 ) ;
#156 = EDGE_CURVE ( 'NONE', #77, #74, #178, .T. ) ;
#157 = DIRECTION ( 'NONE',  ( 0.000000000000000000, 0.000000000000000000, -1.000000000000000000 ) ) ;
#158 = PRESENTATION_LAYER_ASSIGNMENT (  '', '', ( #165 ) ) ;
#159 = VERTEX_POINT ( 'NONE', #82 ) ;
#160 =( NAMED_UNIT ( * ) PLANE_ANGLE_UNIT ( ) SI_UNIT ( $, .RADIAN. ) );
#161 = CARTESIAN_POINT ( 'NONE',  ( 0.000000000000000000, 0.000000000000000000, 0.000000000000000000 ) ) ;
#162 = APPLICATION_CONTEXT ( 'automotive_design' ) ;
#163 = PRESENTATION_LAYER_ASSIGNMENT (  '', '', ( #218 ) ) ;
#164 = PLANE ( 'NONE',  #223 ) ;
#165 = STYLED_ITEM ( 'NONE', ( #51 ), #201 ) ;
#166 = DIRECTION ( 'NONE',  ( 1.000000000000000000, 0.000000000000000000, 0.000000000000000000 ) ) ;
#167 = ORIENTED_EDGE ( 'NONE', *, *, #100, .T. ) ;
#168 = SURFACE_STYLE_FILL_AREA ( #81 ) ;
#169 = FACE_OUTER_BOUND ( 'NONE', #229, .T. ) ;
#170 = LINE ( 'NONE', #260, #288 ) ;
#171 = FILL_AREA_STYLE ('',( #105 ) ) ;
#172 = SURFACE_STYLE_USAGE ( .BOTH. , #120 ) ;
#173 = DIRECTION ( 'NONE',  ( 0.000000000000000000, 0.000000000000000000, 1.000000000000000000 ) ) ;
#174 = DIRECTION ( 'NONE',  ( -1.000000000000000000, 0.000000000000000000, 0.000000000000000000 ) ) ;
#175 = DIRECTION ( 'NONE',  ( -1.000000000000000000, 1.224646799147352961E-16, 0.000000000000000000 ) ) ;
#176 = PRESENTATION_LAYER_ASSIGNMENT (  '', '', ( #26 ) ) ;
#177 = ADVANCED_FACE ( 'NONE', ( #169 ), #62, .T. ) ;
#178 = CIRCLE ( 'NONE', #240, 4.999999999999993783 ) ;
#179 = ORIENTED_EDGE ( 'NONE', *, *, #89, .F. ) ;
#180 = DIRECTION ( 'NONE',  ( -0.000000000000000000, -1.000000000000000000, -0.000000000000000000 ) ) ;
#181 = SURFACE_STYLE_FILL_AREA ( #225 ) ;
#182 = ADVANCED_FACE ( 'NONE', ( #270 ), #217, .T. ) ;
#183 = CARTESIAN_POINT ( 'NONE',  ( 0.000000000000000000, 25.00000000000000000, 0.000000000000000000 ) ) ;
#184 =( LENGTH_UNIT ( ) NAMED_UNIT ( * ) SI_UNIT ( .MILLI., .METRE. ) );
#185 = AXIS2_PLACEMENT_3D ( 'NONE', #36, #173, #166 ) ;
#186 = DIRECTION ( 'NONE',  ( 0.000000000000000000, 0.000000000000000000, -1.000000000000000000 ) ) ;
#187 = CYLINDRICAL_SURFACE ( 'NONE', #47, 5.000000000000000000 ) ;
#188 = STYLED_ITEM ( 'NONE', ( #132 ), #221 ) ;
#189 = DIRECTION ( 'NONE',  ( 0.000000000000000000, 0.000000000000000000, -1.000000000000000000 ) ) ;
#190 = ADVANCED_BREP_SHAPE_REPRESENTATION ( '59670', ( #205, #201, #185 ), #228 ) ;
#191 = CARTESIAN_POINT ( 'NONE',  ( 0.000000000000000000, 0.000000000000000000, -5.000000000000000000 ) ) ;
#192 = DIRECTION ( 'NONE',  ( 0.000000000000000000, -0.000000000000000000, 1.000000000000000000 ) ) ;
#193 = COLOUR_RGB ( '',1.000000000000000000, 0.000000000000000000, 0.000000000000000000 ) ;
#194 = CIRCLE ( 'NONE', #203, 5.000000000000000000 ) ;
#195 = APPLICATION_CONTEXT ( 'automotive_design' ) ;
#196 = EDGE_CURVE ( 'NONE', #41, #40, #269, .T. ) ;
#197 = DIRECTION ( 'NONE',  ( 1.224646799147352961E-16, 1.000000000000000000, -0.000000000000000000 ) ) ;
#198 = FILL_AREA_STYLE_COLOUR ( '', #92 ) ;
#199 = AXIS2_PLACEMENT_3D ( 'NONE', #212, #209, #192 ) ;
#200 = EDGE_LOOP ( 'NONE', ( #285, #7 ) ) ;
#201 = MANIFOLD_SOLID_BREP ( 'Revolve - Tool Body (Straight Shanked)', #8 ) ;
#202 = VECTOR ( 'NONE', #233, 1000.000000000000000 ) ;
#203 = AXIS2_PLACEMENT_3D ( 'NONE', #142, #211, #118 ) ;
#204 =( NAMED_UNIT ( * ) SI_UNIT ( $, .STERADIAN. ) SOLID_ANGLE_UNIT ( ) );
#205 = MANIFOLD_SOLID_BREP ( 'Revolve - Cutting Edge', #76 ) ;
#206 = CARTESIAN_POINT ( 'NONE',  ( 5.000000000000000000, 75.00000000000000000, 0.000000000000000000 ) ) ;
#207 = APPLICATION_PROTOCOL_DEFINITION ( 'draft international standard', 'automotive_design', 1998, #162 ) ;
#208 = DIRECTION ( 'NONE',  ( 1.224646799147352961E-16, 1.000000000000000000, -0.000000000000000000 ) ) ;
#209 = DIRECTION ( 'NONE',  ( 0.000000000000000000, 1.000000000000000000, 0.000000000000000000 ) ) ;
#210 =( NAMED_UNIT ( * ) SI_UNIT ( $, .STERADIAN. ) SOLID_ANGLE_UNIT ( ) );
#211 = DIRECTION ( 'NONE',  ( -0.000000000000000000, -1.000000000000000000, -0.000000000000000000 ) ) ;
#212 = CARTESIAN_POINT ( 'NONE',  ( 0.000000000000000000, 25.00000000000000000, 0.000000000000000000 ) ) ;
#213 = DIRECTION ( 'NONE',  ( -0.000000000000000000, -1.000000000000000000, -0.000000000000000000 ) ) ;
#214 =( GEOMETRIC_REPRESENTATION_CONTEXT ( 3 ) GLOBAL_UNCERTAINTY_ASSIGNED_CONTEXT ( ( #136 ) ) GLOBAL_UNIT_ASSIGNED_CONTEXT ( ( #112, #246, #248 ) ) REPRESENTATION_CONTEXT ( 'NONE', 'WORKASPACE' ) );
#215 = SURFACE_SIDE_STYLE ('',( #64 ) ) ;
#216 = DIRECTION ( 'NONE',  ( -0.000000000000000000, -1.000000000000000000, -0.000000000000000000 ) ) ;
#217 = CYLINDRICAL_SURFACE ( 'NONE', #232, 4.999999999999997335 ) ;
#218 = STYLED_ITEM ( 'NONE', ( #238 ), #78 ) ;
#219 = COLOUR_RGB ( '',1.000000000000000000, 0.000000000000000000, 0.000000000000000000 ) ;
#220 = ORIENTED_EDGE ( 'NONE', *, *, #226, .F. ) ;
#221 = ADVANCED_FACE ( 'NONE', ( #54 ), #164, .T. ) ;
#222 = MECHANICAL_DESIGN_GEOMETRIC_PRESENTATION_REPRESENTATION (  '', ( #83 ), #102 ) ;
#223 = AXIS2_PLACEMENT_3D ( 'NONE', #161, #250, #157 ) ;
#224 = ORIENTED_EDGE ( 'NONE', *, *, #196, .T. ) ;
#225 = FILL_AREA_STYLE ('',( #34 ) ) ;
#226 = EDGE_CURVE ( 'NONE', #40, #41, #6, .T. ) ;
#227 = ORIENTED_EDGE ( 'NONE', *, *, #151, .T. ) ;
#228 =( GEOMETRIC_REPRESENTATION_CONTEXT ( 3 ) GLOBAL_UNCERTAINTY_ASSIGNED_CONTEXT ( ( #116 ) ) GLOBAL_UNIT_ASSIGNED_CONTEXT ( ( #184, #237, #85 ) ) REPRESENTATION_CONTEXT ( 'NONE', 'WORKASPACE' ) );
#229 = EDGE_LOOP ( 'NONE', ( #147, #227, #243, #35 ) ) ;
#230 = SURFACE_STYLE_FILL_AREA ( #275 ) ;
#231 = SURFACE_STYLE_FILL_AREA ( #255 ) ;
#232 = AXIS2_PLACEMENT_3D ( 'NONE', #73, #197, #75 ) ;
#233 = DIRECTION ( 'NONE',  ( -0.000000000000000000, -1.000000000000000000, -0.000000000000000000 ) ) ;
#234 = DIRECTION ( 'NONE',  ( 1.224646799147352961E-16, 1.000000000000000000, -0.000000000000000000 ) ) ;
#235 = CARTESIAN_POINT ( 'NONE',  ( -5.000000000000000000, 25.00000000000000000, 0.000000000000000000 ) ) ;
#236 = EDGE_CURVE ( 'NONE', #40, #74, #280, .T. ) ;
#237 =( NAMED_UNIT ( * ) PLANE_ANGLE_UNIT ( ) SI_UNIT ( $, .RADIAN. ) );
#238 = PRESENTATION_STYLE_ASSIGNMENT (( #172 ) ) ;
#239 = CARTESIAN_POINT ( 'NONE',  ( 6.123233995736766282E-16, 0.000000000000000000, 5.000000000000000000 ) ) ;
#240 = AXIS2_PLACEMENT_3D ( 'NONE', #14, #261, #99 ) ;
#241 = AXIS2_PLACEMENT_3D ( 'NONE', #183, #216, #144 ) ;
#242 = SURFACE_STYLE_USAGE ( .BOTH. , #150 ) ;
#243 = ORIENTED_EDGE ( 'NONE', *, *, #89, .T. ) ;
#244 = EDGE_CURVE ( 'NONE', #50, #55, #194, .T. ) ;
#245 = SURFACE_STYLE_USAGE ( .BOTH. , #45 ) ;
#246 =( NAMED_UNIT ( * ) PLANE_ANGLE_UNIT ( ) SI_UNIT ( $, .RADIAN. ) );
#247 = PRESENTATION_LAYER_ASSIGNMENT (  '', '', ( #83 ) ) ;
#248 =( NAMED_UNIT ( * ) SI_UNIT ( $, .STERADIAN. ) SOLID_ANGLE_UNIT ( ) );
#249 =( LENGTH_UNIT ( ) NAMED_UNIT ( * ) SI_UNIT ( .MILLI., .METRE. ) );
#250 = DIRECTION ( 'NONE',  ( 0.000000000000000000, -1.000000000000000000, -0.000000000000000000 ) ) ;
#251 = DIRECTION ( 'NONE',  ( -1.000000000000000000, 0.000000000000000000, 0.000000000000000000 ) ) ;
#252 = DIRECTION ( 'NONE',  ( 1.000000000000000000, -1.224646799147352961E-16, 0.000000000000000000 ) ) ;
#253 = CARTESIAN_POINT ( 'NONE',  ( 6.123233995736766282E-16, 25.00000000000000000, 5.000000000000000000 ) ) ;
#254 = PRODUCT_DEFINITION_SHAPE ( 'NONE', 'NONE',  #126 ) ;
#255 = FILL_AREA_STYLE ('',( #84 ) ) ;
#256 = AXIS2_PLACEMENT_3D ( 'NONE', #39, #234, #175 ) ;
#257 = MECHANICAL_DESIGN_GEOMETRIC_PRESENTATION_REPRESENTATION (  '', ( #23 ), #108 ) ;
#258 = DIRECTION ( 'NONE',  ( 0.000000000000000000, 0.000000000000000000, -1.000000000000000000 ) ) ;
#259 = DIRECTION ( 'NONE',  ( 1.224646799147352961E-16, 1.000000000000000000, -0.000000000000000000 ) ) ;
#260 = CARTESIAN_POINT ( 'NONE',  ( 5.000000000000003553, 75.00000000000000000, 6.123233995736763324E-16 ) ) ;
#261 = DIRECTION ( 'NONE',  ( 1.224646799147352961E-16, 1.000000000000000000, -0.000000000000000000 ) ) ;
#262 = PRODUCT_CONTEXT ( 'NONE', #195, 'mechanical' ) ;
#263 = CARTESIAN_POINT ( 'NONE',  ( 6.123233995736762930E-15, 75.00000000000000000, 0.000000000000000000 ) ) ;
#264 = CIRCLE ( 'NONE', #15, 5.000000000000000000 ) ;
#265 = VECTOR ( 'NONE', #38, 1000.000000000000000 ) ;
#266 = ORIENTED_EDGE ( 'NONE', *, *, #70, .T. ) ;
#267 = CARTESIAN_POINT ( 'NONE',  ( -7.703719777548943412E-31, 25.00000000000000000, 0.000000000000000000 ) ) ;
#268 = AXIS2_PLACEMENT_3D ( 'NONE', #87, #259, #174 ) ;
#269 = CIRCLE ( 'NONE', #58, 5.000000000000000000 ) ;
#270 = FACE_OUTER_BOUND ( 'NONE', #154, .T. ) ;
#271 = ORIENTED_EDGE ( 'NONE', *, *, #70, .F. ) ;
#272 = SURFACE_SIDE_STYLE ('',( #181 ) ) ;
#273 =( NAMED_UNIT ( * ) PLANE_ANGLE_UNIT ( ) SI_UNIT ( $, .RADIAN. ) );
#274 = VERTEX_POINT ( 'NONE', #253 ) ;
#275 = FILL_AREA_STYLE ('',( #3 ) ) ;
#276 = AXIS2_PLACEMENT_3D ( 'NONE', #123, #213, #189 ) ;
#277 = EDGE_LOOP ( 'NONE', ( #220, #60 ) ) ;
#278 =( NAMED_UNIT ( * ) SI_UNIT ( $, .STERADIAN. ) SOLID_ANGLE_UNIT ( ) );
#279 = CARTESIAN_POINT ( 'NONE',  ( 5.000000000000000000, 25.00000000000000000, 6.123233995736764310E-16 ) ) ;
#280 = LINE ( 'NONE', #135, #265 ) ;
#281 = PRESENTATION_STYLE_ASSIGNMENT (( #242 ) ) ;
#282 = CARTESIAN_POINT ( 'NONE',  ( 6.123233995736766282E-16, 0.000000000000000000, 5.000000000000000000 ) ) ;
#283 = FILL_AREA_STYLE_COLOUR ( '', #30 ) ;
#284 = CARTESIAN_POINT ( 'NONE',  ( 0.000000000000000000, 25.00000000000000000, 0.000000000000000000 ) ) ;
#285 = ORIENTED_EDGE ( 'NONE', *, *, #140, .T. ) ;
#286 =( GEOMETRIC_REPRESENTATION_CONTEXT ( 3 ) GLOBAL_UNCERTAINTY_ASSIGNED_CONTEXT ( ( #114 ) ) GLOBAL_UNIT_ASSIGNED_CONTEXT ( ( #10, #141, #210 ) ) REPRESENTATION_CONTEXT ( 'NONE', 'WORKASPACE' ) );
#287 = CARTESIAN_POINT ( 'NONE',  ( -4.999999999999987566, 75.00000000000000000, 0.000000000000000000 ) ) ;
#288 = VECTOR ( 'NONE', #137, 1000.000000000000000 ) ;
ENDSEC;
END-ISO-10303-21;
