ISO-10303-21;
HEADER;
FILE_DESCRIPTION (( 'STEP AP214' ),
    '1' );
FILE_NAME ('Micro_SHR-500-4.STEP',
    '2021-09-02T08:52:55',
    ( '' ),
    ( '' ),
    'SwSTEP 2.0',
    'SolidWorks 2020',
    '' );
FILE_SCHEMA (( 'AUTOMOTIVE_DESIGN' ));
ENDSEC;

DATA;
#1 = DIRECTION ( 'NONE',  ( -0.1736481776669311639, 2.126576849575782392E-17, 0.9848077530122080203 ) ) ;
#2 = FACE_OUTER_BOUND ( 'NONE', #153, .T. ) ;
#3 = VERTEX_POINT ( 'NONE', #5 ) ;
#4 = LINE ( 'NONE', #6, #288 ) ;
#5 = CARTESIAN_POINT ( 'NONE',  ( 0.2497500000000001386, 0.0000000000000000000, 1.000000000000000000 ) ) ;
#6 = CARTESIAN_POINT ( 'NONE',  ( 0.2497499999999999998, 3.058555380870514950E-17, -3.058555380870515566E-17 ) ) ;
#7 = CARTESIAN_POINT ( 'NONE',  ( -0.2497499999999998888, 3.060086189369449292E-17, 1.000000000000000000 ) ) ;
#8 = AXIS2_PLACEMENT_3D ( 'NONE', #51, #215, #283 ) ;
#9 = COLOUR_RGB ( '',0.7921568627450980005, 0.8196078431372548767, 0.9333333333333333481 ) ;
#10 = ORIENTED_EDGE ( 'NONE', *, *, #216, .F. ) ;
#11 = AXIS2_PLACEMENT_3D ( 'NONE', #21, #70, #272 ) ;
#12 = AXIS2_PLACEMENT_3D ( 'NONE', #232, #188, #28 ) ;
#13 = VERTEX_POINT ( 'NONE', #210 ) ;
#14 = CARTESIAN_POINT ( 'NONE',  ( 1.224646799147353454E-16, 0.0000000000000000000, 1.000000000000000000 ) ) ;
#15 = CONICAL_SURFACE ( 'NONE', #186, 0.2497499999999999998, 0.1745329251994338360 ) ;
#16 = AXIS2_PLACEMENT_3D ( 'NONE', #98, #120, #46 ) ;
#17 = VERTEX_POINT ( 'NONE', #23 ) ;
#18 = DIRECTION ( 'NONE',  ( -1.224646799147353454E-16, -0.0000000000000000000, -1.000000000000000000 ) ) ;
#19 = ORIENTED_EDGE ( 'NONE', *, *, #176, .F. ) ;
#20 = EDGE_LOOP ( 'NONE', ( #281, #154, #118, #236 ) ) ;
#21 = CARTESIAN_POINT ( 'NONE',  ( 0.0000000000000000000, 0.0000000000000000000, 3.000000000000000444 ) ) ;
#22 = VERTEX_POINT ( 'NONE', #249 ) ;
#23 = CARTESIAN_POINT ( 'NONE',  ( -0.2497499999999999998, 0.0000000000000000000, 6.117110761741031132E-17 ) ) ;
#24 = CIRCLE ( 'NONE', #38, 0.2500000000000000000 ) ;
#25 = DIRECTION ( 'NONE',  ( 1.000000000000000000, 0.0000000000000000000, 0.0000000000000000000 ) ) ;
#26 = DIRECTION ( 'NONE',  ( -0.0000000000000000000, -0.0000000000000000000, -1.000000000000000000 ) ) ;
#27 = CARTESIAN_POINT ( 'NONE',  ( -0.2500000000000000000, 0.0000000000000000000, 3.000000000000000444 ) ) ;
#28 = DIRECTION ( 'NONE',  ( 1.000000000000000000, 0.0000000000000000000, 0.0000000000000000000 ) ) ;
#29 = LENGTH_MEASURE_WITH_UNIT ( LENGTH_MEASURE( 0.02539999999999999897 ), #107 );
#30 = ADVANCED_FACE ( 'NONE', ( #2 ), #170, .T. ) ;
#31 =( CONVERSION_BASED_UNIT ( 'INCH', #29 ) LENGTH_UNIT ( ) NAMED_UNIT ( #190 ) );
#32 = CYLINDRICAL_SURFACE ( 'NONE', #233, 0.2497499999999999998 ) ;
#33 = ADVANCED_FACE ( 'NONE', ( #290 ), #32, .T. ) ;
#34 = SURFACE_STYLE_FILL_AREA ( #62 ) ;
#35 = EDGE_LOOP ( 'NONE', ( #19, #66, #227, #112 ) ) ;
#36 = EDGE_LOOP ( 'NONE', ( #263, #138 ) ) ;
#37 = AXIS2_PLACEMENT_3D ( 'NONE', #278, #61, #78 ) ;
#38 = AXIS2_PLACEMENT_3D ( 'NONE', #100, #185, #255 ) ;
#39 = ORIENTED_EDGE ( 'NONE', *, *, #105, .T. ) ;
#40 = DIRECTION ( 'NONE',  ( -1.000000000000000000, 0.0000000000000000000, 1.224646799147353700E-16 ) ) ;
#41 = FACE_OUTER_BOUND ( 'NONE', #65, .T. ) ;
#42 = VECTOR ( 'NONE', #294, 39.37007874015748854 ) ;
#43 =( GEOMETRIC_REPRESENTATION_CONTEXT ( 3 ) GLOBAL_UNCERTAINTY_ASSIGNED_CONTEXT ( ( #229 ) ) GLOBAL_UNIT_ASSIGNED_CONTEXT ( ( #31, #200, #289 ) ) REPRESENTATION_CONTEXT ( 'NONE', 'WORKASPACE' ) );
#44 = EDGE_CURVE ( 'NONE', #267, #17, #132, .T. ) ;
#45 = CARTESIAN_POINT ( 'NONE',  ( 1.224646799147353454E-16, 0.0000000000000000000, 1.000000000000000000 ) ) ;
#46 = DIRECTION ( 'NONE',  ( -1.000000000000000000, 0.0000000000000000000, 0.0000000000000000000 ) ) ;
#47 = DIRECTION ( 'NONE',  ( -0.0000000000000000000, -0.0000000000000000000, -1.000000000000000000 ) ) ;
#48 = DIMENSIONAL_EXPONENTS ( 1.000000000000000000, 0.0000000000000000000, 0.0000000000000000000, 0.0000000000000000000, 0.0000000000000000000, 0.0000000000000000000, 0.0000000000000000000 ) ;
#49 = CARTESIAN_POINT ( 'NONE',  ( 0.2500000000000000000, 3.061616997868382402E-17, 2.985000000000001208 ) ) ;
#50 = MECHANICAL_DESIGN_GEOMETRIC_PRESENTATION_REPRESENTATION (  '', ( #178 ), #43 ) ;
#51 = CARTESIAN_POINT ( 'NONE',  ( 1.224646799147353454E-16, 0.0000000000000000000, 1.000000000000000000 ) ) ;
#52 = DIRECTION ( 'NONE',  ( -0.0000000000000000000, -0.0000000000000000000, -1.000000000000000000 ) ) ;
#53 = PRODUCT_DEFINITION_SHAPE ( 'NONE', 'NONE',  #237 ) ;
#54 = PLANE ( 'NONE',  #177 ) ;
#55 = DIRECTION ( 'NONE',  ( -1.000000000000000000, 0.0000000000000000000, 0.0000000000000000000 ) ) ;
#56 =( NAMED_UNIT ( * ) SI_UNIT ( $, .STERADIAN. ) SOLID_ANGLE_UNIT ( ) );
#57 = EDGE_CURVE ( 'NONE', #92, #156, #145, .T. ) ;
#58 = VECTOR ( 'NONE', #152, 39.37007874015748854 ) ;
#59 = CARTESIAN_POINT ( 'NONE',  ( 0.0000000000000000000, 0.0000000000000000000, 0.0000000000000000000 ) ) ;
#60 = DIRECTION ( 'NONE',  ( 1.000000000000000000, 0.0000000000000000000, 0.0000000000000000000 ) ) ;
#61 = DIRECTION ( 'NONE',  ( 0.0000000000000000000, 0.0000000000000000000, -1.000000000000000000 ) ) ;
#62 = FILL_AREA_STYLE ('',( #282 ) ) ;
#63 =( LENGTH_UNIT ( ) NAMED_UNIT ( * ) SI_UNIT ( $, .METRE. ) );
#64 = AXIS2_PLACEMENT_3D ( 'NONE', #45, #209, #275 ) ;
#65 = EDGE_LOOP ( 'NONE', ( #39, #231, #241, #256 ) ) ;
#66 = ORIENTED_EDGE ( 'NONE', *, *, #216, .T. ) ;
#67 = EDGE_CURVE ( 'NONE', #17, #267, #159, .T. ) ;
#68 = DIRECTION ( 'NONE',  ( -1.224646799147353454E-16, -0.0000000000000000000, -1.000000000000000000 ) ) ;
#69 = ADVANCED_FACE ( 'NONE', ( #172 ), #299, .T. ) ;
#70 = DIRECTION ( 'NONE',  ( 0.0000000000000000000, 0.0000000000000000000, 1.000000000000000000 ) ) ;
#71 = AXIS2_PLACEMENT_3D ( 'NONE', #94, #293, #268 ) ;
#72 = CIRCLE ( 'NONE', #12, 0.2500000000000000000 ) ;
#73 = EDGE_LOOP ( 'NONE', ( #196, #221, #133, #264 ) ) ;
#74 = UNCERTAINTY_MEASURE_WITH_UNIT (LENGTH_MEASURE( 1.000000000000000082E-05 ), #222, 'distance_accuracy_value', 'NONE');
#75 = CARTESIAN_POINT ( 'NONE',  ( 0.0000000000000000000, 0.0000000000000000000, 3.000000000000000444 ) ) ;
#76 = ADVANCED_FACE ( 'NONE', ( #139 ), #96, .T. ) ;
#77 = CARTESIAN_POINT ( 'NONE',  ( -0.2500000000000000000, 0.0000000000000000000, 2.985000000000001208 ) ) ;
#78 = DIRECTION ( 'NONE',  ( 1.000000000000000000, 0.0000000000000000000, 0.0000000000000000000 ) ) ;
#79 = FACE_OUTER_BOUND ( 'NONE', #220, .T. ) ;
#80 = ADVANCED_FACE ( 'NONE', ( #41 ), #251, .T. ) ;
#81 = STYLED_ITEM ( 'NONE', ( #108 ), #148 ) ;
#82 = VECTOR ( 'NONE', #143, 39.37007874015748143 ) ;
#83 = DIRECTION ( 'NONE',  ( -1.224646799147353454E-16, -0.0000000000000000000, -1.000000000000000000 ) ) ;
#84 = CARTESIAN_POINT ( 'NONE',  ( 3.745650057197990990E-33, 0.0000000000000000000, 3.058555380870515566E-17 ) ) ;
#85 = EDGE_LOOP ( 'NONE', ( #292, #199, #90, #10 ) ) ;
#86 = PRODUCT_CONTEXT ( 'NONE', #125, 'mechanical' ) ;
#87 = LINE ( 'NONE', #197, #224 ) ;
#88 = AXIS2_PLACEMENT_3D ( 'NONE', #171, #261, #60 ) ;
#89 = APPLICATION_CONTEXT ( 'automotive_design' ) ;
#90 = ORIENTED_EDGE ( 'NONE', *, *, #126, .T. ) ;
#91 = DIRECTION ( 'NONE',  ( -1.224646799147353454E-16, -0.0000000000000000000, -1.000000000000000000 ) ) ;
#92 = VERTEX_POINT ( 'NONE', #219 ) ;
#93 = ADVANCED_FACE ( 'NONE', ( #243 ), #15, .T. ) ;
#94 = CARTESIAN_POINT ( 'NONE',  ( 0.0000000000000000000, 0.0000000000000000000, 3.000000000000000444 ) ) ;
#95 = CLOSED_SHELL ( 'NONE', ( #33, #93, #30, #80, #69, #76, #164, #97, #234, #117 ) ) ;
#96 = PLANE ( 'NONE',  #11 ) ;
#97 = ADVANCED_FACE ( 'NONE', ( #104 ), #191, .T. ) ;
#98 = CARTESIAN_POINT ( 'NONE',  ( 1.224646799147353454E-16, 0.0000000000000000000, 1.000000000000000000 ) ) ;
#99 = ORIENTED_EDGE ( 'NONE', *, *, #274, .F. ) ;
#100 = CARTESIAN_POINT ( 'NONE',  ( 0.0000000000000000000, 0.0000000000000000000, 2.985000000000001208 ) ) ;
#101 = UNCERTAINTY_MEASURE_WITH_UNIT (LENGTH_MEASURE( 1.000000000000000082E-05 ), #173, 'distance_accuracy_value', 'NONE');
#102 = CARTESIAN_POINT ( 'NONE',  ( -0.2497499999999999998, 0.0000000000000000000, 3.058555380870515566E-17 ) ) ;
#103 = AXIS2_PLACEMENT_3D ( 'NONE', #179, #91, #180 ) ;
#104 = FACE_OUTER_BOUND ( 'NONE', #109, .T. ) ;
#105 = EDGE_CURVE ( 'NONE', #259, #260, #296, .T. ) ;
#106 = AXIS2_PLACEMENT_3D ( 'NONE', #162, #18, #131 ) ;
#107 =( LENGTH_UNIT ( ) NAMED_UNIT ( * ) SI_UNIT ( $, .METRE. ) );
#108 = PRESENTATION_STYLE_ASSIGNMENT (( #228 ) ) ;
#109 = EDGE_LOOP ( 'NONE', ( #99, #168, #242, #158 ) ) ;
#110 = AXIS2_PLACEMENT_3D ( 'NONE', #192, #52, #55 ) ;
#111 = VECTOR ( 'NONE', #26, 39.37007874015748143 ) ;
#112 = ORIENTED_EDGE ( 'NONE', *, *, #57, .F. ) ;
#113 = ORIENTED_EDGE ( 'NONE', *, *, #140, .F. ) ;
#114 = DIRECTION ( 'NONE',  ( 0.0000000000000000000, 0.0000000000000000000, -1.000000000000000000 ) ) ;
#115 = AXIS2_PLACEMENT_3D ( 'NONE', #149, #68, #40 ) ;
#116 = CARTESIAN_POINT ( 'NONE',  ( -0.2497499999999998888, 3.058555380870514950E-17, 1.000000000000000000 ) ) ;
#117 = ADVANCED_FACE ( 'NONE', ( #79 ), #54, .F. ) ;
#118 = ORIENTED_EDGE ( 'NONE', *, *, #67, .F. ) ;
#119 = APPLICATION_PROTOCOL_DEFINITION ( 'draft international standard', 'automotive_design', 1998, #89 ) ;
#120 = DIRECTION ( 'NONE',  ( -1.224646799147353454E-16, -0.0000000000000000000, -1.000000000000000000 ) ) ;
#121 = DIMENSIONAL_EXPONENTS ( 1.000000000000000000, 0.0000000000000000000, 0.0000000000000000000, 0.0000000000000000000, 0.0000000000000000000, 0.0000000000000000000, 0.0000000000000000000 ) ;
#122 = AXIS2_PLACEMENT_3D ( 'NONE', #207, #114, #211 ) ;
#123 = CARTESIAN_POINT ( 'NONE',  ( 0.2500000000000000000, 3.061616997868382402E-17, 3.000000000000000444 ) ) ;
#124 = PRODUCT_RELATED_PRODUCT_CATEGORY ( 'part', '', ( #276 ) ) ;
#125 = APPLICATION_CONTEXT ( 'automotive_design' ) ;
#126 = EDGE_CURVE ( 'NONE', #13, #259, #189, .T. ) ;
#127 =( LENGTH_UNIT ( ) NAMED_UNIT ( * ) SI_UNIT ( $, .METRE. ) );
#128 = PRODUCT_DEFINITION_FORMATION_WITH_SPECIFIED_SOURCE ( 'ANY', '', #276, .NOT_KNOWN. ) ;
#129 = DIRECTION ( 'NONE',  ( 0.0000000000000000000, 0.0000000000000000000, 1.000000000000000000 ) ) ;
#130 = PRESENTATION_STYLE_ASSIGNMENT (( #157 ) ) ;
#131 = DIRECTION ( 'NONE',  ( 1.000000000000000000, 0.0000000000000000000, 0.0000000000000000000 ) ) ;
#132 = CIRCLE ( 'NONE', #103, 0.2497499999999999998 ) ;
#133 = ORIENTED_EDGE ( 'NONE', *, *, #277, .T. ) ;
#134 = LENGTH_MEASURE_WITH_UNIT ( LENGTH_MEASURE( 0.02539999999999999897 ), #127 );
#135 = LENGTH_MEASURE_WITH_UNIT ( LENGTH_MEASURE( 0.02539999999999999897 ), #63 );
#136 = EDGE_CURVE ( 'NONE', #22, #260, #235, .T. ) ;
#137 = CARTESIAN_POINT ( 'NONE',  ( 0.2350000000000011524, 2.877919977996294002E-17, 3.000000000000000444 ) ) ;
#138 = ORIENTED_EDGE ( 'NONE', *, *, #184, .T. ) ;
#139 = FACE_OUTER_BOUND ( 'NONE', #36, .T. ) ;
#140 = EDGE_CURVE ( 'NONE', #3, #92, #87, .T. ) ;
#141 = SHAPE_DEFINITION_REPRESENTATION ( #53, #245 ) ;
#142 = FILL_AREA_STYLE_COLOUR ( '', #212 ) ;
#143 = DIRECTION ( 'NONE',  ( -1.224646799147353454E-16, -0.0000000000000000000, -1.000000000000000000 ) ) ;
#144 = CYLINDRICAL_SURFACE ( 'NONE', #115, 0.2497499999999999998 ) ;
#145 = CIRCLE ( 'NONE', #106, 0.2500000000000000000 ) ;
#146 = AXIS2_PLACEMENT_3D ( 'NONE', #75, #253, #150 ) ;
#147 = CARTESIAN_POINT ( 'NONE',  ( -0.2499999999999998612, 0.0000000000000000000, 1.001417820454904462 ) ) ;
#148 = MANIFOLD_SOLID_BREP ( 'Cut-Revolve1', #95 ) ;
#149 = CARTESIAN_POINT ( 'NONE',  ( 0.0000000000000000000, 0.0000000000000000000, 0.0000000000000000000 ) ) ;
#150 = DIRECTION ( 'NONE',  ( 1.000000000000000000, 0.0000000000000000000, 0.0000000000000000000 ) ) ;
#151 = LINE ( 'NONE', #116, #279 ) ;
#152 = DIRECTION ( 'NONE',  ( -0.7071067811865402453, 0.0000000000000000000, -0.7071067811865546782 ) ) ;
#153 = EDGE_LOOP ( 'NONE', ( #204, #269, #223, #247 ) ) ;
#154 = ORIENTED_EDGE ( 'NONE', *, *, #205, .T. ) ;
#155 = MECHANICAL_DESIGN_GEOMETRIC_PRESENTATION_REPRESENTATION (  '', ( #81 ), #160 ) ;
#156 = VERTEX_POINT ( 'NONE', #147 ) ;
#157 = SURFACE_STYLE_USAGE ( .BOTH. , #218 ) ;
#158 = ORIENTED_EDGE ( 'NONE', *, *, #57, .T. ) ;
#159 = CIRCLE ( 'NONE', #239, 0.2497499999999999998 ) ;
#160 =( GEOMETRIC_REPRESENTATION_CONTEXT ( 3 ) GLOBAL_UNCERTAINTY_ASSIGNED_CONTEXT ( ( #74 ) ) GLOBAL_UNIT_ASSIGNED_CONTEXT ( ( #222, #187, #252 ) ) REPRESENTATION_CONTEXT ( 'NONE', 'WORKASPACE' ) );
#161 = EDGE_LOOP ( 'NONE', ( #163, #238, #280, #113 ) ) ;
#162 = CARTESIAN_POINT ( 'NONE',  ( 1.226383128429217700E-16, 0.0000000000000000000, 1.001417820454904462 ) ) ;
#163 = ORIENTED_EDGE ( 'NONE', *, *, #195, .F. ) ;
#164 = ADVANCED_FACE ( 'NONE', ( #246 ), #240, .T. ) ;
#165 =( GEOMETRIC_REPRESENTATION_CONTEXT ( 3 ) GLOBAL_UNCERTAINTY_ASSIGNED_CONTEXT ( ( #101 ) ) GLOBAL_UNIT_ASSIGNED_CONTEXT ( ( #173, #285, #56 ) ) REPRESENTATION_CONTEXT ( 'NONE', 'WORKASPACE' ) );
#166 = DIRECTION ( 'NONE',  ( 0.1736481776669313304, 0.0000000000000000000, 0.9848077530122077983 ) ) ;
#167 = EDGE_CURVE ( 'NONE', #3, #295, #284, .T. ) ;
#168 = ORIENTED_EDGE ( 'NONE', *, *, #167, .F. ) ;
#169 = DIRECTION ( 'NONE',  ( 0.0000000000000000000, 0.0000000000000000000, 1.000000000000000000 ) ) ;
#170 = CONICAL_SURFACE ( 'NONE', #201, 0.2350000000000011524, 0.7853981633974380649 ) ;
#171 = CARTESIAN_POINT ( 'NONE',  ( 0.0000000000000000000, 0.0000000000000000000, 0.0000000000000000000 ) ) ;
#172 = FACE_OUTER_BOUND ( 'NONE', #35, .T. ) ;
#173 =( CONVERSION_BASED_UNIT ( 'INCH', #134 ) LENGTH_UNIT ( ) NAMED_UNIT ( #121 ) );
#174 = DIRECTION ( 'NONE',  ( -1.000000000000000000, 0.0000000000000000000, 1.224646799147353700E-16 ) ) ;
#175 = SURFACE_STYLE_FILL_AREA ( #286 ) ;
#176 = EDGE_CURVE ( 'NONE', #260, #92, #182, .T. ) ;
#177 = AXIS2_PLACEMENT_3D ( 'NONE', #59, #129, #217 ) ;
#178 = STYLED_ITEM ( 'NONE', ( #130 ), #245 ) ;
#179 = CARTESIAN_POINT ( 'NONE',  ( 3.745650057197990990E-33, 0.0000000000000000000, 3.058555380870515566E-17 ) ) ;
#180 = DIRECTION ( 'NONE',  ( -1.000000000000000000, 0.0000000000000000000, 1.224646799147353700E-16 ) ) ;
#181 = DIRECTION ( 'NONE',  ( 1.224646799147353454E-16, 0.0000000000000000000, 1.000000000000000000 ) ) ;
#182 = LINE ( 'NONE', #123, #111 ) ;
#183 = PRODUCT_DEFINITION_CONTEXT ( 'detailed design', #89, 'design' ) ;
#184 = EDGE_CURVE ( 'NONE', #22, #13, #298, .T. ) ;
#185 = DIRECTION ( 'NONE',  ( 0.0000000000000000000, 0.0000000000000000000, -1.000000000000000000 ) ) ;
#186 = AXIS2_PLACEMENT_3D ( 'NONE', #14, #181, #226 ) ;
#187 =( NAMED_UNIT ( * ) PLANE_ANGLE_UNIT ( ) SI_UNIT ( $, .RADIAN. ) );
#188 = DIRECTION ( 'NONE',  ( -1.224646799147353454E-16, -0.0000000000000000000, -1.000000000000000000 ) ) ;
#189 = LINE ( 'NONE', #257, #58 ) ;
#190 = DIMENSIONAL_EXPONENTS ( 1.000000000000000000, 0.0000000000000000000, 0.0000000000000000000, 0.0000000000000000000, 0.0000000000000000000, 0.0000000000000000000, 0.0000000000000000000 ) ;
#191 = CONICAL_SURFACE ( 'NONE', #8, 0.2497499999999999998, 0.1745329251994338360 ) ;
#192 = CARTESIAN_POINT ( 'NONE',  ( 0.0000000000000000000, 0.0000000000000000000, 3.000000000000000444 ) ) ;
#193 = APPLICATION_PROTOCOL_DEFINITION ( 'draft international standard', 'automotive_design', 1998, #125 ) ;
#194 = DIRECTION ( 'NONE',  ( -1.224646799147353454E-16, -0.0000000000000000000, -1.000000000000000000 ) ) ;
#195 = EDGE_CURVE ( 'NONE', #295, #3, #202, .T. ) ;
#196 = ORIENTED_EDGE ( 'NONE', *, *, #205, .F. ) ;
#197 = CARTESIAN_POINT ( 'NONE',  ( 0.2497500000000001386, 0.0000000000000000000, 1.000000000000000000 ) ) ;
#198 = CARTESIAN_POINT ( 'NONE',  ( 0.0000000000000000000, 0.0000000000000000000, 0.0000000000000000000 ) ) ;
#199 = ORIENTED_EDGE ( 'NONE', *, *, #208, .F. ) ;
#200 =( NAMED_UNIT ( * ) PLANE_ANGLE_UNIT ( ) SI_UNIT ( $, .RADIAN. ) );
#201 = AXIS2_PLACEMENT_3D ( 'NONE', #273, #203, #262 ) ;
#202 = CIRCLE ( 'NONE', #64, 0.2497499999999999998 ) ;
#203 = DIRECTION ( 'NONE',  ( 0.0000000000000000000, 0.0000000000000000000, -1.000000000000000000 ) ) ;
#204 = ORIENTED_EDGE ( 'NONE', *, *, #184, .F. ) ;
#205 = EDGE_CURVE ( 'NONE', #3, #267, #4, .T. ) ;
#206 = CARTESIAN_POINT ( 'NONE',  ( 0.0000000000000000000, 0.0000000000000000000, 3.000000000000000444 ) ) ;
#207 = CARTESIAN_POINT ( 'NONE',  ( 0.0000000000000000000, 0.0000000000000000000, 3.000000000000000444 ) ) ;
#208 = EDGE_CURVE ( 'NONE', #13, #22, #265, .T. ) ;
#209 = DIRECTION ( 'NONE',  ( -1.224646799147353454E-16, -0.0000000000000000000, -1.000000000000000000 ) ) ;
#210 = CARTESIAN_POINT ( 'NONE',  ( -0.2350000000000011524, 0.0000000000000000000, 3.000000000000000444 ) ) ;
#211 = DIRECTION ( 'NONE',  ( -1.000000000000000000, 0.0000000000000000000, 0.0000000000000000000 ) ) ;
#212 = COLOUR_RGB ( '',0.7921568627450980005, 0.8196078431372548767, 0.9333333333333333481 ) ;
#213 = PRESENTATION_LAYER_ASSIGNMENT (  '', '', ( #178 ) ) ;
#214 = LINE ( 'NONE', #27, #250 ) ;
#215 = DIRECTION ( 'NONE',  ( 1.224646799147353454E-16, 0.0000000000000000000, 1.000000000000000000 ) ) ;
#216 = EDGE_CURVE ( 'NONE', #260, #259, #24, .T. ) ;
#217 = DIRECTION ( 'NONE',  ( 1.000000000000000000, 0.0000000000000000000, -0.0000000000000000000 ) ) ;
#218 = SURFACE_SIDE_STYLE ('',( #34 ) ) ;
#219 = CARTESIAN_POINT ( 'NONE',  ( 0.2500000000000001110, 3.061616997868383634E-17, 1.001417820454904462 ) ) ;
#220 = EDGE_LOOP ( 'NONE', ( #291, #271 ) ) ;
#221 = ORIENTED_EDGE ( 'NONE', *, *, #167, .T. ) ;
#222 =( CONVERSION_BASED_UNIT ( 'INCH', #135 ) LENGTH_UNIT ( ) NAMED_UNIT ( #48 ) );
#223 = ORIENTED_EDGE ( 'NONE', *, *, #105, .F. ) ;
#224 = VECTOR ( 'NONE', #166, 39.37007874015748143 ) ;
#225 = DIRECTION ( 'NONE',  ( -1.000000000000000000, 0.0000000000000000000, 1.224646799147353700E-16 ) ) ;
#226 = DIRECTION ( 'NONE',  ( 1.000000000000000000, 0.0000000000000000000, 0.0000000000000000000 ) ) ;
#227 = ORIENTED_EDGE ( 'NONE', *, *, #287, .T. ) ;
#228 = SURFACE_STYLE_USAGE ( .BOTH. , #266 ) ;
#229 = UNCERTAINTY_MEASURE_WITH_UNIT (LENGTH_MEASURE( 1.000000000000000082E-05 ), #31, 'distance_accuracy_value', 'NONE');
#230 = CARTESIAN_POINT ( 'NONE',  ( 0.2497499999999999998, 3.058555380870514950E-17, 0.0000000000000000000 ) ) ;
#231 = ORIENTED_EDGE ( 'NONE', *, *, #176, .T. ) ;
#232 = CARTESIAN_POINT ( 'NONE',  ( 1.226383128429217700E-16, 0.0000000000000000000, 1.001417820454904462 ) ) ;
#233 = AXIS2_PLACEMENT_3D ( 'NONE', #198, #194, #225 ) ;
#234 = ADVANCED_FACE ( 'NONE', ( #297 ), #144, .T. ) ;
#235 = LINE ( 'NONE', #137, #42 ) ;
#236 = ORIENTED_EDGE ( 'NONE', *, *, #277, .F. ) ;
#237 = PRODUCT_DEFINITION ( 'UNKNOWN', '', #128, #183 ) ;
#238 = ORIENTED_EDGE ( 'NONE', *, *, #274, .T. ) ;
#239 = AXIS2_PLACEMENT_3D ( 'NONE', #84, #83, #174 ) ;
#240 = CONICAL_SURFACE ( 'NONE', #122, 0.2350000000000011524, 0.7853981633974380649 ) ;
#241 = ORIENTED_EDGE ( 'NONE', *, *, #258, .F. ) ;
#242 = ORIENTED_EDGE ( 'NONE', *, *, #140, .T. ) ;
#243 = FACE_OUTER_BOUND ( 'NONE', #161, .T. ) ;
#244 = PRESENTATION_LAYER_ASSIGNMENT (  '', '', ( #81 ) ) ;
#245 = ADVANCED_BREP_SHAPE_REPRESENTATION ( 'Micro_SHR-500-4', ( #148, #88 ), #165 ) ;
#246 = FACE_OUTER_BOUND ( 'NONE', #85, .T. ) ;
#247 = ORIENTED_EDGE ( 'NONE', *, *, #126, .F. ) ;
#248 = DIRECTION ( 'NONE',  ( -1.224646799147353454E-16, -0.0000000000000000000, -1.000000000000000000 ) ) ;
#249 = CARTESIAN_POINT ( 'NONE',  ( 0.2350000000000011524, 2.969768487932338510E-17, 3.000000000000000444 ) ) ;
#250 = VECTOR ( 'NONE', #47, 39.37007874015748143 ) ;
#251 = CYLINDRICAL_SURFACE ( 'NONE', #110, 0.2500000000000000000 ) ;
#252 =( NAMED_UNIT ( * ) SI_UNIT ( $, .STERADIAN. ) SOLID_ANGLE_UNIT ( ) );
#253 = DIRECTION ( 'NONE',  ( 0.0000000000000000000, 0.0000000000000000000, 1.000000000000000000 ) ) ;
#254 = LINE ( 'NONE', #102, #82 ) ;
#255 = DIRECTION ( 'NONE',  ( 1.000000000000000000, 0.0000000000000000000, 0.0000000000000000000 ) ) ;
#256 = ORIENTED_EDGE ( 'NONE', *, *, #287, .F. ) ;
#257 = CARTESIAN_POINT ( 'NONE',  ( -0.2350000000000011524, 0.0000000000000000000, 3.000000000000000444 ) ) ;
#258 = EDGE_CURVE ( 'NONE', #156, #92, #72, .T. ) ;
#259 = VERTEX_POINT ( 'NONE', #77 ) ;
#260 = VERTEX_POINT ( 'NONE', #49 ) ;
#261 = DIRECTION ( 'NONE',  ( 0.0000000000000000000, 0.0000000000000000000, 1.000000000000000000 ) ) ;
#262 = DIRECTION ( 'NONE',  ( -1.000000000000000000, 0.0000000000000000000, 0.0000000000000000000 ) ) ;
#263 = ORIENTED_EDGE ( 'NONE', *, *, #208, .T. ) ;
#264 = ORIENTED_EDGE ( 'NONE', *, *, #44, .F. ) ;
#265 = CIRCLE ( 'NONE', #146, 0.2350000000000011524 ) ;
#266 = SURFACE_SIDE_STYLE ('',( #175 ) ) ;
#267 = VERTEX_POINT ( 'NONE', #230 ) ;
#268 = DIRECTION ( 'NONE',  ( -1.000000000000000000, 0.0000000000000000000, 0.0000000000000000000 ) ) ;
#269 = ORIENTED_EDGE ( 'NONE', *, *, #136, .T. ) ;
#270 = AXIS2_PLACEMENT_3D ( 'NONE', #206, #169, #25 ) ;
#271 = ORIENTED_EDGE ( 'NONE', *, *, #44, .T. ) ;
#272 = DIRECTION ( 'NONE',  ( 1.000000000000000000, 0.0000000000000000000, -0.0000000000000000000 ) ) ;
#273 = CARTESIAN_POINT ( 'NONE',  ( 0.0000000000000000000, 0.0000000000000000000, 3.000000000000000444 ) ) ;
#274 = EDGE_CURVE ( 'NONE', #295, #156, #151, .T. ) ;
#275 = DIRECTION ( 'NONE',  ( -1.000000000000000000, 0.0000000000000000000, 0.0000000000000000000 ) ) ;
#276 = PRODUCT ( 'Micro_SHR-500-4', 'Micro_SHR-500-4', '', ( #86 ) ) ;
#277 = EDGE_CURVE ( 'NONE', #295, #17, #254, .T. ) ;
#278 = CARTESIAN_POINT ( 'NONE',  ( 0.0000000000000000000, 0.0000000000000000000, 2.985000000000001208 ) ) ;
#279 = VECTOR ( 'NONE', #1, 39.37007874015747433 ) ;
#280 = ORIENTED_EDGE ( 'NONE', *, *, #258, .T. ) ;
#281 = ORIENTED_EDGE ( 'NONE', *, *, #195, .T. ) ;
#282 = FILL_AREA_STYLE_COLOUR ( '', #9 ) ;
#283 = DIRECTION ( 'NONE',  ( 1.000000000000000000, 0.0000000000000000000, 0.0000000000000000000 ) ) ;
#284 = CIRCLE ( 'NONE', #16, 0.2497499999999999998 ) ;
#285 =( NAMED_UNIT ( * ) PLANE_ANGLE_UNIT ( ) SI_UNIT ( $, .RADIAN. ) );
#286 = FILL_AREA_STYLE ('',( #142 ) ) ;
#287 = EDGE_CURVE ( 'NONE', #259, #156, #214, .T. ) ;
#288 = VECTOR ( 'NONE', #248, 39.37007874015748143 ) ;
#289 =( NAMED_UNIT ( * ) SI_UNIT ( $, .STERADIAN. ) SOLID_ANGLE_UNIT ( ) );
#290 = FACE_OUTER_BOUND ( 'NONE', #20, .T. ) ;
#291 = ORIENTED_EDGE ( 'NONE', *, *, #67, .T. ) ;
#292 = ORIENTED_EDGE ( 'NONE', *, *, #136, .F. ) ;
#293 = DIRECTION ( 'NONE',  ( -0.0000000000000000000, -0.0000000000000000000, -1.000000000000000000 ) ) ;
#294 = DIRECTION ( 'NONE',  ( 0.7071067811865402453, 8.659560562354845344E-17, -0.7071067811865546782 ) ) ;
#295 = VERTEX_POINT ( 'NONE', #7 ) ;
#296 = CIRCLE ( 'NONE', #37, 0.2500000000000000000 ) ;
#297 = FACE_OUTER_BOUND ( 'NONE', #73, .T. ) ;
#298 = CIRCLE ( 'NONE', #270, 0.2350000000000011524 ) ;
#299 = CYLINDRICAL_SURFACE ( 'NONE', #71, 0.2500000000000000000 ) ;
ENDSEC;
END-ISO-10303-21;
