ISO-10303-21;
HEADER;
FILE_DESCRIPTION (( 'STEP AP214' ),
    '1' );
FILE_NAME ('59533.STEP',
    '2023-07-24T15:09:31',
    ( '' ),
    ( '' ),
    'SwSTEP 2.0',
    'SolidWorks 2023',
    '' );
FILE_SCHEMA (( 'AUTOMOTIVE_DESIGN' ));
ENDSEC;

DATA;
#1 = PRODUCT_DEFINITION_CONTEXT ( 'detailed design', #365, 'design' ) ;
#2 = CLOSED_SHELL ( 'NONE', ( #108, #232, #245, #218, #201, #9 ) ) ;
#3 = FACE_OUTER_BOUND ( 'NONE', #356, .T. ) ;
#4 = CARTESIAN_POINT ( 'NONE',  ( 10.00000000000000000, 89.00000000000000000, 1.224646799147353256E-15 ) ) ;
#5 = DIRECTION ( 'NONE',  ( 0.000000000000000000, 0.000000000000000000, -1.000000000000000000 ) ) ;
#6 = DIRECTION ( 'NONE',  ( 1.000000000000000000, 0.000000000000000000, -1.224646799147353207E-16 ) ) ;
#7 = SURFACE_STYLE_FILL_AREA ( #149 ) ;
#8 = FILL_AREA_STYLE ('',( #154 ) ) ;
#9 = ADVANCED_FACE ( 'NONE', ( #223 ), #282, .T. ) ;
#10 = SURFACE_STYLE_FILL_AREA ( #128 ) ;
#11 = CIRCLE ( 'NONE', #289, 10.00000000000000178 ) ;
#12 = AXIS2_PLACEMENT_3D ( 'NONE', #293, #120, #279 ) ;
#13 = SURFACE_SIDE_STYLE ('',( #165 ) ) ;
#14 = EDGE_LOOP ( 'NONE', ( #332, #17, #81, #200 ) ) ;
#15 = CARTESIAN_POINT ( 'NONE',  ( 0.000000000000000000, 1.000000000000000000, -9.000000000000001776 ) ) ;
#16 = PRESENTATION_STYLE_ASSIGNMENT (( #272 ) ) ;
#17 = ORIENTED_EDGE ( 'NONE', *, *, #360, .T. ) ;
#18 = CARTESIAN_POINT ( 'NONE',  ( 9.999999999999996447, 89.00000000000000000, 1.224646799147353059E-15 ) ) ;
#19 = EDGE_CURVE ( 'NONE', #246, #334, #51, .T. ) ;
#20 = FACE_OUTER_BOUND ( 'NONE', #300, .T. ) ;
#21 =( NAMED_UNIT ( * ) SI_UNIT ( $, .STERADIAN. ) SOLID_ANGLE_UNIT ( ) );
#22 = MECHANICAL_DESIGN_GEOMETRIC_PRESENTATION_REPRESENTATION (  '', ( #351 ), #309 ) ;
#23 = CIRCLE ( 'NONE', #296, 9.000000000000001776 ) ;
#24 = CARTESIAN_POINT ( 'NONE',  ( -10.00000000000000355, 89.00000000000000000, 0.000000000000000000 ) ) ;
#25 = VERTEX_POINT ( 'NONE', #340 ) ;
#26 = DIRECTION ( 'NONE',  ( 0.000000000000000000, 1.000000000000000000, 0.000000000000000000 ) ) ;
#27 = SURFACE_STYLE_USAGE ( .BOTH. , #145 ) ;
#28 = STYLED_ITEM ( 'NONE', ( #194 ), #201 ) ;
#29 = AXIS2_PLACEMENT_3D ( 'NONE', #143, #257, #305 ) ;
#30 = UNCERTAINTY_MEASURE_WITH_UNIT (LENGTH_MEASURE( 1.000000000000000082E-05 ), #328, 'distance_accuracy_value', 'NONE');
#31 = FILL_AREA_STYLE ('',( #177 ) ) ;
#32 = ADVANCED_FACE ( 'NONE', ( #103 ), #259, .F. ) ;
#33 = MECHANICAL_DESIGN_GEOMETRIC_PRESENTATION_REPRESENTATION (  '', ( #266 ), #303 ) ;
#34 = DIRECTION ( 'NONE',  ( -1.000000000000000000, 0.000000000000000000, 0.000000000000000000 ) ) ;
#35 = CYLINDRICAL_SURFACE ( 'NONE', #260, 10.00000000000000178 ) ;
#36 = FACE_OUTER_BOUND ( 'NONE', #82, .T. ) ;
#37 = CARTESIAN_POINT ( 'NONE',  ( 0.000000000000000000, 0.000000000000000000, -9.000000000000001776 ) ) ;
#38 = FILL_AREA_STYLE ('',( #117 ) ) ;
#39 = PRESENTATION_LAYER_ASSIGNMENT (  '', '', ( #238 ) ) ;
#40 = SURFACE_STYLE_FILL_AREA ( #8 ) ;
#41 = DIRECTION ( 'NONE',  ( -1.576935716305902603E-16, 1.000000000000000000, -0.000000000000000000 ) ) ;
#42 = EDGE_CURVE ( 'NONE', #139, #106, #96, .T. ) ;
#43 = PRODUCT_DEFINITION ( 'UNKNOWN', '', #105, #1 ) ;
#44 = CARTESIAN_POINT ( 'NONE',  ( 7.589415207398531038E-15, 30.00000000000000000, 0.000000000000000000 ) ) ;
#45 = ORIENTED_EDGE ( 'NONE', *, *, #78, .T. ) ;
#46 = CIRCLE ( 'NONE', #367, 10.00000000000000178 ) ;
#47 = PRODUCT_CONTEXT ( 'NONE', #73, 'mechanical' ) ;
#48 = PRESENTATION_LAYER_ASSIGNMENT (  '', '', ( #155 ) ) ;
#49 = ORIENTED_EDGE ( 'NONE', *, *, #297, .F. ) ;
#50 = CARTESIAN_POINT ( 'NONE',  ( 0.000000000000000000, 1.000000000000000000, 0.000000000000000000 ) ) ;
#51 = LINE ( 'NONE', #251, #301 ) ;
#52 = FACE_OUTER_BOUND ( 'NONE', #310, .T. ) ;
#53 =( LENGTH_UNIT ( ) NAMED_UNIT ( * ) SI_UNIT ( .MILLI., .METRE. ) );
#54 = APPLICATION_PROTOCOL_DEFINITION ( 'draft international standard', 'automotive_design', 1998, #73 ) ;
#55 = ORIENTED_EDGE ( 'NONE', *, *, #311, .T. ) ;
#56 = COLOUR_RGB ( '',1.000000000000000000, 0.000000000000000000, 0.000000000000000000 ) ;
#57 = SURFACE_STYLE_FILL_AREA ( #336 ) ;
#58 = CIRCLE ( 'NONE', #324, 1.000000000000000888 ) ;
#59 = SURFACE_STYLE_FILL_AREA ( #31 ) ;
#60 = VECTOR ( 'NONE', #327, 1000.000000000000000 ) ;
#61 = DIRECTION ( 'NONE',  ( 1.000000000000000000, 1.576935716305902603E-16, 0.000000000000000000 ) ) ;
#62 = UNCERTAINTY_MEASURE_WITH_UNIT (LENGTH_MEASURE( 1.000000000000000082E-05 ), #53, 'distance_accuracy_value', 'NONE');
#63 = DIRECTION ( 'NONE',  ( -1.576935716305902603E-16, 1.000000000000000000, -0.000000000000000000 ) ) ;
#64 = CARTESIAN_POINT ( 'NONE',  ( -1.714505518806293849E-15, 89.00000000000000000, 0.000000000000000000 ) ) ;
#65 = FILL_AREA_STYLE_COLOUR ( '', #104 ) ;
#66 = CIRCLE ( 'NONE', #122, 10.00000000000000000 ) ;
#67 = CIRCLE ( 'NONE', #12, 10.00000000000000178 ) ;
#68 = PRESENTATION_STYLE_ASSIGNMENT (( #126 ) ) ;
#69 = SURFACE_SIDE_STYLE ('',( #7 ) ) ;
#70 = DIRECTION ( 'NONE',  ( 0.000000000000000000, 0.000000000000000000, -1.000000000000000000 ) ) ;
#71 = DIRECTION ( 'NONE',  ( -1.000000000000000000, 0.000000000000000000, 0.000000000000000000 ) ) ;
#72 = DIRECTION ( 'NONE',  ( -0.000000000000000000, -1.000000000000000000, -0.000000000000000000 ) ) ;
#73 = APPLICATION_CONTEXT ( 'automotive_design' ) ;
#74 =( NAMED_UNIT ( * ) SI_UNIT ( $, .STERADIAN. ) SOLID_ANGLE_UNIT ( ) );
#75 = SURFACE_STYLE_USAGE ( .BOTH. , #137 ) ;
#76 = VECTOR ( 'NONE', #72, 1000.000000000000000 ) ;
#77 = VERTEX_POINT ( 'NONE', #4 ) ;
#78 = EDGE_CURVE ( 'NONE', #227, #25, #195, .T. ) ;
#79 = ORIENTED_EDGE ( 'NONE', *, *, #181, .T. ) ;
#80 = CARTESIAN_POINT ( 'NONE',  ( -1.714505518806293652E-15, 89.00000000000000000, 0.000000000000000000 ) ) ;
#81 = ORIENTED_EDGE ( 'NONE', *, *, #94, .F. ) ;
#82 = EDGE_LOOP ( 'NONE', ( #256, #205 ) ) ;
#83 = MECHANICAL_DESIGN_GEOMETRIC_PRESENTATION_REPRESENTATION (  '', ( #155 ), #347 ) ;
#84 = DIRECTION ( 'NONE',  ( -0.000000000000000000, -1.000000000000000000, -0.000000000000000000 ) ) ;
#85 = DIRECTION ( 'NONE',  ( 0.000000000000000000, 0.000000000000000000, -1.000000000000000000 ) ) ;
#86 = CARTESIAN_POINT ( 'NONE',  ( 0.000000000000000000, 1.000000000000000000, 0.000000000000000000 ) ) ;
#87 = AXIS2_PLACEMENT_3D ( 'NONE', #220, #329, #193 ) ;
#88 = UNCERTAINTY_MEASURE_WITH_UNIT (LENGTH_MEASURE( 1.000000000000000082E-05 ), #199, 'distance_accuracy_value', 'NONE');
#89 = CYLINDRICAL_SURFACE ( 'NONE', #211, 9.999999999999998224 ) ;
#90 = COLOUR_RGB ( '',0.7921568627450980005, 0.8196078431372548767, 0.9333333333333333481 ) ;
#91 = DIRECTION ( 'NONE',  ( -1.224646799147353454E-16, 0.000000000000000000, -1.000000000000000000 ) ) ;
#92 =( NAMED_UNIT ( * ) PLANE_ANGLE_UNIT ( ) SI_UNIT ( $, .RADIAN. ) );
#93 = SURFACE_STYLE_USAGE ( .BOTH. , #318 ) ;
#94 = EDGE_CURVE ( 'NONE', #334, #77, #11, .T. ) ;
#95 = FACE_OUTER_BOUND ( 'NONE', #142, .T. ) ;
#96 = CIRCLE ( 'NONE', #146, 9.000000000000001776 ) ;
#97 = PRESENTATION_STYLE_ASSIGNMENT (( #253 ) ) ;
#98 = DIRECTION ( 'NONE',  ( -1.576935716305902603E-16, 1.000000000000000000, -0.000000000000000000 ) ) ;
#99 = SURFACE_STYLE_FILL_AREA ( #204 ) ;
#100 = ORIENTED_EDGE ( 'NONE', *, *, #345, .T. ) ;
#101 = DIRECTION ( 'NONE',  ( -0.000000000000000000, -1.000000000000000000, -0.000000000000000000 ) ) ;
#102 =( NAMED_UNIT ( * ) PLANE_ANGLE_UNIT ( ) SI_UNIT ( $, .RADIAN. ) );
#103 = FACE_OUTER_BOUND ( 'NONE', #364, .T. ) ;
#104 = COLOUR_RGB ( '',1.000000000000000000, 0.000000000000000000, 0.000000000000000000 ) ;
#105 = PRODUCT_DEFINITION_FORMATION_WITH_SPECIFIED_SOURCE ( 'ANY', '', #212, .NOT_KNOWN. ) ;
#106 = VERTEX_POINT ( 'NONE', #350 ) ;
#107 = ORIENTED_EDGE ( 'NONE', *, *, #240, .F. ) ;
#108 = ADVANCED_FACE ( 'NONE', ( #95 ), #35, .T. ) ;
#109 = ORIENTED_EDGE ( 'NONE', *, *, #321, .F. ) ;
#110 = ADVANCED_FACE ( 'NONE', ( #119 ), #121, .T. ) ;
#111 = COLOUR_RGB ( '',1.000000000000000000, 0.000000000000000000, 0.000000000000000000 ) ;
#112 = PRESENTATION_LAYER_ASSIGNMENT (  '', '', ( #359 ) ) ;
#113 = ADVANCED_BREP_SHAPE_REPRESENTATION ( '59533', ( #252, #244, #87 ), #255 ) ;
#114 = PRESENTATION_STYLE_ASSIGNMENT (( #27 ) ) ;
#115 = UNCERTAINTY_MEASURE_WITH_UNIT (LENGTH_MEASURE( 1.000000000000000082E-05 ), #281, 'distance_accuracy_value', 'NONE');
#116 = PRESENTATION_LAYER_ASSIGNMENT (  '', '', ( #278 ) ) ;
#117 = FILL_AREA_STYLE_COLOUR ( '', #90 ) ;
#118 = CARTESIAN_POINT ( 'NONE',  ( 7.589415207398531038E-15, 30.00000000000000000, 0.000000000000000000 ) ) ;
#119 = FACE_OUTER_BOUND ( 'NONE', #14, .T. ) ;
#120 = DIRECTION ( 'NONE',  ( -0.000000000000000000, -1.000000000000000000, -0.000000000000000000 ) ) ;
#121 = CYLINDRICAL_SURFACE ( 'NONE', #129, 9.999999999999998224 ) ;
#122 = AXIS2_PLACEMENT_3D ( 'NONE', #320, #189, #70 ) ;
#123 = TOROIDAL_SURFACE ( 'NONE', #217, 9.000000000000001776, 1.000000000000000444 ) ;
#124 = DIRECTION ( 'NONE',  ( 0.000000000000000000, 0.000000000000000000, -1.000000000000000000 ) ) ;
#125 = CARTESIAN_POINT ( 'NONE',  ( -1.714505518806293652E-15, 89.00000000000000000, 0.000000000000000000 ) ) ;
#126 = SURFACE_STYLE_USAGE ( .BOTH. , #69 ) ;
#127 = ORIENTED_EDGE ( 'NONE', *, *, #94, .T. ) ;
#128 = FILL_AREA_STYLE ('',( #65 ) ) ;
#129 = AXIS2_PLACEMENT_3D ( 'NONE', #349, #237, #71 ) ;
#130 = COLOUR_RGB ( '',1.000000000000000000, 0.000000000000000000, 0.000000000000000000 ) ;
#131 = DIRECTION ( 'NONE',  ( -1.000000000000000000, 0.000000000000000000, 0.000000000000000000 ) ) ;
#132 = ORIENTED_EDGE ( 'NONE', *, *, #182, .F. ) ;
#133 = CARTESIAN_POINT ( 'NONE',  ( 1.224646799147353256E-15, 30.00000000000000000, 10.00000000000000000 ) ) ;
#134 = EDGE_LOOP ( 'NONE', ( #132, #225 ) ) ;
#135 = DIRECTION ( 'NONE',  ( 0.000000000000000000, 0.000000000000000000, 1.000000000000000000 ) ) ;
#136 =( NAMED_UNIT ( * ) PLANE_ANGLE_UNIT ( ) SI_UNIT ( $, .RADIAN. ) );
#137 = SURFACE_SIDE_STYLE ('',( #57 ) ) ;
#138 = FILL_AREA_STYLE_COLOUR ( '', #56 ) ;
#139 = VERTEX_POINT ( 'NONE', #37 ) ;
#140 = AXIS2_PLACEMENT_3D ( 'NONE', #250, #191, #302 ) ;
#141 = EDGE_LOOP ( 'NONE', ( #308, #45, #100, #169 ) ) ;
#142 = EDGE_LOOP ( 'NONE', ( #306, #166, #173, #164 ) ) ;
#143 = CARTESIAN_POINT ( 'NONE',  ( 7.589415207398531038E-15, 30.00000000000000000, 0.000000000000000000 ) ) ;
#144 = DIRECTION ( 'NONE',  ( -1.576935716305902603E-16, 1.000000000000000000, -0.000000000000000000 ) ) ;
#145 = SURFACE_SIDE_STYLE ('',( #59 ) ) ;
#146 = AXIS2_PLACEMENT_3D ( 'NONE', #234, #341, #85 ) ;
#147 = PRESENTATION_LAYER_ASSIGNMENT (  '', '', ( #266 ) ) ;
#148 = UNCERTAINTY_MEASURE_WITH_UNIT (LENGTH_MEASURE( 1.000000000000000082E-05 ), #285, 'distance_accuracy_value', 'NONE');
#149 = FILL_AREA_STYLE ('',( #312 ) ) ;
#150 = CIRCLE ( 'NONE', #352, 9.999999999999992895 ) ;
#151 = CARTESIAN_POINT ( 'NONE',  ( 0.000000000000000000, 0.000000000000000000, 0.000000000000000000 ) ) ;
#152 =( NAMED_UNIT ( * ) PLANE_ANGLE_UNIT ( ) SI_UNIT ( $, .RADIAN. ) );
#153 = SURFACE_STYLE_USAGE ( .BOTH. , #261 ) ;
#154 = FILL_AREA_STYLE_COLOUR ( '', #265 ) ;
#155 = STYLED_ITEM ( 'NONE', ( #68 ), #245 ) ;
#156 = CARTESIAN_POINT ( 'NONE',  ( 0.000000000000000000, 1.000000000000000000, -10.00000000000000178 ) ) ;
#157 = SURFACE_SIDE_STYLE ('',( #40 ) ) ;
#158 = DIRECTION ( 'NONE',  ( -1.000000000000000000, 0.000000000000000000, 0.000000000000000000 ) ) ;
#159 = FILL_AREA_STYLE_COLOUR ( '', #111 ) ;
#160 =( GEOMETRIC_REPRESENTATION_CONTEXT ( 3 ) GLOBAL_UNCERTAINTY_ASSIGNED_CONTEXT ( ( #115 ) ) GLOBAL_UNIT_ASSIGNED_CONTEXT ( ( #281, #354, #74 ) ) REPRESENTATION_CONTEXT ( 'NONE', 'WORKASPACE' ) );
#161 = ORIENTED_EDGE ( 'NONE', *, *, #316, .F. ) ;
#162 =( GEOMETRIC_REPRESENTATION_CONTEXT ( 3 ) GLOBAL_UNCERTAINTY_ASSIGNED_CONTEXT ( ( #313 ) ) GLOBAL_UNIT_ASSIGNED_CONTEXT ( ( #294, #92, #209 ) ) REPRESENTATION_CONTEXT ( 'NONE', 'WORKASPACE' ) );
#163 = APPLICATION_PROTOCOL_DEFINITION ( 'draft international standard', 'automotive_design', 1998, #365 ) ;
#164 = ORIENTED_EDGE ( 'NONE', *, *, #345, .F. ) ;
#165 = SURFACE_STYLE_FILL_AREA ( #269 ) ;
#166 = ORIENTED_EDGE ( 'NONE', *, *, #267, .T. ) ;
#167 = LINE ( 'NONE', #363, #76 ) ;
#168 = DIRECTION ( 'NONE',  ( 0.000000000000000000, 0.000000000000000000, -1.000000000000000000 ) ) ;
#169 = ORIENTED_EDGE ( 'NONE', *, *, #311, .F. ) ;
#170 =( NAMED_UNIT ( * ) PLANE_ANGLE_UNIT ( ) SI_UNIT ( $, .RADIAN. ) );
#171 = ORIENTED_EDGE ( 'NONE', *, *, #316, .T. ) ;
#172 = CARTESIAN_POINT ( 'NONE',  ( 0.000000000000000000, 0.000000000000000000, 0.000000000000000000 ) ) ;
#173 = ORIENTED_EDGE ( 'NONE', *, *, #231, .F. ) ;
#174 = CLOSED_SHELL ( 'NONE', ( #110, #337, #283, #32 ) ) ;
#175 = ORIENTED_EDGE ( 'NONE', *, *, #181, .F. ) ;
#176 =( LENGTH_UNIT ( ) NAMED_UNIT ( * ) SI_UNIT ( .MILLI., .METRE. ) );
#177 = FILL_AREA_STYLE_COLOUR ( '', #224 ) ;
#178 = DIRECTION ( 'NONE',  ( -1.000000000000000000, 0.000000000000000000, 0.000000000000000000 ) ) ;
#179 = COLOUR_RGB ( '',1.000000000000000000, 0.000000000000000000, 0.000000000000000000 ) ;
#180 = CIRCLE ( 'NONE', #229, 10.00000000000000178 ) ;
#181 = EDGE_CURVE ( 'NONE', #280, #106, #58, .T. ) ;
#182 = EDGE_CURVE ( 'NONE', #25, #227, #66, .T. ) ;
#183 = DIRECTION ( 'NONE',  ( -1.576935716305902603E-16, 1.000000000000000000, -0.000000000000000000 ) ) ;
#184 =( NAMED_UNIT ( * ) SI_UNIT ( $, .STERADIAN. ) SOLID_ANGLE_UNIT ( ) );
#185 = PRESENTATION_STYLE_ASSIGNMENT (( #153 ) ) ;
#186 = FACE_OUTER_BOUND ( 'NONE', #141, .T. ) ;
#187 = CARTESIAN_POINT ( 'NONE',  ( -9.999999999999985789, 30.00000000000000000, 0.000000000000000000 ) ) ;
#188 = STYLED_ITEM ( 'NONE', ( #307 ), #9 ) ;
#189 = DIRECTION ( 'NONE',  ( -0.000000000000000000, -1.000000000000000000, -0.000000000000000000 ) ) ;
#190 =( GEOMETRIC_REPRESENTATION_CONTEXT ( 3 ) GLOBAL_UNCERTAINTY_ASSIGNED_CONTEXT ( ( #62 ) ) GLOBAL_UNIT_ASSIGNED_CONTEXT ( ( #53, #102, #361 ) ) REPRESENTATION_CONTEXT ( 'NONE', 'WORKASPACE' ) );
#191 = DIRECTION ( 'NONE',  ( -0.000000000000000000, -1.000000000000000000, -0.000000000000000000 ) ) ;
#192 = ORIENTED_EDGE ( 'NONE', *, *, #321, .T. ) ;
#193 = DIRECTION ( 'NONE',  ( 1.000000000000000000, 0.000000000000000000, 0.000000000000000000 ) ) ;
#194 = PRESENTATION_STYLE_ASSIGNMENT (( #243 ) ) ;
#195 = CIRCLE ( 'NONE', #264, 10.00000000000000000 ) ;
#196 = EDGE_LOOP ( 'NONE', ( #49, #107 ) ) ;
#197 = AXIS2_PLACEMENT_3D ( 'NONE', #15, #226, #135 ) ;
#198 = FILL_AREA_STYLE_COLOUR ( '', #179 ) ;
#199 =( LENGTH_UNIT ( ) NAMED_UNIT ( * ) SI_UNIT ( .MILLI., .METRE. ) );
#200 = ORIENTED_EDGE ( 'NONE', *, *, #19, .F. ) ;
#201 = ADVANCED_FACE ( 'NONE', ( #186 ), #295, .T. ) ;
#202 = CARTESIAN_POINT ( 'NONE',  ( 10.00000000000000000, 30.00000000000000000, 1.224646799147353256E-15 ) ) ;
#203 = ORIENTED_EDGE ( 'NONE', *, *, #231, .T. ) ;
#204 = FILL_AREA_STYLE ('',( #159 ) ) ;
#205 = ORIENTED_EDGE ( 'NONE', *, *, #335, .T. ) ;
#206 = AXIS2_PLACEMENT_3D ( 'NONE', #172, #330, #168 ) ;
#207 = MECHANICAL_DESIGN_GEOMETRIC_PRESENTATION_REPRESENTATION (  '', ( #359 ), #190 ) ;
#208 = CARTESIAN_POINT ( 'NONE',  ( 0.000000000000000000, 30.00000000000000000, 0.000000000000000000 ) ) ;
#209 =( NAMED_UNIT ( * ) SI_UNIT ( $, .STERADIAN. ) SOLID_ANGLE_UNIT ( ) );
#210 = PRESENTATION_LAYER_ASSIGNMENT (  '', '', ( #28 ) ) ;
#211 = AXIS2_PLACEMENT_3D ( 'NONE', #64, #183, #34 ) ;
#212 = PRODUCT ( '59533', '59533', '', ( #47 ) ) ;
#213 =( NAMED_UNIT ( * ) PLANE_ANGLE_UNIT ( ) SI_UNIT ( $, .RADIAN. ) );
#214 = PLANE ( 'NONE',  #290 ) ;
#215 =( GEOMETRIC_REPRESENTATION_CONTEXT ( 3 ) GLOBAL_UNCERTAINTY_ASSIGNED_CONTEXT ( ( #342 ) ) GLOBAL_UNIT_ASSIGNED_CONTEXT ( ( #176, #362, #275 ) ) REPRESENTATION_CONTEXT ( 'NONE', 'WORKASPACE' ) );
#216 =( LENGTH_UNIT ( ) NAMED_UNIT ( * ) SI_UNIT ( .MILLI., .METRE. ) );
#217 = AXIS2_PLACEMENT_3D ( 'NONE', #86, #84, #370 ) ;
#218 = ADVANCED_FACE ( 'NONE', ( #20 ), #366, .T. ) ;
#219 = SURFACE_SIDE_STYLE ('',( #99 ) ) ;
#220 = CARTESIAN_POINT ( 'NONE',  ( 0.000000000000000000, 0.000000000000000000, 0.000000000000000000 ) ) ;
#221 = DIRECTION ( 'NONE',  ( 0.000000000000000000, 0.000000000000000000, -1.000000000000000000 ) ) ;
#222 = DIRECTION ( 'NONE',  ( 0.000000000000000000, 0.000000000000000000, -1.000000000000000000 ) ) ;
#223 = FACE_OUTER_BOUND ( 'NONE', #134, .T. ) ;
#224 = COLOUR_RGB ( '',0.7921568627450980005, 0.8196078431372548767, 0.9333333333333333481 ) ;
#225 = ORIENTED_EDGE ( 'NONE', *, *, #78, .F. ) ;
#226 = DIRECTION ( 'NONE',  ( -1.000000000000000000, 0.000000000000000000, 0.000000000000000000 ) ) ;
#227 = VERTEX_POINT ( 'NONE', #133 ) ;
#228 = ORIENTED_EDGE ( 'NONE', *, *, #360, .F. ) ;
#229 = AXIS2_PLACEMENT_3D ( 'NONE', #80, #98, #131 ) ;
#230 = DIRECTION ( 'NONE',  ( 1.576935716305902603E-16, -1.000000000000000000, 0.000000000000000000 ) ) ;
#231 = EDGE_CURVE ( 'NONE', #273, #280, #46, .T. ) ;
#232 = ADVANCED_FACE ( 'NONE', ( #52 ), #123, .T. ) ;
#233 = AXIS2_PLACEMENT_3D ( 'NONE', #304, #26, #331 ) ;
#234 = CARTESIAN_POINT ( 'NONE',  ( 0.000000000000000000, 0.000000000000000000, 0.000000000000000000 ) ) ;
#235 = PRODUCT_DEFINITION_SHAPE ( 'NONE', 'NONE',  #43 ) ;
#236 = DIRECTION ( 'NONE',  ( -1.576935716305902603E-16, 1.000000000000000000, -0.000000000000000000 ) ) ;
#237 = DIRECTION ( 'NONE',  ( -1.576935716305902603E-16, 1.000000000000000000, -0.000000000000000000 ) ) ;
#238 = STYLED_ITEM ( 'NONE', ( #97 ), #218 ) ;
#239 = MECHANICAL_DESIGN_GEOMETRIC_PRESENTATION_REPRESENTATION (  '', ( #278 ), #162 ) ;
#240 = EDGE_CURVE ( 'NONE', #353, #246, #150, .T. ) ;
#241 = PRESENTATION_STYLE_ASSIGNMENT (( #93 ) ) ;
#242 =( NAMED_UNIT ( * ) SI_UNIT ( $, .STERADIAN. ) SOLID_ANGLE_UNIT ( ) );
#243 = SURFACE_STYLE_USAGE ( .BOTH. , #157 ) ;
#244 = MANIFOLD_SOLID_BREP ( 'Revolve - Tool Body (Straight Shanked)', #174 ) ;
#245 = ADVANCED_FACE ( 'NONE', ( #36 ), #214, .T. ) ;
#246 = VERTEX_POINT ( 'NONE', #187 ) ;
#247 = AXIS2_PLACEMENT_3D ( 'NONE', #118, #236, #317 ) ;
#248 =( NAMED_UNIT ( * ) SI_UNIT ( $, .STERADIAN. ) SOLID_ANGLE_UNIT ( ) );
#249 = ORIENTED_EDGE ( 'NONE', *, *, #19, .T. ) ;
#250 = CARTESIAN_POINT ( 'NONE',  ( 0.000000000000000000, 1.000000000000000000, 0.000000000000000000 ) ) ;
#251 = CARTESIAN_POINT ( 'NONE',  ( -10.00000000000000000, 89.00000000000000000, 0.000000000000000000 ) ) ;
#252 = MANIFOLD_SOLID_BREP ( 'Revolve - Cutting Edge', #2 ) ;
#253 = SURFACE_STYLE_USAGE ( .BOTH. , #219 ) ;
#254 = MECHANICAL_DESIGN_GEOMETRIC_PRESENTATION_REPRESENTATION (  '', ( #238 ), #160 ) ;
#255 =( GEOMETRIC_REPRESENTATION_CONTEXT ( 3 ) GLOBAL_UNCERTAINTY_ASSIGNED_CONTEXT ( ( #88 ) ) GLOBAL_UNIT_ASSIGNED_CONTEXT ( ( #199, #170, #21 ) ) REPRESENTATION_CONTEXT ( 'NONE', 'WORKASPACE' ) );
#256 = ORIENTED_EDGE ( 'NONE', *, *, #42, .T. ) ;
#257 = DIRECTION ( 'NONE',  ( -1.576935716305902603E-16, 1.000000000000000000, 0.000000000000000000 ) ) ;
#258 = ORIENTED_EDGE ( 'NONE', *, *, #240, .T. ) ;
#259 = PLANE ( 'NONE',  #315 ) ;
#260 = AXIS2_PLACEMENT_3D ( 'NONE', #151, #323, #5 ) ;
#261 = SURFACE_SIDE_STYLE ('',( #319 ) ) ;
#262 = CARTESIAN_POINT ( 'NONE',  ( 0.000000000000000000, 0.000000000000000000, 0.000000000000000000 ) ) ;
#263 = CARTESIAN_POINT ( 'NONE',  ( 1.102182119232617911E-15, 1.000000000000000000, 9.000000000000001776 ) ) ;
#264 = AXIS2_PLACEMENT_3D ( 'NONE', #208, #286, #326 ) ;
#265 = COLOUR_RGB ( '',1.000000000000000000, 0.000000000000000000, 0.000000000000000000 ) ;
#266 = STYLED_ITEM ( 'NONE', ( #114 ), #244 ) ;
#267 = EDGE_CURVE ( 'NONE', #227, #280, #298, .T. ) ;
#268 =( GEOMETRIC_REPRESENTATION_CONTEXT ( 3 ) GLOBAL_UNCERTAINTY_ASSIGNED_CONTEXT ( ( #30 ) ) GLOBAL_UNIT_ASSIGNED_CONTEXT ( ( #328, #136, #248 ) ) REPRESENTATION_CONTEXT ( 'NONE', 'WORKASPACE' ) );
#269 = FILL_AREA_STYLE ('',( #138 ) ) ;
#270 = CIRCLE ( 'NONE', #197, 1.000000000000000888 ) ;
#271 = ORIENTED_EDGE ( 'NONE', *, *, #335, .F. ) ;
#272 = SURFACE_STYLE_USAGE ( .BOTH. , #13 ) ;
#273 = VERTEX_POINT ( 'NONE', #156 ) ;
#274 = LINE ( 'NONE', #18, #60 ) ;
#275 =( NAMED_UNIT ( * ) SI_UNIT ( $, .STERADIAN. ) SOLID_ANGLE_UNIT ( ) );
#276 = ORIENTED_EDGE ( 'NONE', *, *, #42, .F. ) ;
#277 = MECHANICAL_DESIGN_GEOMETRIC_PRESENTATION_REPRESENTATION (  '', ( #188 ), #215 ) ;
#278 = STYLED_ITEM ( 'NONE', ( #185 ), #252 ) ;
#279 = DIRECTION ( 'NONE',  ( 0.000000000000000000, 0.000000000000000000, -1.000000000000000000 ) ) ;
#280 = VERTEX_POINT ( 'NONE', #325 ) ;
#281 =( LENGTH_UNIT ( ) NAMED_UNIT ( * ) SI_UNIT ( .MILLI., .METRE. ) );
#282 = PLANE ( 'NONE',  #233 ) ;
#283 = ADVANCED_FACE ( 'NONE', ( #3 ), #89, .T. ) ;
#284 = UNCERTAINTY_MEASURE_WITH_UNIT (LENGTH_MEASURE( 1.000000000000000082E-05 ), #216, 'distance_accuracy_value', 'NONE');
#285 =( LENGTH_UNIT ( ) NAMED_UNIT ( * ) SI_UNIT ( .MILLI., .METRE. ) );
#286 = DIRECTION ( 'NONE',  ( -0.000000000000000000, -1.000000000000000000, -0.000000000000000000 ) ) ;
#287 = UNCERTAINTY_MEASURE_WITH_UNIT (LENGTH_MEASURE( 1.000000000000000082E-05 ), #314, 'distance_accuracy_value', 'NONE');
#288 = PRODUCT_RELATED_PRODUCT_CATEGORY ( 'part', '', ( #212 ) ) ;
#289 = AXIS2_PLACEMENT_3D ( 'NONE', #125, #41, #158 ) ;
#290 = AXIS2_PLACEMENT_3D ( 'NONE', #262, #348, #124 ) ;
#291 = CARTESIAN_POINT ( 'NONE',  ( 1.224646799147353454E-15, 0.000000000000000000, 10.00000000000000178 ) ) ;
#292 =( NAMED_UNIT ( * ) PLANE_ANGLE_UNIT ( ) SI_UNIT ( $, .RADIAN. ) );
#293 = CARTESIAN_POINT ( 'NONE',  ( 0.000000000000000000, 1.000000000000000000, 0.000000000000000000 ) ) ;
#294 =( LENGTH_UNIT ( ) NAMED_UNIT ( * ) SI_UNIT ( .MILLI., .METRE. ) );
#295 = CYLINDRICAL_SURFACE ( 'NONE', #206, 10.00000000000000178 ) ;
#296 = AXIS2_PLACEMENT_3D ( 'NONE', #355, #101, #221 ) ;
#297 = EDGE_CURVE ( 'NONE', #246, #353, #344, .T. ) ;
#298 = LINE ( 'NONE', #291, #339 ) ;
#299 = DIRECTION ( 'NONE',  ( -0.000000000000000000, -1.000000000000000000, -0.000000000000000000 ) ) ;
#300 = EDGE_LOOP ( 'NONE', ( #175, #55, #192, #271 ) ) ;
#301 = VECTOR ( 'NONE', #144, 1000.000000000000000 ) ;
#302 = DIRECTION ( 'NONE',  ( 0.000000000000000000, 0.000000000000000000, -1.000000000000000000 ) ) ;
#303 =( GEOMETRIC_REPRESENTATION_CONTEXT ( 3 ) GLOBAL_UNCERTAINTY_ASSIGNED_CONTEXT ( ( #148 ) ) GLOBAL_UNIT_ASSIGNED_CONTEXT ( ( #285, #213, #346 ) ) REPRESENTATION_CONTEXT ( 'NONE', 'WORKASPACE' ) );
#304 = CARTESIAN_POINT ( 'NONE',  ( 0.000000000000000000, 30.00000000000000000, 0.000000000000000000 ) ) ;
#305 = DIRECTION ( 'NONE',  ( -1.000000000000000000, -1.576935716305902603E-16, 0.000000000000000000 ) ) ;
#306 = ORIENTED_EDGE ( 'NONE', *, *, #182, .T. ) ;
#307 = PRESENTATION_STYLE_ASSIGNMENT (( #75 ) ) ;
#308 = ORIENTED_EDGE ( 'NONE', *, *, #267, .F. ) ;
#309 =( GEOMETRIC_REPRESENTATION_CONTEXT ( 3 ) GLOBAL_UNCERTAINTY_ASSIGNED_CONTEXT ( ( #284 ) ) GLOBAL_UNIT_ASSIGNED_CONTEXT ( ( #216, #292, #184 ) ) REPRESENTATION_CONTEXT ( 'NONE', 'WORKASPACE' ) );
#310 = EDGE_LOOP ( 'NONE', ( #203, #79, #276, #109 ) ) ;
#311 = EDGE_CURVE ( 'NONE', #280, #273, #67, .T. ) ;
#312 = FILL_AREA_STYLE_COLOUR ( '', #130 ) ;
#313 = UNCERTAINTY_MEASURE_WITH_UNIT (LENGTH_MEASURE( 1.000000000000000082E-05 ), #294, 'distance_accuracy_value', 'NONE');
#314 =( LENGTH_UNIT ( ) NAMED_UNIT ( * ) SI_UNIT ( .MILLI., .METRE. ) );
#315 = AXIS2_PLACEMENT_3D ( 'NONE', #368, #230, #61 ) ;
#316 = EDGE_CURVE ( 'NONE', #77, #334, #180, .T. ) ;
#317 = DIRECTION ( 'NONE',  ( -1.000000000000000000, 0.000000000000000000, 0.000000000000000000 ) ) ;
#318 = SURFACE_SIDE_STYLE ('',( #10 ) ) ;
#319 = SURFACE_STYLE_FILL_AREA ( #38 ) ;
#320 = CARTESIAN_POINT ( 'NONE',  ( 0.000000000000000000, 30.00000000000000000, 0.000000000000000000 ) ) ;
#321 = EDGE_CURVE ( 'NONE', #273, #139, #270, .T. ) ;
#322 = DIRECTION ( 'NONE',  ( -0.000000000000000000, -1.000000000000000000, -0.000000000000000000 ) ) ;
#323 = DIRECTION ( 'NONE',  ( -0.000000000000000000, -1.000000000000000000, -0.000000000000000000 ) ) ;
#324 = AXIS2_PLACEMENT_3D ( 'NONE', #263, #6, #91 ) ;
#325 = CARTESIAN_POINT ( 'NONE',  ( 1.224646799147353256E-15, 1.000000000000000000, 10.00000000000000178 ) ) ;
#326 = DIRECTION ( 'NONE',  ( 0.000000000000000000, 0.000000000000000000, -1.000000000000000000 ) ) ;
#327 = DIRECTION ( 'NONE',  ( -1.576935716305902603E-16, 1.000000000000000000, -0.000000000000000000 ) ) ;
#328 =( LENGTH_UNIT ( ) NAMED_UNIT ( * ) SI_UNIT ( .MILLI., .METRE. ) );
#329 = DIRECTION ( 'NONE',  ( 0.000000000000000000, 0.000000000000000000, 1.000000000000000000 ) ) ;
#330 = DIRECTION ( 'NONE',  ( -0.000000000000000000, -1.000000000000000000, -0.000000000000000000 ) ) ;
#331 = DIRECTION ( 'NONE',  ( 0.000000000000000000, -0.000000000000000000, 1.000000000000000000 ) ) ;
#332 = ORIENTED_EDGE ( 'NONE', *, *, #297, .T. ) ;
#333 = FACE_OUTER_BOUND ( 'NONE', #196, .T. ) ;
#334 = VERTEX_POINT ( 'NONE', #24 ) ;
#335 = EDGE_CURVE ( 'NONE', #106, #139, #23, .T. ) ;
#336 = FILL_AREA_STYLE ('',( #198 ) ) ;
#337 = ADVANCED_FACE ( 'NONE', ( #333 ), #357, .F. ) ;
#338 = PRESENTATION_LAYER_ASSIGNMENT (  '', '', ( #188 ) ) ;
#339 = VECTOR ( 'NONE', #322, 1000.000000000000000 ) ;
#340 = CARTESIAN_POINT ( 'NONE',  ( 0.000000000000000000, 30.00000000000000000, -10.00000000000000000 ) ) ;
#341 = DIRECTION ( 'NONE',  ( -0.000000000000000000, -1.000000000000000000, -0.000000000000000000 ) ) ;
#342 = UNCERTAINTY_MEASURE_WITH_UNIT (LENGTH_MEASURE( 1.000000000000000082E-05 ), #176, 'distance_accuracy_value', 'NONE');
#343 = PRESENTATION_LAYER_ASSIGNMENT (  '', '', ( #351 ) ) ;
#344 = CIRCLE ( 'NONE', #247, 9.999999999999992895 ) ;
#345 = EDGE_CURVE ( 'NONE', #25, #273, #167, .T. ) ;
#346 =( NAMED_UNIT ( * ) SI_UNIT ( $, .STERADIAN. ) SOLID_ANGLE_UNIT ( ) );
#347 =( GEOMETRIC_REPRESENTATION_CONTEXT ( 3 ) GLOBAL_UNCERTAINTY_ASSIGNED_CONTEXT ( ( #287 ) ) GLOBAL_UNIT_ASSIGNED_CONTEXT ( ( #314, #152, #242 ) ) REPRESENTATION_CONTEXT ( 'NONE', 'WORKASPACE' ) );
#348 = DIRECTION ( 'NONE',  ( 0.000000000000000000, -1.000000000000000000, -0.000000000000000000 ) ) ;
#349 = CARTESIAN_POINT ( 'NONE',  ( -1.714505518806293849E-15, 89.00000000000000000, 0.000000000000000000 ) ) ;
#350 = CARTESIAN_POINT ( 'NONE',  ( 1.163414459189985682E-15, 0.000000000000000000, 9.000000000000001776 ) ) ;
#351 = STYLED_ITEM ( 'NONE', ( #241 ), #108 ) ;
#352 = AXIS2_PLACEMENT_3D ( 'NONE', #44, #63, #178 ) ;
#353 = VERTEX_POINT ( 'NONE', #202 ) ;
#354 =( NAMED_UNIT ( * ) PLANE_ANGLE_UNIT ( ) SI_UNIT ( $, .RADIAN. ) );
#355 = CARTESIAN_POINT ( 'NONE',  ( 0.000000000000000000, 0.000000000000000000, 0.000000000000000000 ) ) ;
#356 = EDGE_LOOP ( 'NONE', ( #228, #258, #249, #161 ) ) ;
#357 = PLANE ( 'NONE',  #29 ) ;
#358 = MECHANICAL_DESIGN_GEOMETRIC_PRESENTATION_REPRESENTATION (  '', ( #28 ), #268 ) ;
#359 = STYLED_ITEM ( 'NONE', ( #16 ), #232 ) ;
#360 = EDGE_CURVE ( 'NONE', #353, #77, #274, .T. ) ;
#361 =( NAMED_UNIT ( * ) SI_UNIT ( $, .STERADIAN. ) SOLID_ANGLE_UNIT ( ) );
#362 =( NAMED_UNIT ( * ) PLANE_ANGLE_UNIT ( ) SI_UNIT ( $, .RADIAN. ) );
#363 = CARTESIAN_POINT ( 'NONE',  ( 0.000000000000000000, 0.000000000000000000, -10.00000000000000178 ) ) ;
#364 = EDGE_LOOP ( 'NONE', ( #127, #171 ) ) ;
#365 = APPLICATION_CONTEXT ( 'automotive_design' ) ;
#366 = TOROIDAL_SURFACE ( 'NONE', #140, 9.000000000000001776, 1.000000000000000444 ) ;
#367 = AXIS2_PLACEMENT_3D ( 'NONE', #50, #299, #222 ) ;
#368 = CARTESIAN_POINT ( 'NONE',  ( 10.00000000000000000, 89.00000000000000000, 0.000000000000000000 ) ) ;
#369 = SHAPE_DEFINITION_REPRESENTATION ( #235, #113 ) ;
#370 = DIRECTION ( 'NONE',  ( 0.000000000000000000, 0.000000000000000000, -1.000000000000000000 ) ) ;
ENDSEC;
END-ISO-10303-21;
