ISO-10303-21;
HEADER;
FILE_DESCRIPTION (( 'STEP AP214' ),
    '1' );
FILE_NAME ('83316.STEP',
    '2023-06-23T09:30:13',
    ( '' ),
    ( '' ),
    'SwSTEP 2.0',
    'SolidWorks 2023',
    '' );
FILE_SCHEMA (( 'AUTOMOTIVE_DESIGN' ));
ENDSEC;

DATA;
#1 = FILL_AREA_STYLE_COLOUR ( '', #3 ) ;
#2 =( CONVERSION_BASED_UNIT ( 'INCH', #152 ) LENGTH_UNIT ( ) NAMED_UNIT ( #198 ) );
#3 = COLOUR_RGB ( '',1.000000000000000000, 0.000000000000000000, 0.000000000000000000 ) ;
#4 = AXIS2_PLACEMENT_3D ( 'NONE', #283, #56, #164 ) ;
#5 =( NAMED_UNIT ( * ) SI_UNIT ( $, .STERADIAN. ) SOLID_ANGLE_UNIT ( ) );
#6 =( LENGTH_UNIT ( ) NAMED_UNIT ( * ) SI_UNIT ( $, .METRE. ) );
#7 = CARTESIAN_POINT ( 'NONE',  ( 0.3750000000000001665, 3.000000000000000444, 4.592425496802572986E-17 ) ) ;
#8 =( LENGTH_UNIT ( ) NAMED_UNIT ( * ) SI_UNIT ( $, .METRE. ) );
#9 = DIRECTION ( 'NONE',  ( 0.000000000000000000, -1.000000000000000000, -0.000000000000000000 ) ) ;
#10 = CIRCLE ( 'NONE', #75, 0.3750000000000000555 ) ;
#11 = ORIENTED_EDGE ( 'NONE', *, *, #298, .T. ) ;
#12 = ORIENTED_EDGE ( 'NONE', *, *, #274, .T. ) ;
#13 = PRESENTATION_STYLE_ASSIGNMENT (( #132 ) ) ;
#14 = STYLED_ITEM ( 'NONE', ( #208 ), #105 ) ;
#15 = PLANE ( 'NONE',  #204 ) ;
#16 = AXIS2_PLACEMENT_3D ( 'NONE', #179, #44, #158 ) ;
#17 = FILL_AREA_STYLE_COLOUR ( '', #205 ) ;
#18 = VERTEX_POINT ( 'NONE', #248 ) ;
#19 =( NAMED_UNIT ( * ) PLANE_ANGLE_UNIT ( ) SI_UNIT ( $, .RADIAN. ) );
#20 =( GEOMETRIC_REPRESENTATION_CONTEXT ( 3 ) GLOBAL_UNCERTAINTY_ASSIGNED_CONTEXT ( ( #178 ) ) GLOBAL_UNIT_ASSIGNED_CONTEXT ( ( #47, #127, #126 ) ) REPRESENTATION_CONTEXT ( 'NONE', 'WORKASPACE' ) );
#21 = MECHANICAL_DESIGN_GEOMETRIC_PRESENTATION_REPRESENTATION (  '', ( #89 ), #181 ) ;
#22 = DIMENSIONAL_EXPONENTS ( 1.000000000000000000, 0.000000000000000000, 0.000000000000000000, 0.000000000000000000, 0.000000000000000000, 0.000000000000000000, 0.000000000000000000 ) ;
#23 = SURFACE_STYLE_USAGE ( .BOTH. , #275 ) ;
#24 = LENGTH_MEASURE_WITH_UNIT ( LENGTH_MEASURE( 0.02539999999999999897 ), #86 );
#25 = SURFACE_SIDE_STYLE ('',( #129 ) ) ;
#26 = ORIENTED_EDGE ( 'NONE', *, *, #309, .F. ) ;
#27 = LINE ( 'NONE', #109, #149 ) ;
#28 = COLOUR_RGB ( '',0.7921568627450980005, 0.8196078431372548767, 0.9333333333333333481 ) ;
#29 =( GEOMETRIC_REPRESENTATION_CONTEXT ( 3 ) GLOBAL_UNCERTAINTY_ASSIGNED_CONTEXT ( ( #214 ) ) GLOBAL_UNIT_ASSIGNED_CONTEXT ( ( #191, #61, #140 ) ) REPRESENTATION_CONTEXT ( 'NONE', 'WORKASPACE' ) );
#30 = SURFACE_STYLE_USAGE ( .BOTH. , #170 ) ;
#31 = CARTESIAN_POINT ( 'NONE',  ( 0.000000000000000000, 1.000000000000000000, -0.3750000000000000555 ) ) ;
#32 = EDGE_CURVE ( 'NONE', #212, #163, #218, .T. ) ;
#33 = DIRECTION ( 'NONE',  ( 0.000000000000000000, 0.000000000000000000, 1.000000000000000000 ) ) ;
#34 = DIRECTION ( 'NONE',  ( 1.224646799147352961E-16, 1.000000000000000000, -0.000000000000000000 ) ) ;
#35 = ADVANCED_FACE ( 'NONE', ( #115 ), #201, .T. ) ;
#36 = PLANE ( 'NONE',  #272 ) ;
#37 = VECTOR ( 'NONE', #119, 39.37007874015748143 ) ;
#38 = LENGTH_MEASURE_WITH_UNIT ( LENGTH_MEASURE( 0.02539999999999999897 ), #84 );
#39 = ORIENTED_EDGE ( 'NONE', *, *, #66, .T. ) ;
#40 = PRODUCT_RELATED_PRODUCT_CATEGORY ( 'part', '', ( #261 ) ) ;
#41 = PRODUCT_DEFINITION_CONTEXT ( 'detailed design', #203, 'design' ) ;
#42 = CYLINDRICAL_SURFACE ( 'NONE', #100, 0.3750000000000000555 ) ;
#43 = CIRCLE ( 'NONE', #268, 0.3750000000000000555 ) ;
#44 = DIRECTION ( 'NONE',  ( -0.000000000000000000, -1.000000000000000000, -0.000000000000000000 ) ) ;
#45 = DIRECTION ( 'NONE',  ( 0.000000000000000000, 0.000000000000000000, -1.000000000000000000 ) ) ;
#46 = UNCERTAINTY_MEASURE_WITH_UNIT (LENGTH_MEASURE( 1.000000000000000082E-05 ), #95, 'distance_accuracy_value', 'NONE');
#47 =( CONVERSION_BASED_UNIT ( 'INCH', #124 ) LENGTH_UNIT ( ) NAMED_UNIT ( #265 ) );
#48 = FILL_AREA_STYLE ('',( #278 ) ) ;
#49 = EDGE_LOOP ( 'NONE', ( #39, #108 ) ) ;
#50 = DIRECTION ( 'NONE',  ( -1.000000000000000000, 0.000000000000000000, 0.000000000000000000 ) ) ;
#51 = MECHANICAL_DESIGN_GEOMETRIC_PRESENTATION_REPRESENTATION (  '', ( #221 ), #280 ) ;
#52 = VECTOR ( 'NONE', #196, 39.37007874015748143 ) ;
#53 =( NAMED_UNIT ( * ) PLANE_ANGLE_UNIT ( ) SI_UNIT ( $, .RADIAN. ) );
#54 = CARTESIAN_POINT ( 'NONE',  ( 2.449293598294705921E-16, 3.000000000000000444, 0.000000000000000000 ) ) ;
#55 = FILL_AREA_STYLE ('',( #116 ) ) ;
#56 = DIRECTION ( 'NONE',  ( 1.224646799147352961E-16, 1.000000000000000000, -0.000000000000000000 ) ) ;
#57 = DIRECTION ( 'NONE',  ( -1.000000000000000000, 0.000000000000000000, 0.000000000000000000 ) ) ;
#58 = PRODUCT_DEFINITION_SHAPE ( 'NONE', 'NONE',  #194 ) ;
#59 = UNCERTAINTY_MEASURE_WITH_UNIT (LENGTH_MEASURE( 1.000000000000000082E-05 ), #238, 'distance_accuracy_value', 'NONE');
#60 = MECHANICAL_DESIGN_GEOMETRIC_PRESENTATION_REPRESENTATION (  '', ( #245 ), #176 ) ;
#61 =( NAMED_UNIT ( * ) PLANE_ANGLE_UNIT ( ) SI_UNIT ( $, .RADIAN. ) );
#62 = DIMENSIONAL_EXPONENTS ( 1.000000000000000000, 0.000000000000000000, 0.000000000000000000, 0.000000000000000000, 0.000000000000000000, 0.000000000000000000, 0.000000000000000000 ) ;
#63 = APPLICATION_CONTEXT ( 'automotive_design' ) ;
#64 = PRESENTATION_LAYER_ASSIGNMENT (  '', '', ( #14 ) ) ;
#65 = DIMENSIONAL_EXPONENTS ( 1.000000000000000000, 0.000000000000000000, 0.000000000000000000, 0.000000000000000000, 0.000000000000000000, 0.000000000000000000, 0.000000000000000000 ) ;
#66 = EDGE_CURVE ( 'NONE', #225, #134, #10, .T. ) ;
#67 = PLANE ( 'NONE',  #307 ) ;
#68 = PRESENTATION_LAYER_ASSIGNMENT (  '', '', ( #221 ) ) ;
#69 = MANIFOLD_SOLID_BREP ( 'Revolve - Tool Body (Straight Shanked)', #224 ) ;
#70 = CIRCLE ( 'NONE', #111, 0.3750000000000000555 ) ;
#71 = FILL_AREA_STYLE ('',( #96 ) ) ;
#72 = CARTESIAN_POINT ( 'NONE',  ( 0.000000000000000000, 0.000000000000000000, 0.000000000000000000 ) ) ;
#73 = CARTESIAN_POINT ( 'NONE',  ( 0.000000000000000000, 0.000000000000000000, 0.000000000000000000 ) ) ;
#74 = ORIENTED_EDGE ( 'NONE', *, *, #250, .F. ) ;
#75 = AXIS2_PLACEMENT_3D ( 'NONE', #249, #98, #259 ) ;
#76 = LENGTH_MEASURE_WITH_UNIT ( LENGTH_MEASURE( 0.02539999999999999897 ), #213 );
#77 = DIRECTION ( 'NONE',  ( 1.224646799147352961E-16, 1.000000000000000000, -0.000000000000000000 ) ) ;
#78 = CARTESIAN_POINT ( 'NONE',  ( -0.3750000000000000555, 1.000000000000000000, 0.000000000000000000 ) ) ;
#79 = CIRCLE ( 'NONE', #121, 0.3750000000000000555 ) ;
#80 = CARTESIAN_POINT ( 'NONE',  ( -0.3749999999999996114, 3.000000000000000444, 0.000000000000000000 ) ) ;
#81 = LENGTH_MEASURE_WITH_UNIT ( LENGTH_MEASURE( 0.02539999999999999897 ), #165 );
#82 = AXIS2_PLACEMENT_3D ( 'NONE', #107, #102, #138 ) ;
#83 = SURFACE_STYLE_FILL_AREA ( #55 ) ;
#84 =( LENGTH_UNIT ( ) NAMED_UNIT ( * ) SI_UNIT ( $, .METRE. ) );
#85 = DIRECTION ( 'NONE',  ( 0.000000000000000000, 1.000000000000000000, 0.000000000000000000 ) ) ;
#86 =( LENGTH_UNIT ( ) NAMED_UNIT ( * ) SI_UNIT ( $, .METRE. ) );
#87 = EDGE_CURVE ( 'NONE', #134, #225, #43, .T. ) ;
#88 = STYLED_ITEM ( 'NONE', ( #233 ), #159 ) ;
#89 = STYLED_ITEM ( 'NONE', ( #151 ), #269 ) ;
#90 = DIMENSIONAL_EXPONENTS ( 1.000000000000000000, 0.000000000000000000, 0.000000000000000000, 0.000000000000000000, 0.000000000000000000, 0.000000000000000000, 0.000000000000000000 ) ;
#91 = CARTESIAN_POINT ( 'NONE',  ( 0.000000000000000000, 1.000000000000000000, 0.000000000000000000 ) ) ;
#92 = DIRECTION ( 'NONE',  ( 0.000000000000000000, -0.000000000000000000, 1.000000000000000000 ) ) ;
#93 = DIRECTION ( 'NONE',  ( -0.000000000000000000, -1.000000000000000000, -0.000000000000000000 ) ) ;
#94 =( NAMED_UNIT ( * ) PLANE_ANGLE_UNIT ( ) SI_UNIT ( $, .RADIAN. ) );
#95 =( CONVERSION_BASED_UNIT ( 'INCH', #24 ) LENGTH_UNIT ( ) NAMED_UNIT ( #22 ) );
#96 = FILL_AREA_STYLE_COLOUR ( '', #192 ) ;
#97 = ADVANCED_BREP_SHAPE_REPRESENTATION ( '83316', ( #188, #69, #101 ), #29 ) ;
#98 = DIRECTION ( 'NONE',  ( -0.000000000000000000, -1.000000000000000000, -0.000000000000000000 ) ) ;
#99 = ORIENTED_EDGE ( 'NONE', *, *, #294, .F. ) ;
#100 = AXIS2_PLACEMENT_3D ( 'NONE', #230, #292, #277 ) ;
#101 = AXIS2_PLACEMENT_3D ( 'NONE', #262, #33, #237 ) ;
#102 = DIRECTION ( 'NONE',  ( 1.224646799147352961E-16, 1.000000000000000000, -0.000000000000000000 ) ) ;
#103 = DIRECTION ( 'NONE',  ( -1.000000000000000000, 1.224646799147352961E-16, 0.000000000000000000 ) ) ;
#104 = ORIENTED_EDGE ( 'NONE', *, *, #172, .F. ) ;
#105 = ADVANCED_FACE ( 'NONE', ( #130 ), #42, .T. ) ;
#106 = ORIENTED_EDGE ( 'NONE', *, *, #246, .F. ) ;
#107 = CARTESIAN_POINT ( 'NONE',  ( 2.449293598294705921E-16, 3.000000000000000444, 0.000000000000000000 ) ) ;
#108 = ORIENTED_EDGE ( 'NONE', *, *, #87, .T. ) ;
#109 = CARTESIAN_POINT ( 'NONE',  ( 0.000000000000000000, 0.000000000000000000, -0.3750000000000000555 ) ) ;
#110 = MECHANICAL_DESIGN_GEOMETRIC_PRESENTATION_REPRESENTATION (  '', ( #14 ), #239 ) ;
#111 = AXIS2_PLACEMENT_3D ( 'NONE', #243, #174, #146 ) ;
#112 = CARTESIAN_POINT ( 'NONE',  ( 0.3750000000000000555, 3.000000000000000444, 0.000000000000000000 ) ) ;
#113 = EDGE_CURVE ( 'NONE', #202, #156, #291, .T. ) ;
#114 = FILL_AREA_STYLE ('',( #209 ) ) ;
#115 = FACE_OUTER_BOUND ( 'NONE', #189, .T. ) ;
#116 = FILL_AREA_STYLE_COLOUR ( '', #253 ) ;
#117 = CIRCLE ( 'NONE', #82, 0.3749999999999997780 ) ;
#118 = SURFACE_STYLE_USAGE ( .BOTH. , #267 ) ;
#119 = DIRECTION ( 'NONE',  ( 1.224646799147352961E-16, 1.000000000000000000, -0.000000000000000000 ) ) ;
#120 = ORIENTED_EDGE ( 'NONE', *, *, #167, .T. ) ;
#121 = AXIS2_PLACEMENT_3D ( 'NONE', #142, #190, #287 ) ;
#122 = CARTESIAN_POINT ( 'NONE',  ( 0.000000000000000000, 0.000000000000000000, 0.000000000000000000 ) ) ;
#123 = SURFACE_STYLE_FILL_AREA ( #226 ) ;
#124 = LENGTH_MEASURE_WITH_UNIT ( LENGTH_MEASURE( 0.02539999999999999897 ), #8 );
#125 = PRESENTATION_STYLE_ASSIGNMENT (( #293 ) ) ;
#126 =( NAMED_UNIT ( * ) SI_UNIT ( $, .STERADIAN. ) SOLID_ANGLE_UNIT ( ) );
#127 =( NAMED_UNIT ( * ) PLANE_ANGLE_UNIT ( ) SI_UNIT ( $, .RADIAN. ) );
#128 = ADVANCED_FACE ( 'NONE', ( #153 ), #67, .F. ) ;
#129 = SURFACE_STYLE_FILL_AREA ( #48 ) ;
#130 = FACE_OUTER_BOUND ( 'NONE', #236, .T. ) ;
#131 = EDGE_LOOP ( 'NONE', ( #74, #211, #271, #26 ) ) ;
#132 = SURFACE_STYLE_USAGE ( .BOTH. , #25 ) ;
#133 = SURFACE_STYLE_USAGE ( .BOTH. , #306 ) ;
#134 = VERTEX_POINT ( 'NONE', #160 ) ;
#135 =( NAMED_UNIT ( * ) PLANE_ANGLE_UNIT ( ) SI_UNIT ( $, .RADIAN. ) );
#136 = DIRECTION ( 'NONE',  ( 1.224646799147352961E-16, 1.000000000000000000, -0.000000000000000000 ) ) ;
#137 = EDGE_LOOP ( 'NONE', ( #180, #286 ) ) ;
#138 = DIRECTION ( 'NONE',  ( -1.000000000000000000, 0.000000000000000000, 0.000000000000000000 ) ) ;
#139 = UNCERTAINTY_MEASURE_WITH_UNIT (LENGTH_MEASURE( 1.000000000000000082E-05 ), #195, 'distance_accuracy_value', 'NONE');
#140 =( NAMED_UNIT ( * ) SI_UNIT ( $, .STERADIAN. ) SOLID_ANGLE_UNIT ( ) );
#141 = PRESENTATION_STYLE_ASSIGNMENT (( #30 ) ) ;
#142 = CARTESIAN_POINT ( 'NONE',  ( -3.032960542342103792E-32, 1.000000000000000000, 0.000000000000000000 ) ) ;
#143 = ORIENTED_EDGE ( 'NONE', *, *, #113, .T. ) ;
#144 = DIRECTION ( 'NONE',  ( -1.224646799147352961E-16, -1.000000000000000000, 0.000000000000000000 ) ) ;
#145 = FACE_OUTER_BOUND ( 'NONE', #137, .T. ) ;
#146 = DIRECTION ( 'NONE',  ( -1.000000000000000000, 0.000000000000000000, 0.000000000000000000 ) ) ;
#147 = VECTOR ( 'NONE', #34, 39.37007874015748143 ) ;
#148 = ORIENTED_EDGE ( 'NONE', *, *, #172, .T. ) ;
#149 = VECTOR ( 'NONE', #295, 39.37007874015748143 ) ;
#150 = DIRECTION ( 'NONE',  ( -0.000000000000000000, -1.000000000000000000, -0.000000000000000000 ) ) ;
#151 = PRESENTATION_STYLE_ASSIGNMENT (( #118 ) ) ;
#152 = LENGTH_MEASURE_WITH_UNIT ( LENGTH_MEASURE( 0.02539999999999999897 ), #6 );
#153 = FACE_OUTER_BOUND ( 'NONE', #301, .T. ) ;
#154 = CLOSED_SHELL ( 'NONE', ( #35, #269, #105, #159 ) ) ;
#155 = SURFACE_STYLE_FILL_AREA ( #71 ) ;
#156 = VERTEX_POINT ( 'NONE', #31 ) ;
#157 = CARTESIAN_POINT ( 'NONE',  ( -0.3749999999999995004, 3.000000000000000444, 0.000000000000000000 ) ) ;
#158 = DIRECTION ( 'NONE',  ( 0.000000000000000000, 0.000000000000000000, -1.000000000000000000 ) ) ;
#159 = ADVANCED_FACE ( 'NONE', ( #219 ), #15, .T. ) ;
#160 = CARTESIAN_POINT ( 'NONE',  ( 4.592425496802575451E-17, 0.000000000000000000, 0.3750000000000000555 ) ) ;
#161 = MECHANICAL_DESIGN_GEOMETRIC_PRESENTATION_REPRESENTATION (  '', ( #88 ), #302 ) ;
#162 = FACE_OUTER_BOUND ( 'NONE', #276, .T. ) ;
#163 = VERTEX_POINT ( 'NONE', #157 ) ;
#164 = DIRECTION ( 'NONE',  ( -1.000000000000000000, 0.000000000000000000, 0.000000000000000000 ) ) ;
#165 =( LENGTH_UNIT ( ) NAMED_UNIT ( * ) SI_UNIT ( $, .METRE. ) );
#166 = APPLICATION_PROTOCOL_DEFINITION ( 'draft international standard', 'automotive_design', 1998, #203 ) ;
#167 = EDGE_CURVE ( 'NONE', #156, #225, #27, .T. ) ;
#168 = MECHANICAL_DESIGN_GEOMETRIC_PRESENTATION_REPRESENTATION (  '', ( #289 ), #20 ) ;
#169 = ORIENTED_EDGE ( 'NONE', *, *, #32, .F. ) ;
#170 = SURFACE_SIDE_STYLE ('',( #83 ) ) ;
#171 = CARTESIAN_POINT ( 'NONE',  ( 4.592425496802575451E-17, 0.000000000000000000, 0.3750000000000000555 ) ) ;
#172 = EDGE_CURVE ( 'NONE', #163, #282, #117, .T. ) ;
#173 = PRESENTATION_LAYER_ASSIGNMENT (  '', '', ( #245 ) ) ;
#174 = DIRECTION ( 'NONE',  ( 1.224646799147352961E-16, 1.000000000000000000, -0.000000000000000000 ) ) ;
#175 = SURFACE_STYLE_FILL_AREA ( #290 ) ;
#176 =( GEOMETRIC_REPRESENTATION_CONTEXT ( 3 ) GLOBAL_UNCERTAINTY_ASSIGNED_CONTEXT ( ( #46 ) ) GLOBAL_UNIT_ASSIGNED_CONTEXT ( ( #95, #252, #5 ) ) REPRESENTATION_CONTEXT ( 'NONE', 'WORKASPACE' ) );
#177 = PRODUCT_DEFINITION_FORMATION_WITH_SPECIFIED_SOURCE ( 'ANY', '', #261, .NOT_KNOWN. ) ;
#178 = UNCERTAINTY_MEASURE_WITH_UNIT (LENGTH_MEASURE( 1.000000000000000082E-05 ), #47, 'distance_accuracy_value', 'NONE');
#179 = CARTESIAN_POINT ( 'NONE',  ( 0.000000000000000000, 1.000000000000000000, 0.000000000000000000 ) ) ;
#180 = ORIENTED_EDGE ( 'NONE', *, *, #298, .F. ) ;
#181 =( GEOMETRIC_REPRESENTATION_CONTEXT ( 3 ) GLOBAL_UNCERTAINTY_ASSIGNED_CONTEXT ( ( #139 ) ) GLOBAL_UNIT_ASSIGNED_CONTEXT ( ( #195, #19, #223 ) ) REPRESENTATION_CONTEXT ( 'NONE', 'WORKASPACE' ) );
#182 = DIRECTION ( 'NONE',  ( -0.000000000000000000, -1.000000000000000000, -0.000000000000000000 ) ) ;
#183 = ORIENTED_EDGE ( 'NONE', *, *, #87, .F. ) ;
#184 = CARTESIAN_POINT ( 'NONE',  ( 2.449293598294705921E-16, 3.000000000000000444, 0.000000000000000000 ) ) ;
#185 = CARTESIAN_POINT ( 'NONE',  ( 4.592425496802575451E-17, 1.000000000000000000, 0.3750000000000000555 ) ) ;
#186 = ORIENTED_EDGE ( 'NONE', *, *, #274, .F. ) ;
#187 = SHAPE_DEFINITION_REPRESENTATION ( #58, #97 ) ;
#188 = MANIFOLD_SOLID_BREP ( 'Revolve - Cutting Edge', #154 ) ;
#189 = EDGE_LOOP ( 'NONE', ( #11, #12, #256, #232 ) ) ;
#190 = DIRECTION ( 'NONE',  ( 1.224646799147352961E-16, 1.000000000000000000, -0.000000000000000000 ) ) ;
#191 =( CONVERSION_BASED_UNIT ( 'INCH', #81 ) LENGTH_UNIT ( ) NAMED_UNIT ( #281 ) );
#192 = COLOUR_RGB ( '',1.000000000000000000, 0.000000000000000000, 0.000000000000000000 ) ;
#193 = CIRCLE ( 'NONE', #16, 0.3750000000000000555 ) ;
#194 = PRODUCT_DEFINITION ( 'UNKNOWN', '', #177, #41 ) ;
#195 =( CONVERSION_BASED_UNIT ( 'INCH', #38 ) LENGTH_UNIT ( ) NAMED_UNIT ( #62 ) );
#196 = DIRECTION ( 'NONE',  ( -0.000000000000000000, -1.000000000000000000, -0.000000000000000000 ) ) ;
#197 = ADVANCED_FACE ( 'NONE', ( #304 ), #299, .T. ) ;
#198 = DIMENSIONAL_EXPONENTS ( 1.000000000000000000, 0.000000000000000000, 0.000000000000000000, 0.000000000000000000, 0.000000000000000000, 0.000000000000000000, 0.000000000000000000 ) ;
#199 = DIRECTION ( 'NONE',  ( 0.000000000000000000, 0.000000000000000000, -1.000000000000000000 ) ) ;
#200 = LINE ( 'NONE', #171, #52 ) ;
#201 = CYLINDRICAL_SURFACE ( 'NONE', #244, 0.3750000000000000555 ) ;
#202 = VERTEX_POINT ( 'NONE', #185 ) ;
#203 = APPLICATION_CONTEXT ( 'automotive_design' ) ;
#204 = AXIS2_PLACEMENT_3D ( 'NONE', #122, #9, #297 ) ;
#205 = COLOUR_RGB ( '',1.000000000000000000, 0.000000000000000000, 0.000000000000000000 ) ;
#206 = SURFACE_SIDE_STYLE ('',( #123 ) ) ;
#207 = AXIS2_PLACEMENT_3D ( 'NONE', #91, #150, #199 ) ;
#208 = PRESENTATION_STYLE_ASSIGNMENT (( #23 ) ) ;
#209 = FILL_AREA_STYLE_COLOUR ( '', #285 ) ;
#210 =( CONVERSION_BASED_UNIT ( 'INCH', #234 ) LENGTH_UNIT ( ) NAMED_UNIT ( #90 ) );
#211 = ORIENTED_EDGE ( 'NONE', *, *, #246, .T. ) ;
#212 = VERTEX_POINT ( 'NONE', #78 ) ;
#213 =( LENGTH_UNIT ( ) NAMED_UNIT ( * ) SI_UNIT ( $, .METRE. ) );
#214 = UNCERTAINTY_MEASURE_WITH_UNIT (LENGTH_MEASURE( 1.000000000000000082E-05 ), #191, 'distance_accuracy_value', 'NONE');
#215 = DIRECTION ( 'NONE',  ( 1.224646799147352961E-16, 1.000000000000000000, -0.000000000000000000 ) ) ;
#216 = ORIENTED_EDGE ( 'NONE', *, *, #250, .T. ) ;
#217 = APPLICATION_PROTOCOL_DEFINITION ( 'draft international standard', 'automotive_design', 1998, #63 ) ;
#218 = LINE ( 'NONE', #80, #147 ) ;
#219 = FACE_OUTER_BOUND ( 'NONE', #49, .T. ) ;
#220 = ADVANCED_FACE ( 'NONE', ( #162 ), #257, .T. ) ;
#221 = STYLED_ITEM ( 'NONE', ( #13 ), #188 ) ;
#222 = AXIS2_PLACEMENT_3D ( 'NONE', #54, #136, #57 ) ;
#223 =( NAMED_UNIT ( * ) SI_UNIT ( $, .STERADIAN. ) SOLID_ANGLE_UNIT ( ) );
#224 = CLOSED_SHELL ( 'NONE', ( #220, #128, #197, #305 ) ) ;
#225 = VERTEX_POINT ( 'NONE', #260 ) ;
#226 = FILL_AREA_STYLE ('',( #1 ) ) ;
#227 = AXIS2_PLACEMENT_3D ( 'NONE', #184, #77, #50 ) ;
#228 = CIRCLE ( 'NONE', #222, 0.3749999999999997780 ) ;
#229 = DIRECTION ( 'NONE',  ( 0.000000000000000000, 0.000000000000000000, -1.000000000000000000 ) ) ;
#230 = CARTESIAN_POINT ( 'NONE',  ( 0.000000000000000000, 0.000000000000000000, 0.000000000000000000 ) ) ;
#231 = LINE ( 'NONE', #7, #37 ) ;
#232 = ORIENTED_EDGE ( 'NONE', *, *, #167, .F. ) ;
#233 = PRESENTATION_STYLE_ASSIGNMENT (( #133 ) ) ;
#234 = LENGTH_MEASURE_WITH_UNIT ( LENGTH_MEASURE( 0.02539999999999999897 ), #254 );
#235 = ORIENTED_EDGE ( 'NONE', *, *, #309, .T. ) ;
#236 = EDGE_LOOP ( 'NONE', ( #186, #143, #120, #183 ) ) ;
#237 = DIRECTION ( 'NONE',  ( 1.000000000000000000, 0.000000000000000000, 0.000000000000000000 ) ) ;
#238 =( CONVERSION_BASED_UNIT ( 'INCH', #76 ) LENGTH_UNIT ( ) NAMED_UNIT ( #65 ) );
#239 =( GEOMETRIC_REPRESENTATION_CONTEXT ( 3 ) GLOBAL_UNCERTAINTY_ASSIGNED_CONTEXT ( ( #258 ) ) GLOBAL_UNIT_ASSIGNED_CONTEXT ( ( #2, #94, #247 ) ) REPRESENTATION_CONTEXT ( 'NONE', 'WORKASPACE' ) );
#240 = SURFACE_STYLE_FILL_AREA ( #114 ) ;
#241 = FACE_OUTER_BOUND ( 'NONE', #300, .T. ) ;
#242 = PRODUCT_CONTEXT ( 'NONE', #63, 'mechanical' ) ;
#243 = CARTESIAN_POINT ( 'NONE',  ( -3.032960542342103792E-32, 1.000000000000000000, 0.000000000000000000 ) ) ;
#244 = AXIS2_PLACEMENT_3D ( 'NONE', #73, #182, #45 ) ;
#245 = STYLED_ITEM ( 'NONE', ( #125 ), #35 ) ;
#246 = EDGE_CURVE ( 'NONE', #18, #212, #79, .T. ) ;
#247 =( NAMED_UNIT ( * ) SI_UNIT ( $, .STERADIAN. ) SOLID_ANGLE_UNIT ( ) );
#248 = CARTESIAN_POINT ( 'NONE',  ( 0.3750000000000000555, 1.000000000000000000, 4.592425496802573602E-17 ) ) ;
#249 = CARTESIAN_POINT ( 'NONE',  ( 0.000000000000000000, 0.000000000000000000, 0.000000000000000000 ) ) ;
#250 = EDGE_CURVE ( 'NONE', #18, #282, #231, .T. ) ;
#251 =( NAMED_UNIT ( * ) SI_UNIT ( $, .STERADIAN. ) SOLID_ANGLE_UNIT ( ) );
#252 =( NAMED_UNIT ( * ) PLANE_ANGLE_UNIT ( ) SI_UNIT ( $, .RADIAN. ) );
#253 = COLOUR_RGB ( '',0.7921568627450980005, 0.8196078431372548767, 0.9333333333333333481 ) ;
#254 =( LENGTH_UNIT ( ) NAMED_UNIT ( * ) SI_UNIT ( $, .METRE. ) );
#255 = AXIS2_PLACEMENT_3D ( 'NONE', #112, #144, #279 ) ;
#256 = ORIENTED_EDGE ( 'NONE', *, *, #66, .F. ) ;
#257 = CYLINDRICAL_SURFACE ( 'NONE', #4, 0.3749999999999998890 ) ;
#258 = UNCERTAINTY_MEASURE_WITH_UNIT (LENGTH_MEASURE( 1.000000000000000082E-05 ), #2, 'distance_accuracy_value', 'NONE');
#259 = DIRECTION ( 'NONE',  ( 0.000000000000000000, 0.000000000000000000, -1.000000000000000000 ) ) ;
#260 = CARTESIAN_POINT ( 'NONE',  ( 0.000000000000000000, 0.000000000000000000, -0.3750000000000000555 ) ) ;
#261 = PRODUCT ( '83316', '83316', '', ( #242 ) ) ;
#262 = CARTESIAN_POINT ( 'NONE',  ( 0.000000000000000000, 0.000000000000000000, 0.000000000000000000 ) ) ;
#263 = CARTESIAN_POINT ( 'NONE',  ( 0.3750000000000000555, 3.000000000000000444, 4.592425496802573602E-17 ) ) ;
#264 = PRESENTATION_LAYER_ASSIGNMENT (  '', '', ( #88 ) ) ;
#265 = DIMENSIONAL_EXPONENTS ( 1.000000000000000000, 0.000000000000000000, 0.000000000000000000, 0.000000000000000000, 0.000000000000000000, 0.000000000000000000, 0.000000000000000000 ) ;
#266 = ORIENTED_EDGE ( 'NONE', *, *, #294, .T. ) ;
#267 = SURFACE_SIDE_STYLE ('',( #175 ) ) ;
#268 = AXIS2_PLACEMENT_3D ( 'NONE', #72, #93, #229 ) ;
#269 = ADVANCED_FACE ( 'NONE', ( #145 ), #36, .T. ) ;
#270 = CARTESIAN_POINT ( 'NONE',  ( 2.812049592490981988E-33, 1.000000000000000000, 0.000000000000000000 ) ) ;
#271 = ORIENTED_EDGE ( 'NONE', *, *, #32, .T. ) ;
#272 = AXIS2_PLACEMENT_3D ( 'NONE', #288, #85, #92 ) ;
#273 = UNCERTAINTY_MEASURE_WITH_UNIT (LENGTH_MEASURE( 1.000000000000000082E-05 ), #210, 'distance_accuracy_value', 'NONE');
#274 = EDGE_CURVE ( 'NONE', #202, #134, #200, .T. ) ;
#275 = SURFACE_SIDE_STYLE ('',( #155 ) ) ;
#276 = EDGE_LOOP ( 'NONE', ( #266, #216, #104, #169 ) ) ;
#277 = DIRECTION ( 'NONE',  ( 0.000000000000000000, 0.000000000000000000, -1.000000000000000000 ) ) ;
#278 = FILL_AREA_STYLE_COLOUR ( '', #28 ) ;
#279 = DIRECTION ( 'NONE',  ( 1.000000000000000000, -1.224646799147352961E-16, 0.000000000000000000 ) ) ;
#280 =( GEOMETRIC_REPRESENTATION_CONTEXT ( 3 ) GLOBAL_UNCERTAINTY_ASSIGNED_CONTEXT ( ( #59 ) ) GLOBAL_UNIT_ASSIGNED_CONTEXT ( ( #238, #135, #251 ) ) REPRESENTATION_CONTEXT ( 'NONE', 'WORKASPACE' ) );
#281 = DIMENSIONAL_EXPONENTS ( 1.000000000000000000, 0.000000000000000000, 0.000000000000000000, 0.000000000000000000, 0.000000000000000000, 0.000000000000000000, 0.000000000000000000 ) ;
#282 = VERTEX_POINT ( 'NONE', #263 ) ;
#283 = CARTESIAN_POINT ( 'NONE',  ( 2.449293598294705921E-16, 3.000000000000000444, 0.000000000000000000 ) ) ;
#284 = PLANE ( 'NONE',  #255 ) ;
#285 = COLOUR_RGB ( '',1.000000000000000000, 0.000000000000000000, 0.000000000000000000 ) ;
#286 = ORIENTED_EDGE ( 'NONE', *, *, #113, .F. ) ;
#287 = DIRECTION ( 'NONE',  ( -1.000000000000000000, 0.000000000000000000, 0.000000000000000000 ) ) ;
#288 = CARTESIAN_POINT ( 'NONE',  ( 0.000000000000000000, 1.000000000000000000, 0.000000000000000000 ) ) ;
#289 = STYLED_ITEM ( 'NONE', ( #141 ), #69 ) ;
#290 = FILL_AREA_STYLE ('',( #17 ) ) ;
#291 = CIRCLE ( 'NONE', #207, 0.3750000000000000555 ) ;
#292 = DIRECTION ( 'NONE',  ( -0.000000000000000000, -1.000000000000000000, -0.000000000000000000 ) ) ;
#293 = SURFACE_STYLE_USAGE ( .BOTH. , #206 ) ;
#294 = EDGE_CURVE ( 'NONE', #212, #18, #70, .T. ) ;
#295 = DIRECTION ( 'NONE',  ( -0.000000000000000000, -1.000000000000000000, -0.000000000000000000 ) ) ;
#296 = PRESENTATION_LAYER_ASSIGNMENT (  '', '', ( #289 ) ) ;
#297 = DIRECTION ( 'NONE',  ( 0.000000000000000000, 0.000000000000000000, -1.000000000000000000 ) ) ;
#298 = EDGE_CURVE ( 'NONE', #156, #202, #193, .T. ) ;
#299 = CYLINDRICAL_SURFACE ( 'NONE', #227, 0.3749999999999998890 ) ;
#300 = EDGE_LOOP ( 'NONE', ( #148, #235 ) ) ;
#301 = EDGE_LOOP ( 'NONE', ( #99, #106 ) ) ;
#302 =( GEOMETRIC_REPRESENTATION_CONTEXT ( 3 ) GLOBAL_UNCERTAINTY_ASSIGNED_CONTEXT ( ( #273 ) ) GLOBAL_UNIT_ASSIGNED_CONTEXT ( ( #210, #53, #303 ) ) REPRESENTATION_CONTEXT ( 'NONE', 'WORKASPACE' ) );
#303 =( NAMED_UNIT ( * ) SI_UNIT ( $, .STERADIAN. ) SOLID_ANGLE_UNIT ( ) );
#304 = FACE_OUTER_BOUND ( 'NONE', #131, .T. ) ;
#305 = ADVANCED_FACE ( 'NONE', ( #241 ), #284, .F. ) ;
#306 = SURFACE_SIDE_STYLE ('',( #240 ) ) ;
#307 = AXIS2_PLACEMENT_3D ( 'NONE', #270, #215, #103 ) ;
#308 = PRESENTATION_LAYER_ASSIGNMENT (  '', '', ( #89 ) ) ;
#309 = EDGE_CURVE ( 'NONE', #282, #163, #228, .T. ) ;
ENDSEC;
END-ISO-10303-21;
