ISO-10303-21;
HEADER;
FILE_DESCRIPTION (( 'STEP AP214' ),
    '1' );
FILE_NAME ('59749.STEP',
    '2023-07-24T15:33:19',
    ( '' ),
    ( '' ),
    'SwSTEP 2.0',
    'SolidWorks 2023',
    '' );
FILE_SCHEMA (( 'AUTOMOTIVE_DESIGN' ));
ENDSEC;

DATA;
#1 = VERTEX_POINT ( 'NONE', #111 ) ;
#2 = DIRECTION ( 'NONE',  ( -1.223542297630008506E-16, 1.000000000000000000, -0.000000000000000000 ) ) ;
#3 = DIRECTION ( 'NONE',  ( -1.000000000000000000, -1.223542297630008506E-16, 0.000000000000000000 ) ) ;
#4 = AXIS2_PLACEMENT_3D ( 'NONE', #315, #290, #232 ) ;
#5 = CARTESIAN_POINT ( 'NONE',  ( -1.469576158976823750E-15, 75.00000000000000000, 0.000000000000000000 ) ) ;
#6 = DIRECTION ( 'NONE',  ( -1.000000000000000000, 0.000000000000000000, 0.000000000000000000 ) ) ;
#7 = DIRECTION ( 'NONE',  ( -1.000000000000000000, 0.000000000000000000, 0.000000000000000000 ) ) ;
#8 = CARTESIAN_POINT ( 'NONE',  ( 0.000000000000000000, 1.000000000000000000, -5.000000000000000000 ) ) ;
#9 = CIRCLE ( 'NONE', #311, 5.999999999999996447 ) ;
#10 = EDGE_LOOP ( 'NONE', ( #95, #335 ) ) ;
#11 =( NAMED_UNIT ( * ) SI_UNIT ( $, .STERADIAN. ) SOLID_ANGLE_UNIT ( ) );
#12 = APPLICATION_CONTEXT ( 'automotive_design' ) ;
#13 = VERTEX_POINT ( 'NONE', #127 ) ;
#14 = VERTEX_POINT ( 'NONE', #355 ) ;
#15 = MANIFOLD_SOLID_BREP ( 'Revolve - Tool Body (Straight Shanked)', #57 ) ;
#16 =( NAMED_UNIT ( * ) SI_UNIT ( $, .STERADIAN. ) SOLID_ANGLE_UNIT ( ) );
#17 = ADVANCED_FACE ( 'NONE', ( #184 ), #59, .T. ) ;
#18 = COLOUR_RGB ( '',0.7921568627450980005, 0.8196078431372548767, 0.9333333333333333481 ) ;
#19 =( LENGTH_UNIT ( ) NAMED_UNIT ( * ) SI_UNIT ( .MILLI., .METRE. ) );
#20 = CIRCLE ( 'NONE', #109, 5.000000000000000000 ) ;
#21 =( LENGTH_UNIT ( ) NAMED_UNIT ( * ) SI_UNIT ( .MILLI., .METRE. ) );
#22 =( NAMED_UNIT ( * ) SI_UNIT ( $, .STERADIAN. ) SOLID_ANGLE_UNIT ( ) );
#23 = SURFACE_STYLE_FILL_AREA ( #358 ) ;
#24 = DIRECTION ( 'NONE',  ( -0.000000000000000000, -1.000000000000000000, -0.000000000000000000 ) ) ;
#25 = VECTOR ( 'NONE', #253, 1000.000000000000000 ) ;
#26 = AXIS2_PLACEMENT_3D ( 'NONE', #40, #265, #295 ) ;
#27 =( NAMED_UNIT ( * ) SI_UNIT ( $, .STERADIAN. ) SOLID_ANGLE_UNIT ( ) );
#28 = PLANE ( 'NONE',  #243 ) ;
#29 = EDGE_CURVE ( 'NONE', #72, #82, #225, .T. ) ;
#30 = AXIS2_PLACEMENT_3D ( 'NONE', #207, #289, #231 ) ;
#31 =( NAMED_UNIT ( * ) PLANE_ANGLE_UNIT ( ) SI_UNIT ( $, .RADIAN. ) );
#32 = EDGE_CURVE ( 'NONE', #33, #72, #321, .T. ) ;
#33 = VERTEX_POINT ( 'NONE', #259 ) ;
#34 = DIRECTION ( 'NONE',  ( 1.000000000000000000, 0.000000000000000000, -1.224646799147353207E-16 ) ) ;
#35 = EDGE_CURVE ( 'NONE', #353, #14, #96, .T. ) ;
#36 =( NAMED_UNIT ( * ) PLANE_ANGLE_UNIT ( ) SI_UNIT ( $, .RADIAN. ) );
#37 = MECHANICAL_DESIGN_GEOMETRIC_PRESENTATION_REPRESENTATION (  '', ( #226 ), #269 ) ;
#38 = PRODUCT_DEFINITION_CONTEXT ( 'detailed design', #230, 'design' ) ;
#39 = DIRECTION ( 'NONE',  ( 0.000000000000000000, 0.000000000000000000, 1.000000000000000000 ) ) ;
#40 = CARTESIAN_POINT ( 'NONE',  ( 0.000000000000000000, 24.00000000000000000, 0.000000000000000000 ) ) ;
#41 = ORIENTED_EDGE ( 'NONE', *, *, #348, .F. ) ;
#42 =( LENGTH_UNIT ( ) NAMED_UNIT ( * ) SI_UNIT ( .MILLI., .METRE. ) );
#43 = CIRCLE ( 'NONE', #185, 5.000000000000000000 ) ;
#44 = AXIS2_PLACEMENT_3D ( 'NONE', #298, #34, #213 ) ;
#45 = ORIENTED_EDGE ( 'NONE', *, *, #348, .T. ) ;
#46 = FILL_AREA_STYLE_COLOUR ( '', #58 ) ;
#47 = PRESENTATION_STYLE_ASSIGNMENT (( #307 ) ) ;
#48 = ADVANCED_FACE ( 'NONE', ( #200 ), #137, .F. ) ;
#49 = CARTESIAN_POINT ( 'NONE',  ( 0.000000000000000000, 0.000000000000000000, 0.000000000000000000 ) ) ;
#50 = DIRECTION ( 'NONE',  ( 0.000000000000000000, 0.000000000000000000, -1.000000000000000000 ) ) ;
#51 = MECHANICAL_DESIGN_GEOMETRIC_PRESENTATION_REPRESENTATION (  '', ( #149 ), #130 ) ;
#52 = ORIENTED_EDGE ( 'NONE', *, *, #362, .F. ) ;
#53 =( GEOMETRIC_REPRESENTATION_CONTEXT ( 3 ) GLOBAL_UNCERTAINTY_ASSIGNED_CONTEXT ( ( #183 ) ) GLOBAL_UNIT_ASSIGNED_CONTEXT ( ( #87, #341, #366 ) ) REPRESENTATION_CONTEXT ( 'NONE', 'WORKASPACE' ) );
#54 = FILL_AREA_STYLE_COLOUR ( '', #251 ) ;
#55 = FILL_AREA_STYLE ('',( #46 ) ) ;
#56 = DIRECTION ( 'NONE',  ( 0.000000000000000000, 0.000000000000000000, -1.000000000000000000 ) ) ;
#57 = CLOSED_SHELL ( 'NONE', ( #278, #62, #73, #48 ) ) ;
#58 = COLOUR_RGB ( '',1.000000000000000000, 0.000000000000000000, 0.000000000000000000 ) ;
#59 = PLANE ( 'NONE',  #119 ) ;
#60 = DIRECTION ( 'NONE',  ( -0.000000000000000000, -1.000000000000000000, -0.000000000000000000 ) ) ;
#61 = CARTESIAN_POINT ( 'NONE',  ( -1.469576158976823750E-15, 75.00000000000000000, 0.000000000000000000 ) ) ;
#62 = ADVANCED_FACE ( 'NONE', ( #229 ), #28, .F. ) ;
#63 = FILL_AREA_STYLE ('',( #323 ) ) ;
#64 =( GEOMETRIC_REPRESENTATION_CONTEXT ( 3 ) GLOBAL_UNCERTAINTY_ASSIGNED_CONTEXT ( ( #171 ) ) GLOBAL_UNIT_ASSIGNED_CONTEXT ( ( #93, #31, #238 ) ) REPRESENTATION_CONTEXT ( 'NONE', 'WORKASPACE' ) );
#65 = UNCERTAINTY_MEASURE_WITH_UNIT (LENGTH_MEASURE( 1.000000000000000082E-05 ), #42, 'distance_accuracy_value', 'NONE');
#66 = EDGE_LOOP ( 'NONE', ( #215, #75 ) ) ;
#67 = CARTESIAN_POINT ( 'NONE',  ( -6.000000000000003553, 75.00000000000000000, 0.000000000000000000 ) ) ;
#68 = UNCERTAINTY_MEASURE_WITH_UNIT (LENGTH_MEASURE( 1.000000000000000082E-05 ), #19, 'distance_accuracy_value', 'NONE');
#69 = ORIENTED_EDGE ( 'NONE', *, *, #29, .T. ) ;
#70 =( GEOMETRIC_REPRESENTATION_CONTEXT ( 3 ) GLOBAL_UNCERTAINTY_ASSIGNED_CONTEXT ( ( #237 ) ) GLOBAL_UNIT_ASSIGNED_CONTEXT ( ( #288, #254, #139 ) ) REPRESENTATION_CONTEXT ( 'NONE', 'WORKASPACE' ) );
#71 = CARTESIAN_POINT ( 'NONE',  ( 7.347880794884118750E-16, 1.000000000000000000, 6.000000000000000000 ) ) ;
#72 = VERTEX_POINT ( 'NONE', #121 ) ;
#73 = ADVANCED_FACE ( 'NONE', ( #336 ), #198, .T. ) ;
#74 = DIRECTION ( 'NONE',  ( -1.223542297630008506E-16, 1.000000000000000000, -0.000000000000000000 ) ) ;
#75 = ORIENTED_EDGE ( 'NONE', *, *, #360, .F. ) ;
#76 = STYLED_ITEM ( 'NONE', ( #361 ), #141 ) ;
#77 = MECHANICAL_DESIGN_GEOMETRIC_PRESENTATION_REPRESENTATION (  '', ( #164 ), #53 ) ;
#78 = ORIENTED_EDGE ( 'NONE', *, *, #32, .F. ) ;
#79 =( NAMED_UNIT ( * ) PLANE_ANGLE_UNIT ( ) SI_UNIT ( $, .RADIAN. ) );
#80 = FILL_AREA_STYLE ('',( #277 ) ) ;
#81 = CARTESIAN_POINT ( 'NONE',  ( 0.000000000000000000, 0.000000000000000000, -5.000000000000000000 ) ) ;
#82 = VERTEX_POINT ( 'NONE', #71 ) ;
#83 =( NAMED_UNIT ( * ) PLANE_ANGLE_UNIT ( ) SI_UNIT ( $, .RADIAN. ) );
#84 = CARTESIAN_POINT ( 'NONE',  ( 4.770489558936219510E-15, 24.00000000000000000, 0.000000000000000000 ) ) ;
#85 = FACE_OUTER_BOUND ( 'NONE', #128, .T. ) ;
#86 = DIRECTION ( 'NONE',  ( 0.000000000000000000, 0.000000000000000000, -1.000000000000000000 ) ) ;
#87 =( LENGTH_UNIT ( ) NAMED_UNIT ( * ) SI_UNIT ( .MILLI., .METRE. ) );
#88 = MECHANICAL_DESIGN_GEOMETRIC_PRESENTATION_REPRESENTATION (  '', ( #206 ), #124 ) ;
#89 = EDGE_CURVE ( 'NONE', #1, #13, #9, .T. ) ;
#90 = VECTOR ( 'NONE', #301, 1000.000000000000000 ) ;
#91 = CARTESIAN_POINT ( 'NONE',  ( 0.000000000000000000, 1.000000000000000000, 0.000000000000000000 ) ) ;
#92 = DIRECTION ( 'NONE',  ( -0.000000000000000000, -1.000000000000000000, -0.000000000000000000 ) ) ;
#93 =( LENGTH_UNIT ( ) NAMED_UNIT ( * ) SI_UNIT ( .MILLI., .METRE. ) );
#94 = SURFACE_SIDE_STYLE ('',( #343 ) ) ;
#95 = ORIENTED_EDGE ( 'NONE', *, *, #35, .T. ) ;
#96 = CIRCLE ( 'NONE', #274, 6.000000000000001776 ) ;
#97 = AXIS2_PLACEMENT_3D ( 'NONE', #91, #320, #275 ) ;
#98 = PRESENTATION_STYLE_ASSIGNMENT (( #347 ) ) ;
#99 = DIRECTION ( 'NONE',  ( -1.223542297630008506E-16, 1.000000000000000000, -0.000000000000000000 ) ) ;
#100 = EDGE_CURVE ( 'NONE', #193, #305, #43, .T. ) ;
#101 = PRESENTATION_LAYER_ASSIGNMENT (  '', '', ( #226 ) ) ;
#102 = EDGE_CURVE ( 'NONE', #14, #353, #168, .T. ) ;
#103 = SURFACE_STYLE_FILL_AREA ( #242 ) ;
#104 = CARTESIAN_POINT ( 'NONE',  ( 4.770489558936219510E-15, 24.00000000000000000, 0.000000000000000000 ) ) ;
#105 = SURFACE_SIDE_STYLE ('',( #190 ) ) ;
#106 = ORIENTED_EDGE ( 'NONE', *, *, #150, .T. ) ;
#107 = DIRECTION ( 'NONE',  ( -0.000000000000000000, -1.000000000000000000, -0.000000000000000000 ) ) ;
#108 = PRESENTATION_LAYER_ASSIGNMENT (  '', '', ( #233 ) ) ;
#109 = AXIS2_PLACEMENT_3D ( 'NONE', #138, #284, #50 ) ;
#110 = ORIENTED_EDGE ( 'NONE', *, *, #150, .F. ) ;
#111 = CARTESIAN_POINT ( 'NONE',  ( -5.999999999999991118, 24.00000000000000000, 0.000000000000000000 ) ) ;
#112 = CARTESIAN_POINT ( 'NONE',  ( 0.000000000000000000, 24.00000000000000000, 0.000000000000000000 ) ) ;
#113 = EDGE_LOOP ( 'NONE', ( #160, #310, #331, #146 ) ) ;
#114 = DIRECTION ( 'NONE',  ( -1.223542297630008506E-16, 1.000000000000000000, -0.000000000000000000 ) ) ;
#115 = SURFACE_SIDE_STYLE ('',( #294 ) ) ;
#116 = AXIS2_PLACEMENT_3D ( 'NONE', #186, #304, #122 ) ;
#117 = CIRCLE ( 'NONE', #44, 1.000000000000000000 ) ;
#118 = FILL_AREA_STYLE_COLOUR ( '', #337 ) ;
#119 = AXIS2_PLACEMENT_3D ( 'NONE', #285, #339, #56 ) ;
#120 = CIRCLE ( 'NONE', #26, 6.000000000000000000 ) ;
#121 = CARTESIAN_POINT ( 'NONE',  ( 0.000000000000000000, 1.000000000000000000, -6.000000000000000000 ) ) ;
#122 = DIRECTION ( 'NONE',  ( -1.000000000000000000, 0.000000000000000000, 0.000000000000000000 ) ) ;
#123 = CARTESIAN_POINT ( 'NONE',  ( 0.000000000000000000, 0.000000000000000000, 0.000000000000000000 ) ) ;
#124 =( GEOMETRIC_REPRESENTATION_CONTEXT ( 3 ) GLOBAL_UNCERTAINTY_ASSIGNED_CONTEXT ( ( #212 ) ) GLOBAL_UNIT_ASSIGNED_CONTEXT ( ( #175, #368, #27 ) ) REPRESENTATION_CONTEXT ( 'NONE', 'WORKASPACE' ) );
#125 = ORIENTED_EDGE ( 'NONE', *, *, #35, .F. ) ;
#126 =( NAMED_UNIT ( * ) PLANE_ANGLE_UNIT ( ) SI_UNIT ( $, .RADIAN. ) );
#127 = CARTESIAN_POINT ( 'NONE',  ( 6.000000000000000000, 24.00000000000000000, 7.347880794884120722E-16 ) ) ;
#128 = EDGE_LOOP ( 'NONE', ( #297, #187, #370, #78 ) ) ;
#129 = DIRECTION ( 'NONE',  ( 0.000000000000000000, 0.000000000000000000, -1.000000000000000000 ) ) ;
#130 =( GEOMETRIC_REPRESENTATION_CONTEXT ( 3 ) GLOBAL_UNCERTAINTY_ASSIGNED_CONTEXT ( ( #322 ) ) GLOBAL_UNIT_ASSIGNED_CONTEXT ( ( #306, #83, #286 ) ) REPRESENTATION_CONTEXT ( 'NONE', 'WORKASPACE' ) );
#131 = CIRCLE ( 'NONE', #180, 5.999999999999996447 ) ;
#132 = ORIENTED_EDGE ( 'NONE', *, *, #166, .T. ) ;
#133 = FILL_AREA_STYLE_COLOUR ( '', #324 ) ;
#134 = VERTEX_POINT ( 'NONE', #210 ) ;
#135 = CARTESIAN_POINT ( 'NONE',  ( 5.999999999999996447, 75.00000000000000000, 7.347880794884117764E-16 ) ) ;
#136 = PRODUCT ( '59749', '59749', '', ( #220 ) ) ;
#137 = PLANE ( 'NONE',  #4 ) ;
#138 = CARTESIAN_POINT ( 'NONE',  ( 0.000000000000000000, 0.000000000000000000, 0.000000000000000000 ) ) ;
#139 =( NAMED_UNIT ( * ) SI_UNIT ( $, .STERADIAN. ) SOLID_ANGLE_UNIT ( ) );
#140 = DIRECTION ( 'NONE',  ( 0.000000000000000000, 0.000000000000000000, -1.000000000000000000 ) ) ;
#141 = ADVANCED_FACE ( 'NONE', ( #189 ), #221, .T. ) ;
#142 = CARTESIAN_POINT ( 'NONE',  ( 0.000000000000000000, 0.000000000000000000, -6.000000000000000000 ) ) ;
#143 = DIRECTION ( 'NONE',  ( 0.000000000000000000, 0.000000000000000000, -1.000000000000000000 ) ) ;
#144 = AXIS2_PLACEMENT_3D ( 'NONE', #195, #228, #86 ) ;
#145 = PRODUCT_DEFINITION_SHAPE ( 'NONE', 'NONE',  #247 ) ;
#146 = ORIENTED_EDGE ( 'NONE', *, *, #102, .F. ) ;
#147 = PRESENTATION_STYLE_ASSIGNMENT (( #260 ) ) ;
#148 = DIRECTION ( 'NONE',  ( -1.223542297630008506E-16, 1.000000000000000000, 0.000000000000000000 ) ) ;
#149 = STYLED_ITEM ( 'NONE', ( #316 ), #192 ) ;
#150 = EDGE_CURVE ( 'NONE', #305, #193, #20, .T. ) ;
#151 = CARTESIAN_POINT ( 'NONE',  ( 6.735557395310443009E-16, 0.000000000000000000, 5.000000000000000000 ) ) ;
#152 = SURFACE_SIDE_STYLE ('',( #103 ) ) ;
#153 = EDGE_LOOP ( 'NONE', ( #158, #334, #125, #214 ) ) ;
#154 =( NAMED_UNIT ( * ) SI_UNIT ( $, .STERADIAN. ) SOLID_ANGLE_UNIT ( ) );
#155 =( GEOMETRIC_REPRESENTATION_CONTEXT ( 3 ) GLOBAL_UNCERTAINTY_ASSIGNED_CONTEXT ( ( #271 ) ) GLOBAL_UNIT_ASSIGNED_CONTEXT ( ( #21, #79, #16 ) ) REPRESENTATION_CONTEXT ( 'NONE', 'WORKASPACE' ) );
#156 = DIRECTION ( 'NONE',  ( 0.000000000000000000, 0.000000000000000000, -1.000000000000000000 ) ) ;
#157 = EDGE_LOOP ( 'NONE', ( #249, #218, #165, #300 ) ) ;
#158 = ORIENTED_EDGE ( 'NONE', *, *, #89, .T. ) ;
#159 = FILL_AREA_STYLE ('',( #201 ) ) ;
#160 = ORIENTED_EDGE ( 'NONE', *, *, #177, .F. ) ;
#161 = LINE ( 'NONE', #135, #25 ) ;
#162 = CLOSED_SHELL ( 'NONE', ( #205, #313, #17, #268, #192, #141 ) ) ;
#163 = PRESENTATION_LAYER_ASSIGNMENT (  '', '', ( #206 ) ) ;
#164 = STYLED_ITEM ( 'NONE', ( #147 ), #268 ) ;
#165 = ORIENTED_EDGE ( 'NONE', *, *, #32, .T. ) ;
#166 = EDGE_CURVE ( 'NONE', #82, #72, #344, .T. ) ;
#167 = FILL_AREA_STYLE ('',( #54 ) ) ;
#168 = CIRCLE ( 'NONE', #116, 6.000000000000001776 ) ;
#169 = CARTESIAN_POINT ( 'NONE',  ( 0.000000000000000000, 0.000000000000000000, 0.000000000000000000 ) ) ;
#170 = SURFACE_STYLE_FILL_AREA ( #55 ) ;
#171 = UNCERTAINTY_MEASURE_WITH_UNIT (LENGTH_MEASURE( 1.000000000000000082E-05 ), #93, 'distance_accuracy_value', 'NONE');
#172 = AXIS2_PLACEMENT_3D ( 'NONE', #312, #246, #7 ) ;
#173 = PRODUCT_DEFINITION_FORMATION_WITH_SPECIFIED_SOURCE ( 'ANY', '', #136, .NOT_KNOWN. ) ;
#174 = FILL_AREA_STYLE ('',( #118 ) ) ;
#175 =( LENGTH_UNIT ( ) NAMED_UNIT ( * ) SI_UNIT ( .MILLI., .METRE. ) );
#176 = CARTESIAN_POINT ( 'NONE',  ( 4.770489558936219510E-15, 24.00000000000000000, 0.000000000000000000 ) ) ;
#177 = EDGE_CURVE ( 'NONE', #13, #14, #161, .T. ) ;
#178 = PRESENTATION_LAYER_ASSIGNMENT (  '', '', ( #149 ) ) ;
#179 = CARTESIAN_POINT ( 'NONE',  ( 0.000000000000000000, 1.000000000000000000, 0.000000000000000000 ) ) ;
#180 = AXIS2_PLACEMENT_3D ( 'NONE', #176, #74, #182 ) ;
#181 = LINE ( 'NONE', #352, #90 ) ;
#182 = DIRECTION ( 'NONE',  ( -1.000000000000000000, 0.000000000000000000, 0.000000000000000000 ) ) ;
#183 = UNCERTAINTY_MEASURE_WITH_UNIT (LENGTH_MEASURE( 1.000000000000000082E-05 ), #87, 'distance_accuracy_value', 'NONE');
#184 = FACE_OUTER_BOUND ( 'NONE', #302, .T. ) ;
#185 = AXIS2_PLACEMENT_3D ( 'NONE', #123, #330, #156 ) ;
#186 = CARTESIAN_POINT ( 'NONE',  ( -1.469576158976823750E-15, 75.00000000000000000, 0.000000000000000000 ) ) ;
#187 = ORIENTED_EDGE ( 'NONE', *, *, #299, .T. ) ;
#188 = APPLICATION_PROTOCOL_DEFINITION ( 'draft international standard', 'automotive_design', 1998, #230 ) ;
#189 = FACE_OUTER_BOUND ( 'NONE', #273, .T. ) ;
#190 = SURFACE_STYLE_FILL_AREA ( #80 ) ;
#191 = CYLINDRICAL_SURFACE ( 'NONE', #349, 6.000000000000000000 ) ;
#192 = ADVANCED_FACE ( 'NONE', ( #252 ), #354, .T. ) ;
#193 = VERTEX_POINT ( 'NONE', #81 ) ;
#194 = DIRECTION ( 'NONE',  ( 1.000000000000000000, 0.000000000000000000, 0.000000000000000000 ) ) ;
#195 = CARTESIAN_POINT ( 'NONE',  ( 0.000000000000000000, 1.000000000000000000, 0.000000000000000000 ) ) ;
#196 = CIRCLE ( 'NONE', #30, 6.000000000000000000 ) ;
#197 = COLOUR_RGB ( '',1.000000000000000000, 0.000000000000000000, 0.000000000000000000 ) ;
#198 = CYLINDRICAL_SURFACE ( 'NONE', #172, 5.999999999999998224 ) ;
#199 = SURFACE_STYLE_USAGE ( .BOTH. , #314 ) ;
#200 = FACE_OUTER_BOUND ( 'NONE', #10, .T. ) ;
#201 = FILL_AREA_STYLE_COLOUR ( '', #296 ) ;
#202 = ADVANCED_BREP_SHAPE_REPRESENTATION ( '59749', ( #262, #15, #350 ), #338 ) ;
#203 = PRESENTATION_LAYER_ASSIGNMENT (  '', '', ( #164 ) ) ;
#204 = DIRECTION ( 'NONE',  ( -1.223542297630008506E-16, 1.000000000000000000, -0.000000000000000000 ) ) ;
#205 = ADVANCED_FACE ( 'NONE', ( #85 ), #191, .T. ) ;
#206 = STYLED_ITEM ( 'NONE', ( #240 ), #205 ) ;
#207 = CARTESIAN_POINT ( 'NONE',  ( 0.000000000000000000, 24.00000000000000000, 0.000000000000000000 ) ) ;
#208 = DIRECTION ( 'NONE',  ( 0.000000000000000000, 0.000000000000000000, -1.000000000000000000 ) ) ;
#209 = PRODUCT_RELATED_PRODUCT_CATEGORY ( 'part', '', ( #136 ) ) ;
#210 = CARTESIAN_POINT ( 'NONE',  ( 7.347880794884119736E-16, 24.00000000000000000, 6.000000000000000000 ) ) ;
#211 = COLOUR_RGB ( '',1.000000000000000000, 0.000000000000000000, 0.000000000000000000 ) ;
#212 = UNCERTAINTY_MEASURE_WITH_UNIT (LENGTH_MEASURE( 1.000000000000000082E-05 ), #175, 'distance_accuracy_value', 'NONE');
#213 = DIRECTION ( 'NONE',  ( -1.224646799147352468E-16, 0.000000000000000000, -1.000000000000000000 ) ) ;
#214 = ORIENTED_EDGE ( 'NONE', *, *, #219, .F. ) ;
#215 = ORIENTED_EDGE ( 'NONE', *, *, #89, .F. ) ;
#216 = SURFACE_SIDE_STYLE ('',( #224 ) ) ;
#217 = STYLED_ITEM ( 'NONE', ( #340 ), #262 ) ;
#218 = ORIENTED_EDGE ( 'NONE', *, *, #362, .T. ) ;
#219 = EDGE_CURVE ( 'NONE', #1, #353, #263, .T. ) ;
#220 = PRODUCT_CONTEXT ( 'NONE', #12, 'mechanical' ) ;
#221 = PLANE ( 'NONE',  #255 ) ;
#222 = EDGE_LOOP ( 'NONE', ( #69, #363, #346, #41 ) ) ;
#223 = ORIENTED_EDGE ( 'NONE', *, *, #100, .T. ) ;
#224 = SURFACE_STYLE_FILL_AREA ( #159 ) ;
#225 = CIRCLE ( 'NONE', #369, 6.000000000000000000 ) ;
#226 = STYLED_ITEM ( 'NONE', ( #98 ), #313 ) ;
#227 = APPLICATION_PROTOCOL_DEFINITION ( 'draft international standard', 'automotive_design', 1998, #12 ) ;
#228 = DIRECTION ( 'NONE',  ( -0.000000000000000000, -1.000000000000000000, -0.000000000000000000 ) ) ;
#229 = FACE_OUTER_BOUND ( 'NONE', #66, .T. ) ;
#230 = APPLICATION_CONTEXT ( 'automotive_design' ) ;
#231 = DIRECTION ( 'NONE',  ( 0.000000000000000000, 0.000000000000000000, -1.000000000000000000 ) ) ;
#232 = DIRECTION ( 'NONE',  ( 1.000000000000000000, 1.223542297630008506E-16, 0.000000000000000000 ) ) ;
#233 = STYLED_ITEM ( 'NONE', ( #47 ), #15 ) ;
#234 = SURFACE_SIDE_STYLE ('',( #170 ) ) ;
#235 = MECHANICAL_DESIGN_GEOMETRIC_PRESENTATION_REPRESENTATION (  '', ( #217 ), #64 ) ;
#236 = CARTESIAN_POINT ( 'NONE',  ( -6.000000000000000000, 75.00000000000000000, 0.000000000000000000 ) ) ;
#237 = UNCERTAINTY_MEASURE_WITH_UNIT (LENGTH_MEASURE( 1.000000000000000082E-05 ), #288, 'distance_accuracy_value', 'NONE');
#238 =( NAMED_UNIT ( * ) SI_UNIT ( $, .STERADIAN. ) SOLID_ANGLE_UNIT ( ) );
#239 = ORIENTED_EDGE ( 'NONE', *, *, #245, .F. ) ;
#240 = PRESENTATION_STYLE_ASSIGNMENT (( #325 ) ) ;
#241 = VECTOR ( 'NONE', #92, 1000.000000000000000 ) ;
#242 = FILL_AREA_STYLE ('',( #248 ) ) ;
#243 = AXIS2_PLACEMENT_3D ( 'NONE', #84, #148, #3 ) ;
#244 =( LENGTH_UNIT ( ) NAMED_UNIT ( * ) SI_UNIT ( .MILLI., .METRE. ) );
#245 = EDGE_CURVE ( 'NONE', #33, #134, #196, .T. ) ;
#246 = DIRECTION ( 'NONE',  ( -1.223542297630008506E-16, 1.000000000000000000, -0.000000000000000000 ) ) ;
#247 = PRODUCT_DEFINITION ( 'UNKNOWN', '', #173, #38 ) ;
#248 = FILL_AREA_STYLE_COLOUR ( '', #197 ) ;
#249 = ORIENTED_EDGE ( 'NONE', *, *, #299, .F. ) ;
#250 = DIRECTION ( 'NONE',  ( 0.000000000000000000, 0.000000000000000000, 1.000000000000000000 ) ) ;
#251 = COLOUR_RGB ( '',1.000000000000000000, 0.000000000000000000, 0.000000000000000000 ) ;
#252 = FACE_OUTER_BOUND ( 'NONE', #157, .T. ) ;
#253 = DIRECTION ( 'NONE',  ( -1.223542297630008506E-16, 1.000000000000000000, -0.000000000000000000 ) ) ;
#254 =( NAMED_UNIT ( * ) PLANE_ANGLE_UNIT ( ) SI_UNIT ( $, .RADIAN. ) );
#255 = AXIS2_PLACEMENT_3D ( 'NONE', #112, #333, #364 ) ;
#256 = FACE_OUTER_BOUND ( 'NONE', #276, .T. ) ;
#257 = DIRECTION ( 'NONE',  ( -1.000000000000000000, 0.000000000000000000, 0.000000000000000000 ) ) ;
#258 = FACE_OUTER_BOUND ( 'NONE', #153, .T. ) ;
#259 = CARTESIAN_POINT ( 'NONE',  ( 0.000000000000000000, 24.00000000000000000, -6.000000000000000000 ) ) ;
#260 = SURFACE_STYLE_USAGE ( .BOTH. , #115 ) ;
#261 = VECTOR ( 'NONE', #204, 1000.000000000000000 ) ;
#262 = MANIFOLD_SOLID_BREP ( 'Revolve - Cutting Edge', #162 ) ;
#263 = LINE ( 'NONE', #236, #261 ) ;
#264 = UNCERTAINTY_MEASURE_WITH_UNIT (LENGTH_MEASURE( 1.000000000000000082E-05 ), #244, 'distance_accuracy_value', 'NONE');
#265 = DIRECTION ( 'NONE',  ( -0.000000000000000000, -1.000000000000000000, -0.000000000000000000 ) ) ;
#266 = CARTESIAN_POINT ( 'NONE',  ( 0.000000000000000000, 1.000000000000000000, 0.000000000000000000 ) ) ;
#267 = STYLED_ITEM ( 'NONE', ( #365 ), #17 ) ;
#268 = ADVANCED_FACE ( 'NONE', ( #256 ), #303, .T. ) ;
#269 =( GEOMETRIC_REPRESENTATION_CONTEXT ( 3 ) GLOBAL_UNCERTAINTY_ASSIGNED_CONTEXT ( ( #264 ) ) GLOBAL_UNIT_ASSIGNED_CONTEXT ( ( #244, #126, #154 ) ) REPRESENTATION_CONTEXT ( 'NONE', 'WORKASPACE' ) );
#270 = CYLINDRICAL_SURFACE ( 'NONE', #281, 5.999999999999998224 ) ;
#271 = UNCERTAINTY_MEASURE_WITH_UNIT (LENGTH_MEASURE( 1.000000000000000082E-05 ), #21, 'distance_accuracy_value', 'NONE');
#272 = DIRECTION ( 'NONE',  ( -0.000000000000000000, -1.000000000000000000, -0.000000000000000000 ) ) ;
#273 = EDGE_LOOP ( 'NONE', ( #239, #52 ) ) ;
#274 = AXIS2_PLACEMENT_3D ( 'NONE', #61, #114, #257 ) ;
#275 = DIRECTION ( 'NONE',  ( 0.000000000000000000, 0.000000000000000000, -1.000000000000000000 ) ) ;
#276 = EDGE_LOOP ( 'NONE', ( #293, #132, #45, #110 ) ) ;
#277 = FILL_AREA_STYLE_COLOUR ( '', #18 ) ;
#278 = ADVANCED_FACE ( 'NONE', ( #258 ), #270, .T. ) ;
#279 = CARTESIAN_POINT ( 'NONE',  ( 0.000000000000000000, 0.000000000000000000, 0.000000000000000000 ) ) ;
#280 = SURFACE_STYLE_USAGE ( .BOTH. , #216 ) ;
#281 = AXIS2_PLACEMENT_3D ( 'NONE', #5, #2, #327 ) ;
#282 = SURFACE_SIDE_STYLE ('',( #309 ) ) ;
#283 = SURFACE_STYLE_USAGE ( .BOTH. , #234 ) ;
#284 = DIRECTION ( 'NONE',  ( -0.000000000000000000, -1.000000000000000000, -0.000000000000000000 ) ) ;
#285 = CARTESIAN_POINT ( 'NONE',  ( 0.000000000000000000, 0.000000000000000000, 0.000000000000000000 ) ) ;
#286 =( NAMED_UNIT ( * ) SI_UNIT ( $, .STERADIAN. ) SOLID_ANGLE_UNIT ( ) );
#287 = AXIS2_PLACEMENT_3D ( 'NONE', #8, #351, #39 ) ;
#288 =( LENGTH_UNIT ( ) NAMED_UNIT ( * ) SI_UNIT ( .MILLI., .METRE. ) );
#289 = DIRECTION ( 'NONE',  ( -0.000000000000000000, -1.000000000000000000, -0.000000000000000000 ) ) ;
#290 = DIRECTION ( 'NONE',  ( 1.223542297630008506E-16, -1.000000000000000000, 0.000000000000000000 ) ) ;
#291 = MECHANICAL_DESIGN_GEOMETRIC_PRESENTATION_REPRESENTATION (  '', ( #267 ), #70 ) ;
#292 = PRESENTATION_LAYER_ASSIGNMENT (  '', '', ( #217 ) ) ;
#293 = ORIENTED_EDGE ( 'NONE', *, *, #319, .F. ) ;
#294 = SURFACE_STYLE_FILL_AREA ( #63 ) ;
#295 = DIRECTION ( 'NONE',  ( 0.000000000000000000, 0.000000000000000000, -1.000000000000000000 ) ) ;
#296 = COLOUR_RGB ( '',1.000000000000000000, 0.000000000000000000, 0.000000000000000000 ) ;
#297 = ORIENTED_EDGE ( 'NONE', *, *, #245, .T. ) ;
#298 = CARTESIAN_POINT ( 'NONE',  ( 6.123233995736766282E-16, 1.000000000000000000, 5.000000000000000000 ) ) ;
#299 = EDGE_CURVE ( 'NONE', #134, #82, #181, .T. ) ;
#300 = ORIENTED_EDGE ( 'NONE', *, *, #166, .F. ) ;
#301 = DIRECTION ( 'NONE',  ( -0.000000000000000000, -1.000000000000000000, -0.000000000000000000 ) ) ;
#302 = EDGE_LOOP ( 'NONE', ( #223, #106 ) ) ;
#303 = TOROIDAL_SURFACE ( 'NONE', #97, 5.000000000000000000, 0.9999999999999995559 ) ;
#304 = DIRECTION ( 'NONE',  ( -1.223542297630008506E-16, 1.000000000000000000, -0.000000000000000000 ) ) ;
#305 = VERTEX_POINT ( 'NONE', #151 ) ;
#306 =( LENGTH_UNIT ( ) NAMED_UNIT ( * ) SI_UNIT ( .MILLI., .METRE. ) );
#307 = SURFACE_STYLE_USAGE ( .BOTH. , #105 ) ;
#308 = SHAPE_DEFINITION_REPRESENTATION ( #145, #202 ) ;
#309 = SURFACE_STYLE_FILL_AREA ( #167 ) ;
#310 = ORIENTED_EDGE ( 'NONE', *, *, #360, .T. ) ;
#311 = AXIS2_PLACEMENT_3D ( 'NONE', #104, #99, #6 ) ;
#312 = CARTESIAN_POINT ( 'NONE',  ( -1.469576158976823750E-15, 75.00000000000000000, 0.000000000000000000 ) ) ;
#313 = ADVANCED_FACE ( 'NONE', ( #326 ), #345, .T. ) ;
#314 = SURFACE_SIDE_STYLE ('',( #23 ) ) ;
#315 = CARTESIAN_POINT ( 'NONE',  ( 6.000000000000000000, 75.00000000000000000, 0.000000000000000000 ) ) ;
#316 = PRESENTATION_STYLE_ASSIGNMENT (( #280 ) ) ;
#317 = MECHANICAL_DESIGN_GEOMETRIC_PRESENTATION_REPRESENTATION (  '', ( #233 ), #332 ) ;
#318 = MECHANICAL_DESIGN_GEOMETRIC_PRESENTATION_REPRESENTATION (  '', ( #76 ), #155 ) ;
#319 = EDGE_CURVE ( 'NONE', #82, #305, #117, .T. ) ;
#320 = DIRECTION ( 'NONE',  ( -0.000000000000000000, -1.000000000000000000, -0.000000000000000000 ) ) ;
#321 = LINE ( 'NONE', #142, #241 ) ;
#322 = UNCERTAINTY_MEASURE_WITH_UNIT (LENGTH_MEASURE( 1.000000000000000082E-05 ), #306, 'distance_accuracy_value', 'NONE');
#323 = FILL_AREA_STYLE_COLOUR ( '', #211 ) ;
#324 = COLOUR_RGB ( '',1.000000000000000000, 0.000000000000000000, 0.000000000000000000 ) ;
#325 = SURFACE_STYLE_USAGE ( .BOTH. , #282 ) ;
#326 = FACE_OUTER_BOUND ( 'NONE', #222, .T. ) ;
#327 = DIRECTION ( 'NONE',  ( -1.000000000000000000, 0.000000000000000000, 0.000000000000000000 ) ) ;
#328 = PRESENTATION_LAYER_ASSIGNMENT (  '', '', ( #76 ) ) ;
#329 = AXIS2_PLACEMENT_3D ( 'NONE', #179, #272, #208 ) ;
#330 = DIRECTION ( 'NONE',  ( -0.000000000000000000, -1.000000000000000000, -0.000000000000000000 ) ) ;
#331 = ORIENTED_EDGE ( 'NONE', *, *, #219, .T. ) ;
#332 =( GEOMETRIC_REPRESENTATION_CONTEXT ( 3 ) GLOBAL_UNCERTAINTY_ASSIGNED_CONTEXT ( ( #68 ) ) GLOBAL_UNIT_ASSIGNED_CONTEXT ( ( #19, #359, #22 ) ) REPRESENTATION_CONTEXT ( 'NONE', 'WORKASPACE' ) );
#333 = DIRECTION ( 'NONE',  ( 0.000000000000000000, 1.000000000000000000, 0.000000000000000000 ) ) ;
#334 = ORIENTED_EDGE ( 'NONE', *, *, #177, .T. ) ;
#335 = ORIENTED_EDGE ( 'NONE', *, *, #102, .T. ) ;
#336 = FACE_OUTER_BOUND ( 'NONE', #113, .T. ) ;
#337 = COLOUR_RGB ( '',0.7921568627450980005, 0.8196078431372548767, 0.9333333333333333481 ) ;
#338 =( GEOMETRIC_REPRESENTATION_CONTEXT ( 3 ) GLOBAL_UNCERTAINTY_ASSIGNED_CONTEXT ( ( #65 ) ) GLOBAL_UNIT_ASSIGNED_CONTEXT ( ( #42, #36, #11 ) ) REPRESENTATION_CONTEXT ( 'NONE', 'WORKASPACE' ) );
#339 = DIRECTION ( 'NONE',  ( 0.000000000000000000, -1.000000000000000000, -0.000000000000000000 ) ) ;
#340 = PRESENTATION_STYLE_ASSIGNMENT (( #342 ) ) ;
#341 =( NAMED_UNIT ( * ) PLANE_ANGLE_UNIT ( ) SI_UNIT ( $, .RADIAN. ) );
#342 = SURFACE_STYLE_USAGE ( .BOTH. , #94 ) ;
#343 = SURFACE_STYLE_FILL_AREA ( #174 ) ;
#344 = CIRCLE ( 'NONE', #144, 6.000000000000000000 ) ;
#345 = TOROIDAL_SURFACE ( 'NONE', #329, 5.000000000000000000, 0.9999999999999995559 ) ;
#346 = ORIENTED_EDGE ( 'NONE', *, *, #100, .F. ) ;
#347 = SURFACE_STYLE_USAGE ( .BOTH. , #152 ) ;
#348 = EDGE_CURVE ( 'NONE', #72, #193, #357, .T. ) ;
#349 = AXIS2_PLACEMENT_3D ( 'NONE', #169, #60, #143 ) ;
#350 = AXIS2_PLACEMENT_3D ( 'NONE', #49, #250, #194 ) ;
#351 = DIRECTION ( 'NONE',  ( -1.000000000000000000, 0.000000000000000000, 0.000000000000000000 ) ) ;
#352 = CARTESIAN_POINT ( 'NONE',  ( 7.347880794884119736E-16, 0.000000000000000000, 6.000000000000000000 ) ) ;
#353 = VERTEX_POINT ( 'NONE', #67 ) ;
#354 = CYLINDRICAL_SURFACE ( 'NONE', #356, 6.000000000000000000 ) ;
#355 = CARTESIAN_POINT ( 'NONE',  ( 6.000000000000000000, 75.00000000000000000, 7.347880794884119736E-16 ) ) ;
#356 = AXIS2_PLACEMENT_3D ( 'NONE', #279, #107, #129 ) ;
#357 = CIRCLE ( 'NONE', #287, 1.000000000000000000 ) ;
#358 = FILL_AREA_STYLE ('',( #133 ) ) ;
#359 =( NAMED_UNIT ( * ) PLANE_ANGLE_UNIT ( ) SI_UNIT ( $, .RADIAN. ) );
#360 = EDGE_CURVE ( 'NONE', #13, #1, #131, .T. ) ;
#361 = PRESENTATION_STYLE_ASSIGNMENT (( #199 ) ) ;
#362 = EDGE_CURVE ( 'NONE', #134, #33, #120, .T. ) ;
#363 = ORIENTED_EDGE ( 'NONE', *, *, #319, .T. ) ;
#364 = DIRECTION ( 'NONE',  ( 0.000000000000000000, -0.000000000000000000, 1.000000000000000000 ) ) ;
#365 = PRESENTATION_STYLE_ASSIGNMENT (( #283 ) ) ;
#366 =( NAMED_UNIT ( * ) SI_UNIT ( $, .STERADIAN. ) SOLID_ANGLE_UNIT ( ) );
#367 = PRESENTATION_LAYER_ASSIGNMENT (  '', '', ( #267 ) ) ;
#368 =( NAMED_UNIT ( * ) PLANE_ANGLE_UNIT ( ) SI_UNIT ( $, .RADIAN. ) );
#369 = AXIS2_PLACEMENT_3D ( 'NONE', #266, #24, #140 ) ;
#370 = ORIENTED_EDGE ( 'NONE', *, *, #29, .F. ) ;
ENDSEC;
END-ISO-10303-21;
