ISO-10303-21;
HEADER;
FILE_DESCRIPTION (( 'STEP AP214' ),
    '1' );
FILE_NAME ('59503.STEP',
    '2023-07-24T15:08:08',
    ( '' ),
    ( '' ),
    'SwSTEP 2.0',
    'SolidWorks 2023',
    '' );
FILE_SCHEMA (( 'AUTOMOTIVE_DESIGN' ));
ENDSEC;

DATA;
#1 = VERTEX_POINT ( 'NONE', #153 ) ;
#2 = FILL_AREA_STYLE_COLOUR ( '', #267 ) ;
#3 = CIRCLE ( 'NONE', #266, 8.000000000000001776 ) ;
#4 = VERTEX_POINT ( 'NONE', #123 ) ;
#5 = EDGE_CURVE ( 'NONE', #81, #170, #150, .T. ) ;
#6 = ORIENTED_EDGE ( 'NONE', *, *, #32, .T. ) ;
#7 = ORIENTED_EDGE ( 'NONE', *, *, #325, .T. ) ;
#8 = EDGE_LOOP ( 'NONE', ( #54, #64 ) ) ;
#9 = AXIS2_PLACEMENT_3D ( 'NONE', #160, #273, #10 ) ;
#10 = DIRECTION ( 'NONE',  ( -1.000000000000000000, -1.279215233315390572E-16, 0.000000000000000000 ) ) ;
#11 = CARTESIAN_POINT ( 'NONE',  ( 9.797174393178825657E-16, 0.000000000000000000, 8.000000000000000000 ) ) ;
#12 = ADVANCED_BREP_SHAPE_REPRESENTATION ( '59503', ( #145, #152, #301 ), #65 ) ;
#13 = LINE ( 'NONE', #96, #354 ) ;
#14 = SURFACE_STYLE_USAGE ( .BOTH. , #211 ) ;
#15 = PRESENTATION_LAYER_ASSIGNMENT (  '', '', ( #71 ) ) ;
#16 = AXIS2_PLACEMENT_3D ( 'NONE', #221, #102, #138 ) ;
#17 =( LENGTH_UNIT ( ) NAMED_UNIT ( * ) SI_UNIT ( .MILLI., .METRE. ) );
#18 = CARTESIAN_POINT ( 'NONE',  ( 4.553649124439119412E-15, 40.00000000000000000, 0.000000000000000000 ) ) ;
#19 = DIRECTION ( 'NONE',  ( -1.000000000000000000, 0.000000000000000000, 0.000000000000000000 ) ) ;
#20 = DIRECTION ( 'NONE',  ( -1.279215233315390572E-16, 1.000000000000000000, -0.000000000000000000 ) ) ;
#21 = ORIENTED_EDGE ( 'NONE', *, *, #362, .T. ) ;
#22 = CARTESIAN_POINT ( 'NONE',  ( 9.491012693391985815E-16, 0.000000000000000000, 7.500000000000000000 ) ) ;
#23 = STYLED_ITEM ( 'NONE', ( #111 ), #152 ) ;
#24 =( GEOMETRIC_REPRESENTATION_CONTEXT ( 3 ) GLOBAL_UNCERTAINTY_ASSIGNED_CONTEXT ( ( #341 ) ) GLOBAL_UNIT_ASSIGNED_CONTEXT ( ( #243, #202, #240 ) ) REPRESENTATION_CONTEXT ( 'NONE', 'WORKASPACE' ) );
#25 = FILL_AREA_STYLE_COLOUR ( '', #230 ) ;
#26 = FILL_AREA_STYLE ('',( #309 ) ) ;
#27 = CIRCLE ( 'NONE', #294, 0.5000000000000004441 ) ;
#28 = DIRECTION ( 'NONE',  ( 0.000000000000000000, 0.000000000000000000, -1.000000000000000000 ) ) ;
#29 = ORIENTED_EDGE ( 'NONE', *, *, #340, .F. ) ;
#30 = DIRECTION ( 'NONE',  ( -0.000000000000000000, -1.000000000000000000, -0.000000000000000000 ) ) ;
#31 = EDGE_LOOP ( 'NONE', ( #351, #21, #287, #29 ) ) ;
#32 = EDGE_CURVE ( 'NONE', #95, #259, #62, .T. ) ;
#33 = CARTESIAN_POINT ( 'NONE',  ( 0.000000000000000000, 0.000000000000000000, 0.000000000000000000 ) ) ;
#34 = CLOSED_SHELL ( 'NONE', ( #311, #140, #124, #215 ) ) ;
#35 = EDGE_LOOP ( 'NONE', ( #7, #147, #139, #208 ) ) ;
#36 = DIRECTION ( 'NONE',  ( -1.279215233315390572E-16, 1.000000000000000000, -0.000000000000000000 ) ) ;
#37 = DIRECTION ( 'NONE',  ( -1.224646799147353454E-16, 0.000000000000000000, -1.000000000000000000 ) ) ;
#38 = CARTESIAN_POINT ( 'NONE',  ( 0.000000000000000000, 40.00000000000000000, 0.000000000000000000 ) ) ;
#39 = CARTESIAN_POINT ( 'NONE',  ( 4.553649124439119412E-15, 40.00000000000000000, 0.000000000000000000 ) ) ;
#40 = SURFACE_SIDE_STYLE ('',( #156 ) ) ;
#41 = APPLICATION_PROTOCOL_DEFINITION ( 'draft international standard', 'automotive_design', 1998, #197 ) ;
#42 = DIRECTION ( 'NONE',  ( 0.000000000000000000, 0.000000000000000000, -1.000000000000000000 ) ) ;
#43 = LINE ( 'NONE', #11, #329 ) ;
#44 = MECHANICAL_DESIGN_GEOMETRIC_PRESENTATION_REPRESENTATION (  '', ( #336 ), #353 ) ;
#45 = DIRECTION ( 'NONE',  ( -1.279215233315390572E-16, 1.000000000000000000, -0.000000000000000000 ) ) ;
#46 = CYLINDRICAL_SURFACE ( 'NONE', #114, 8.000000000000000000 ) ;
#47 = PRESENTATION_STYLE_ASSIGNMENT (( #75 ) ) ;
#48 = STYLED_ITEM ( 'NONE', ( #194 ), #145 ) ;
#49 = PRESENTATION_LAYER_ASSIGNMENT (  '', '', ( #167 ) ) ;
#50 =( NAMED_UNIT ( * ) SI_UNIT ( $, .STERADIAN. ) SOLID_ANGLE_UNIT ( ) );
#51 = EDGE_LOOP ( 'NONE', ( #6, #210 ) ) ;
#52 = VECTOR ( 'NONE', #36, 1000.000000000000000 ) ;
#53 = AXIS2_PLACEMENT_3D ( 'NONE', #255, #109, #223 ) ;
#54 = ORIENTED_EDGE ( 'NONE', *, *, #173, .F. ) ;
#55 = DIRECTION ( 'NONE',  ( -1.000000000000000000, 0.000000000000000000, 0.000000000000000000 ) ) ;
#56 =( GEOMETRIC_REPRESENTATION_CONTEXT ( 3 ) GLOBAL_UNCERTAINTY_ASSIGNED_CONTEXT ( ( #277 ) ) GLOBAL_UNIT_ASSIGNED_CONTEXT ( ( #284, #89, #130 ) ) REPRESENTATION_CONTEXT ( 'NONE', 'WORKASPACE' ) );
#57 = DIRECTION ( 'NONE',  ( -0.000000000000000000, -1.000000000000000000, -0.000000000000000000 ) ) ;
#58 = AXIS2_PLACEMENT_3D ( 'NONE', #218, #45, #214 ) ;
#59 = ORIENTED_EDGE ( 'NONE', *, *, #332, .T. ) ;
#60 = EDGE_CURVE ( 'NONE', #1, #170, #3, .T. ) ;
#61 = FACE_OUTER_BOUND ( 'NONE', #310, .T. ) ;
#62 = CIRCLE ( 'NONE', #229, 7.500000000000000000 ) ;
#63 = AXIS2_PLACEMENT_3D ( 'NONE', #190, #217, #19 ) ;
#64 = ORIENTED_EDGE ( 'NONE', *, *, #332, .F. ) ;
#65 =( GEOMETRIC_REPRESENTATION_CONTEXT ( 3 ) GLOBAL_UNCERTAINTY_ASSIGNED_CONTEXT ( ( #195 ) ) GLOBAL_UNIT_ASSIGNED_CONTEXT ( ( #333, #355, #242 ) ) REPRESENTATION_CONTEXT ( 'NONE', 'WORKASPACE' ) );
#66 = EDGE_CURVE ( 'NONE', #4, #285, #327, .T. ) ;
#67 = FILL_AREA_STYLE ('',( #108 ) ) ;
#68 =( NAMED_UNIT ( * ) PLANE_ANGLE_UNIT ( ) SI_UNIT ( $, .RADIAN. ) );
#69 = APPLICATION_CONTEXT ( 'automotive_design' ) ;
#70 = DIRECTION ( 'NONE',  ( 0.000000000000000000, -0.000000000000000000, 1.000000000000000000 ) ) ;
#71 = STYLED_ITEM ( 'NONE', ( #295 ), #135 ) ;
#72 = TOROIDAL_SURFACE ( 'NONE', #85, 7.500000000000000000, 0.5000000000000002220 ) ;
#73 = CARTESIAN_POINT ( 'NONE',  ( 0.000000000000000000, 0.5000000000000000000, -7.500000000000000000 ) ) ;
#74 = ORIENTED_EDGE ( 'NONE', *, *, #256, .F. ) ;
#75 = SURFACE_STYLE_USAGE ( .BOTH. , #270 ) ;
#76 = DIRECTION ( 'NONE',  ( -0.000000000000000000, -1.000000000000000000, -0.000000000000000000 ) ) ;
#77 =( NAMED_UNIT ( * ) PLANE_ANGLE_UNIT ( ) SI_UNIT ( $, .RADIAN. ) );
#78 = AXIS2_PLACEMENT_3D ( 'NONE', #128, #237, #228 ) ;
#79 = AXIS2_PLACEMENT_3D ( 'NONE', #299, #293, #70 ) ;
#80 =( LENGTH_UNIT ( ) NAMED_UNIT ( * ) SI_UNIT ( .MILLI., .METRE. ) );
#81 = VERTEX_POINT ( 'NONE', #352 ) ;
#82 = PRODUCT_RELATED_PRODUCT_CATEGORY ( 'part', '', ( #358 ) ) ;
#83 =( NAMED_UNIT ( * ) SI_UNIT ( $, .STERADIAN. ) SOLID_ANGLE_UNIT ( ) );
#84 = PRESENTATION_LAYER_ASSIGNMENT (  '', '', ( #48 ) ) ;
#85 = AXIS2_PLACEMENT_3D ( 'NONE', #331, #76, #339 ) ;
#86 = FILL_AREA_STYLE ('',( #2 ) ) ;
#87 = FACE_OUTER_BOUND ( 'NONE', #51, .T. ) ;
#88 = CARTESIAN_POINT ( 'NONE',  ( 0.000000000000000000, 0.5000000000000000000, 0.000000000000000000 ) ) ;
#89 =( NAMED_UNIT ( * ) PLANE_ANGLE_UNIT ( ) SI_UNIT ( $, .RADIAN. ) );
#90 = CARTESIAN_POINT ( 'NONE',  ( 7.999999999999996447, 89.00000000000000000, 9.797174393178823685E-16 ) ) ;
#91 = MECHANICAL_DESIGN_GEOMETRIC_PRESENTATION_REPRESENTATION (  '', ( #347 ), #56 ) ;
#92 = EDGE_LOOP ( 'NONE', ( #203, #232 ) ) ;
#93 = ORIENTED_EDGE ( 'NONE', *, *, #260, .T. ) ;
#94 = DIRECTION ( 'NONE',  ( 0.000000000000000000, 0.000000000000000000, 1.000000000000000000 ) ) ;
#95 = VERTEX_POINT ( 'NONE', #177 ) ;
#96 = CARTESIAN_POINT ( 'NONE',  ( 0.000000000000000000, 0.000000000000000000, -8.000000000000000000 ) ) ;
#97 = PRODUCT_DEFINITION ( 'UNKNOWN', '', #155, #306 ) ;
#98 =( GEOMETRIC_REPRESENTATION_CONTEXT ( 3 ) GLOBAL_UNCERTAINTY_ASSIGNED_CONTEXT ( ( #198 ) ) GLOBAL_UNIT_ASSIGNED_CONTEXT ( ( #278, #77, #50 ) ) REPRESENTATION_CONTEXT ( 'NONE', 'WORKASPACE' ) );
#99 = MECHANICAL_DESIGN_GEOMETRIC_PRESENTATION_REPRESENTATION (  '', ( #167 ), #245 ) ;
#100 = DIRECTION ( 'NONE',  ( -0.000000000000000000, -1.000000000000000000, -0.000000000000000000 ) ) ;
#101 = CARTESIAN_POINT ( 'NONE',  ( 9.797174393178825657E-16, 0.5000000000000000000, 8.000000000000000000 ) ) ;
#102 = DIRECTION ( 'NONE',  ( -0.000000000000000000, -1.000000000000000000, -0.000000000000000000 ) ) ;
#103 = CARTESIAN_POINT ( 'NONE',  ( 0.000000000000000000, 0.000000000000000000, 0.000000000000000000 ) ) ;
#104 = CYLINDRICAL_SURFACE ( 'NONE', #58, 7.999999999999998224 ) ;
#105 = ORIENTED_EDGE ( 'NONE', *, *, #340, .T. ) ;
#106 = AXIS2_PLACEMENT_3D ( 'NONE', #261, #291, #37 ) ;
#107 = EDGE_CURVE ( 'NONE', #285, #259, #178, .T. ) ;
#108 = FILL_AREA_STYLE_COLOUR ( '', #120 ) ;
#109 = DIRECTION ( 'NONE',  ( -0.000000000000000000, -1.000000000000000000, -0.000000000000000000 ) ) ;
#110 =( NAMED_UNIT ( * ) SI_UNIT ( $, .STERADIAN. ) SOLID_ANGLE_UNIT ( ) );
#111 = PRESENTATION_STYLE_ASSIGNMENT (( #169 ) ) ;
#112 =( NAMED_UNIT ( * ) SI_UNIT ( $, .STERADIAN. ) SOLID_ANGLE_UNIT ( ) );
#113 = AXIS2_PLACEMENT_3D ( 'NONE', #337, #154, #42 ) ;
#114 = AXIS2_PLACEMENT_3D ( 'NONE', #33, #316, #227 ) ;
#115 = AXIS2_PLACEMENT_3D ( 'NONE', #18, #239, #296 ) ;
#116 =( NAMED_UNIT ( * ) PLANE_ANGLE_UNIT ( ) SI_UNIT ( $, .RADIAN. ) );
#117 = DIRECTION ( 'NONE',  ( 0.000000000000000000, 0.000000000000000000, -1.000000000000000000 ) ) ;
#118 = ORIENTED_EDGE ( 'NONE', *, *, #188, .T. ) ;
#119 = CYLINDRICAL_SURFACE ( 'NONE', #78, 7.999999999999998224 ) ;
#120 = COLOUR_RGB ( '',1.000000000000000000, 0.000000000000000000, 0.000000000000000000 ) ;
#121 = ORIENTED_EDGE ( 'NONE', *, *, #350, .T. ) ;
#122 = SURFACE_SIDE_STYLE ('',( #149 ) ) ;
#123 = CARTESIAN_POINT ( 'NONE',  ( 0.000000000000000000, 0.5000000000000000000, -8.000000000000000000 ) ) ;
#124 = ADVANCED_FACE ( 'NONE', ( #61 ), #119, .T. ) ;
#125 = DIRECTION ( 'NONE',  ( -1.279215233315390572E-16, 1.000000000000000000, -0.000000000000000000 ) ) ;
#126 = MECHANICAL_DESIGN_GEOMETRIC_PRESENTATION_REPRESENTATION (  '', ( #71 ), #171 ) ;
#127 = AXIS2_PLACEMENT_3D ( 'NONE', #142, #258, #117 ) ;
#128 = CARTESIAN_POINT ( 'NONE',  ( -1.714505518806293849E-15, 89.00000000000000000, 0.000000000000000000 ) ) ;
#129 = DIRECTION ( 'NONE',  ( -0.000000000000000000, -1.000000000000000000, -0.000000000000000000 ) ) ;
#130 =( NAMED_UNIT ( * ) SI_UNIT ( $, .STERADIAN. ) SOLID_ANGLE_UNIT ( ) );
#131 = PRESENTATION_STYLE_ASSIGNMENT (( #14 ) ) ;
#132 = MECHANICAL_DESIGN_GEOMETRIC_PRESENTATION_REPRESENTATION (  '', ( #172 ), #161 ) ;
#133 = DIRECTION ( 'NONE',  ( 1.000000000000000000, 0.000000000000000000, 0.000000000000000000 ) ) ;
#134 = DIRECTION ( 'NONE',  ( -0.000000000000000000, -1.000000000000000000, -0.000000000000000000 ) ) ;
#135 = ADVANCED_FACE ( 'NONE', ( #87 ), #209, .T. ) ;
#136 = FACE_OUTER_BOUND ( 'NONE', #8, .T. ) ;
#137 = AXIS2_PLACEMENT_3D ( 'NONE', #345, #151, #328 ) ;
#138 = DIRECTION ( 'NONE',  ( 0.000000000000000000, 0.000000000000000000, -1.000000000000000000 ) ) ;
#139 = ORIENTED_EDGE ( 'NONE', *, *, #60, .F. ) ;
#140 = ADVANCED_FACE ( 'NONE', ( #302 ), #268, .F. ) ;
#141 = TOROIDAL_SURFACE ( 'NONE', #250, 7.500000000000000000, 0.5000000000000002220 ) ;
#142 = CARTESIAN_POINT ( 'NONE',  ( 0.000000000000000000, 0.5000000000000000000, 0.000000000000000000 ) ) ;
#143 = ORIENTED_EDGE ( 'NONE', *, *, #107, .F. ) ;
#144 = FILL_AREA_STYLE ('',( #286 ) ) ;
#145 = MANIFOLD_SOLID_BREP ( 'Revolve - Cutting Edge', #335 ) ;
#146 = EDGE_LOOP ( 'NONE', ( #196, #182 ) ) ;
#147 = ORIENTED_EDGE ( 'NONE', *, *, #5, .T. ) ;
#148 = MECHANICAL_DESIGN_GEOMETRIC_PRESENTATION_REPRESENTATION (  '', ( #23 ), #159 ) ;
#149 = SURFACE_STYLE_FILL_AREA ( #144 ) ;
#150 = LINE ( 'NONE', #90, #52 ) ;
#151 = DIRECTION ( 'NONE',  ( 1.279215233315390572E-16, -1.000000000000000000, 0.000000000000000000 ) ) ;
#152 = MANIFOLD_SOLID_BREP ( 'Revolve - Tool Body (Straight Shanked)', #34 ) ;
#153 = CARTESIAN_POINT ( 'NONE',  ( -8.000000000000003553, 89.00000000000000000, 0.000000000000000000 ) ) ;
#154 = DIRECTION ( 'NONE',  ( 0.000000000000000000, -1.000000000000000000, -0.000000000000000000 ) ) ;
#155 = PRODUCT_DEFINITION_FORMATION_WITH_SPECIFIED_SOURCE ( 'ANY', '', #358, .NOT_KNOWN. ) ;
#156 = SURFACE_STYLE_FILL_AREA ( #241 ) ;
#157 = DIRECTION ( 'NONE',  ( -0.000000000000000000, -1.000000000000000000, -0.000000000000000000 ) ) ;
#158 = SURFACE_STYLE_USAGE ( .BOTH. , #40 ) ;
#159 =( GEOMETRIC_REPRESENTATION_CONTEXT ( 3 ) GLOBAL_UNCERTAINTY_ASSIGNED_CONTEXT ( ( #192 ) ) GLOBAL_UNIT_ASSIGNED_CONTEXT ( ( #80, #116, #83 ) ) REPRESENTATION_CONTEXT ( 'NONE', 'WORKASPACE' ) );
#160 = CARTESIAN_POINT ( 'NONE',  ( 4.553649124439118623E-15, 40.00000000000000000, 0.000000000000000000 ) ) ;
#161 =( GEOMETRIC_REPRESENTATION_CONTEXT ( 3 ) GLOBAL_UNCERTAINTY_ASSIGNED_CONTEXT ( ( #365 ) ) GLOBAL_UNIT_ASSIGNED_CONTEXT ( ( #290, #357, #110 ) ) REPRESENTATION_CONTEXT ( 'NONE', 'WORKASPACE' ) );
#162 = CIRCLE ( 'NONE', #115, 7.999999999999994671 ) ;
#163 = DIRECTION ( 'NONE',  ( -1.000000000000000000, 0.000000000000000000, 0.000000000000000000 ) ) ;
#164 = LINE ( 'NONE', #275, #236 ) ;
#165 = FILL_AREA_STYLE_COLOUR ( '', #313 ) ;
#166 = COLOUR_RGB ( '',1.000000000000000000, 0.000000000000000000, 0.000000000000000000 ) ;
#167 = STYLED_ITEM ( 'NONE', ( #307 ), #322 ) ;
#168 =( NAMED_UNIT ( * ) SI_UNIT ( $, .STERADIAN. ) SOLID_ANGLE_UNIT ( ) );
#169 = SURFACE_STYLE_USAGE ( .BOTH. , #370 ) ;
#170 = VERTEX_POINT ( 'NONE', #367 ) ;
#171 =( GEOMETRIC_REPRESENTATION_CONTEXT ( 3 ) GLOBAL_UNCERTAINTY_ASSIGNED_CONTEXT ( ( #344 ) ) GLOBAL_UNIT_ASSIGNED_CONTEXT ( ( #17, #68, #187 ) ) REPRESENTATION_CONTEXT ( 'NONE', 'WORKASPACE' ) );
#172 = STYLED_ITEM ( 'NONE', ( #349 ), #244 ) ;
#173 = EDGE_CURVE ( 'NONE', #248, #207, #288, .T. ) ;
#174 = SURFACE_STYLE_USAGE ( .BOTH. , #200 ) ;
#175 = ORIENTED_EDGE ( 'NONE', *, *, #282, .F. ) ;
#176 = FACE_OUTER_BOUND ( 'NONE', #234, .T. ) ;
#177 = CARTESIAN_POINT ( 'NONE',  ( 0.000000000000000000, 0.000000000000000000, -7.500000000000000000 ) ) ;
#178 = CIRCLE ( 'NONE', #106, 0.5000000000000004441 ) ;
#179 = CIRCLE ( 'NONE', #63, 8.000000000000001776 ) ;
#180 = PRODUCT_DEFINITION_SHAPE ( 'NONE', 'NONE',  #97 ) ;
#181 = DIRECTION ( 'NONE',  ( 0.000000000000000000, 0.000000000000000000, -1.000000000000000000 ) ) ;
#182 = ORIENTED_EDGE ( 'NONE', *, *, #256, .T. ) ;
#183 = AXIS2_PLACEMENT_3D ( 'NONE', #38, #129, #238 ) ;
#184 = PRESENTATION_STYLE_ASSIGNMENT (( #174 ) ) ;
#185 = DIRECTION ( 'NONE',  ( -1.000000000000000000, 0.000000000000000000, 0.000000000000000000 ) ) ;
#186 = SURFACE_STYLE_FILL_AREA ( #67 ) ;
#187 =( NAMED_UNIT ( * ) SI_UNIT ( $, .STERADIAN. ) SOLID_ANGLE_UNIT ( ) );
#188 = EDGE_CURVE ( 'NONE', #285, #4, #271, .T. ) ;
#189 = MECHANICAL_DESIGN_GEOMETRIC_PRESENTATION_REPRESENTATION (  '', ( #368 ), #24 ) ;
#190 = CARTESIAN_POINT ( 'NONE',  ( -1.714505518806293652E-15, 89.00000000000000000, 0.000000000000000000 ) ) ;
#191 = SURFACE_SIDE_STYLE ('',( #364 ) ) ;
#192 = UNCERTAINTY_MEASURE_WITH_UNIT (LENGTH_MEASURE( 1.000000000000000082E-05 ), #80, 'distance_accuracy_value', 'NONE');
#193 = SURFACE_SIDE_STYLE ('',( #186 ) ) ;
#194 = PRESENTATION_STYLE_ASSIGNMENT (( #304 ) ) ;
#195 = UNCERTAINTY_MEASURE_WITH_UNIT (LENGTH_MEASURE( 1.000000000000000082E-05 ), #333, 'distance_accuracy_value', 'NONE');
#196 = ORIENTED_EDGE ( 'NONE', *, *, #60, .T. ) ;
#197 = APPLICATION_CONTEXT ( 'automotive_design' ) ;
#198 = UNCERTAINTY_MEASURE_WITH_UNIT (LENGTH_MEASURE( 1.000000000000000082E-05 ), #278, 'distance_accuracy_value', 'NONE');
#199 = ADVANCED_FACE ( 'NONE', ( #257 ), #46, .T. ) ;
#200 = SURFACE_SIDE_STYLE ('',( #204 ) ) ;
#201 = PRESENTATION_LAYER_ASSIGNMENT (  '', '', ( #336 ) ) ;
#202 =( NAMED_UNIT ( * ) PLANE_ANGLE_UNIT ( ) SI_UNIT ( $, .RADIAN. ) );
#203 = ORIENTED_EDGE ( 'NONE', *, *, #325, .F. ) ;
#204 = SURFACE_STYLE_FILL_AREA ( #249 ) ;
#205 = ORIENTED_EDGE ( 'NONE', *, *, #260, .F. ) ;
#206 = SURFACE_STYLE_FILL_AREA ( #86 ) ;
#207 = VERTEX_POINT ( 'NONE', #269 ) ;
#208 = ORIENTED_EDGE ( 'NONE', *, *, #318, .F. ) ;
#209 = PLANE ( 'NONE',  #113 ) ;
#210 = ORIENTED_EDGE ( 'NONE', *, *, #282, .T. ) ;
#211 = SURFACE_SIDE_STYLE ('',( #206 ) ) ;
#212 = PRESENTATION_LAYER_ASSIGNMENT (  '', '', ( #172 ) ) ;
#213 = PRODUCT_CONTEXT ( 'NONE', #69, 'mechanical' ) ;
#214 = DIRECTION ( 'NONE',  ( -1.000000000000000000, 0.000000000000000000, 0.000000000000000000 ) ) ;
#215 = ADVANCED_FACE ( 'NONE', ( #297 ), #263, .F. ) ;
#216 = PLANE ( 'NONE',  #79 ) ;
#217 = DIRECTION ( 'NONE',  ( -1.279215233315390572E-16, 1.000000000000000000, -0.000000000000000000 ) ) ;
#218 = CARTESIAN_POINT ( 'NONE',  ( -1.714505518806293849E-15, 89.00000000000000000, 0.000000000000000000 ) ) ;
#219 = COLOUR_RGB ( '',0.7921568627450980005, 0.8196078431372548767, 0.9333333333333333481 ) ;
#220 = EDGE_LOOP ( 'NONE', ( #143, #118, #93, #175 ) ) ;
#221 = CARTESIAN_POINT ( 'NONE',  ( 0.000000000000000000, 0.000000000000000000, 0.000000000000000000 ) ) ;
#222 = UNCERTAINTY_MEASURE_WITH_UNIT (LENGTH_MEASURE( 1.000000000000000082E-05 ), #279, 'distance_accuracy_value', 'NONE');
#223 = DIRECTION ( 'NONE',  ( 0.000000000000000000, 0.000000000000000000, -1.000000000000000000 ) ) ;
#224 = AXIS2_PLACEMENT_3D ( 'NONE', #88, #292, #181 ) ;
#225 = AXIS2_PLACEMENT_3D ( 'NONE', #338, #134, #251 ) ;
#226 = ADVANCED_FACE ( 'NONE', ( #176 ), #141, .T. ) ;
#227 = DIRECTION ( 'NONE',  ( 0.000000000000000000, 0.000000000000000000, -1.000000000000000000 ) ) ;
#228 = DIRECTION ( 'NONE',  ( -1.000000000000000000, 0.000000000000000000, 0.000000000000000000 ) ) ;
#229 = AXIS2_PLACEMENT_3D ( 'NONE', #320, #57, #264 ) ;
#230 = COLOUR_RGB ( '',1.000000000000000000, 0.000000000000000000, 0.000000000000000000 ) ;
#231 = CARTESIAN_POINT ( 'NONE',  ( 0.000000000000000000, 0.5000000000000000000, 0.000000000000000000 ) ) ;
#232 = ORIENTED_EDGE ( 'NONE', *, *, #350, .F. ) ;
#233 = SURFACE_STYLE_USAGE ( .BOTH. , #122 ) ;
#234 = EDGE_LOOP ( 'NONE', ( #356, #315, #326, #205 ) ) ;
#235 = ORIENTED_EDGE ( 'NONE', *, *, #5, .F. ) ;
#236 = VECTOR ( 'NONE', #20, 1000.000000000000000 ) ;
#237 = DIRECTION ( 'NONE',  ( -1.279215233315390572E-16, 1.000000000000000000, -0.000000000000000000 ) ) ;
#238 = DIRECTION ( 'NONE',  ( 0.000000000000000000, 0.000000000000000000, -1.000000000000000000 ) ) ;
#239 = DIRECTION ( 'NONE',  ( -1.279215233315390572E-16, 1.000000000000000000, -0.000000000000000000 ) ) ;
#240 =( NAMED_UNIT ( * ) SI_UNIT ( $, .STERADIAN. ) SOLID_ANGLE_UNIT ( ) );
#241 = FILL_AREA_STYLE ('',( #324 ) ) ;
#242 =( NAMED_UNIT ( * ) SI_UNIT ( $, .STERADIAN. ) SOLID_ANGLE_UNIT ( ) );
#243 =( LENGTH_UNIT ( ) NAMED_UNIT ( * ) SI_UNIT ( .MILLI., .METRE. ) );
#244 = ADVANCED_FACE ( 'NONE', ( #348 ), #72, .T. ) ;
#245 =( GEOMETRIC_REPRESENTATION_CONTEXT ( 3 ) GLOBAL_UNCERTAINTY_ASSIGNED_CONTEXT ( ( #222 ) ) GLOBAL_UNIT_ASSIGNED_CONTEXT ( ( #279, #253, #112 ) ) REPRESENTATION_CONTEXT ( 'NONE', 'WORKASPACE' ) );
#246 = FACE_OUTER_BOUND ( 'NONE', #305, .T. ) ;
#247 = FACE_OUTER_BOUND ( 'NONE', #35, .T. ) ;
#248 = VERTEX_POINT ( 'NONE', #319 ) ;
#249 = FILL_AREA_STYLE ('',( #165 ) ) ;
#250 = AXIS2_PLACEMENT_3D ( 'NONE', #231, #30, #28 ) ;
#251 = DIRECTION ( 'NONE',  ( 0.000000000000000000, 0.000000000000000000, -1.000000000000000000 ) ) ;
#252 = UNCERTAINTY_MEASURE_WITH_UNIT (LENGTH_MEASURE( 1.000000000000000082E-05 ), #360, 'distance_accuracy_value', 'NONE');
#253 =( NAMED_UNIT ( * ) PLANE_ANGLE_UNIT ( ) SI_UNIT ( $, .RADIAN. ) );
#254 = ADVANCED_FACE ( 'NONE', ( #246 ), #276, .T. ) ;
#255 = CARTESIAN_POINT ( 'NONE',  ( 0.000000000000000000, 40.00000000000000000, 0.000000000000000000 ) ) ;
#256 = EDGE_CURVE ( 'NONE', #170, #1, #179, .T. ) ;
#257 = FACE_OUTER_BOUND ( 'NONE', #31, .T. ) ;
#258 = DIRECTION ( 'NONE',  ( -0.000000000000000000, -1.000000000000000000, -0.000000000000000000 ) ) ;
#259 = VERTEX_POINT ( 'NONE', #22 ) ;
#260 = EDGE_CURVE ( 'NONE', #4, #95, #27, .T. ) ;
#261 = CARTESIAN_POINT ( 'NONE',  ( 9.184850993605147944E-16, 0.5000000000000000000, 7.500000000000000000 ) ) ;
#262 = CIRCLE ( 'NONE', #225, 7.500000000000000000 ) ;
#263 = PLANE ( 'NONE',  #137 ) ;
#264 = DIRECTION ( 'NONE',  ( 0.000000000000000000, 0.000000000000000000, -1.000000000000000000 ) ) ;
#265 = ORIENTED_EDGE ( 'NONE', *, *, #318, .T. ) ;
#266 = AXIS2_PLACEMENT_3D ( 'NONE', #317, #125, #55 ) ;
#267 = COLOUR_RGB ( '',1.000000000000000000, 0.000000000000000000, 0.000000000000000000 ) ;
#268 = PLANE ( 'NONE',  #9 ) ;
#269 = CARTESIAN_POINT ( 'NONE',  ( 9.797174393178825657E-16, 40.00000000000000000, 8.000000000000000000 ) ) ;
#270 = SURFACE_SIDE_STYLE ('',( #274 ) ) ;
#271 = CIRCLE ( 'NONE', #127, 8.000000000000000000 ) ;
#272 = AXIS2_PLACEMENT_3D ( 'NONE', #39, #359, #185 ) ;
#273 = DIRECTION ( 'NONE',  ( -1.279215233315390572E-16, 1.000000000000000000, 0.000000000000000000 ) ) ;
#274 = SURFACE_STYLE_FILL_AREA ( #330 ) ;
#275 = CARTESIAN_POINT ( 'NONE',  ( -8.000000000000000000, 89.00000000000000000, 0.000000000000000000 ) ) ;
#276 = CYLINDRICAL_SURFACE ( 'NONE', #16, 8.000000000000000000 ) ;
#277 = UNCERTAINTY_MEASURE_WITH_UNIT (LENGTH_MEASURE( 1.000000000000000082E-05 ), #284, 'distance_accuracy_value', 'NONE');
#278 =( LENGTH_UNIT ( ) NAMED_UNIT ( * ) SI_UNIT ( .MILLI., .METRE. ) );
#279 =( LENGTH_UNIT ( ) NAMED_UNIT ( * ) SI_UNIT ( .MILLI., .METRE. ) );
#280 = FILL_AREA_STYLE ('',( #312 ) ) ;
#281 = ORIENTED_EDGE ( 'NONE', *, *, #188, .F. ) ;
#282 = EDGE_CURVE ( 'NONE', #259, #95, #262, .T. ) ;
#283 = VERTEX_POINT ( 'NONE', #303 ) ;
#284 =( LENGTH_UNIT ( ) NAMED_UNIT ( * ) SI_UNIT ( .MILLI., .METRE. ) );
#285 = VERTEX_POINT ( 'NONE', #101 ) ;
#286 = FILL_AREA_STYLE_COLOUR ( '', #323 ) ;
#287 = ORIENTED_EDGE ( 'NONE', *, *, #66, .F. ) ;
#288 = CIRCLE ( 'NONE', #53, 8.000000000000000000 ) ;
#289 = CIRCLE ( 'NONE', #272, 7.999999999999994671 ) ;
#290 =( LENGTH_UNIT ( ) NAMED_UNIT ( * ) SI_UNIT ( .MILLI., .METRE. ) );
#291 = DIRECTION ( 'NONE',  ( 1.000000000000000000, 0.000000000000000000, -1.224646799147353207E-16 ) ) ;
#292 = DIRECTION ( 'NONE',  ( -0.000000000000000000, -1.000000000000000000, -0.000000000000000000 ) ) ;
#293 = DIRECTION ( 'NONE',  ( 0.000000000000000000, 1.000000000000000000, 0.000000000000000000 ) ) ;
#294 = AXIS2_PLACEMENT_3D ( 'NONE', #73, #163, #363 ) ;
#295 = PRESENTATION_STYLE_ASSIGNMENT (( #158 ) ) ;
#296 = DIRECTION ( 'NONE',  ( -1.000000000000000000, 0.000000000000000000, 0.000000000000000000 ) ) ;
#297 = FACE_OUTER_BOUND ( 'NONE', #146, .T. ) ;
#298 = APPLICATION_PROTOCOL_DEFINITION ( 'draft international standard', 'automotive_design', 1998, #69 ) ;
#299 = CARTESIAN_POINT ( 'NONE',  ( 0.000000000000000000, 40.00000000000000000, 0.000000000000000000 ) ) ;
#300 = PRESENTATION_LAYER_ASSIGNMENT (  '', '', ( #368 ) ) ;
#301 = AXIS2_PLACEMENT_3D ( 'NONE', #103, #94, #133 ) ;
#302 = FACE_OUTER_BOUND ( 'NONE', #92, .T. ) ;
#303 = CARTESIAN_POINT ( 'NONE',  ( -7.999999999999989342, 40.00000000000000000, 0.000000000000000000 ) ) ;
#304 = SURFACE_STYLE_USAGE ( .BOTH. , #191 ) ;
#305 = EDGE_LOOP ( 'NONE', ( #343, #59, #105, #281 ) ) ;
#306 = PRODUCT_DEFINITION_CONTEXT ( 'detailed design', #197, 'design' ) ;
#307 = PRESENTATION_STYLE_ASSIGNMENT (( #366 ) ) ;
#308 = PRESENTATION_LAYER_ASSIGNMENT (  '', '', ( #23 ) ) ;
#309 = FILL_AREA_STYLE_COLOUR ( '', #219 ) ;
#310 = EDGE_LOOP ( 'NONE', ( #235, #121, #265, #74 ) ) ;
#311 = ADVANCED_FACE ( 'NONE', ( #247 ), #104, .T. ) ;
#312 = FILL_AREA_STYLE_COLOUR ( '', #321 ) ;
#313 = COLOUR_RGB ( '',1.000000000000000000, 0.000000000000000000, 0.000000000000000000 ) ;
#314 = CIRCLE ( 'NONE', #183, 8.000000000000000000 ) ;
#315 = ORIENTED_EDGE ( 'NONE', *, *, #107, .T. ) ;
#316 = DIRECTION ( 'NONE',  ( -0.000000000000000000, -1.000000000000000000, -0.000000000000000000 ) ) ;
#317 = CARTESIAN_POINT ( 'NONE',  ( -1.714505518806293652E-15, 89.00000000000000000, 0.000000000000000000 ) ) ;
#318 = EDGE_CURVE ( 'NONE', #283, #1, #164, .T. ) ;
#319 = CARTESIAN_POINT ( 'NONE',  ( 0.000000000000000000, 40.00000000000000000, -8.000000000000000000 ) ) ;
#320 = CARTESIAN_POINT ( 'NONE',  ( 0.000000000000000000, 0.000000000000000000, 0.000000000000000000 ) ) ;
#321 = COLOUR_RGB ( '',0.7921568627450980005, 0.8196078431372548767, 0.9333333333333333481 ) ;
#322 = ADVANCED_FACE ( 'NONE', ( #136 ), #216, .T. ) ;
#323 = COLOUR_RGB ( '',1.000000000000000000, 0.000000000000000000, 0.000000000000000000 ) ;
#324 = FILL_AREA_STYLE_COLOUR ( '', #166 ) ;
#325 = EDGE_CURVE ( 'NONE', #283, #81, #289, .T. ) ;
#326 = ORIENTED_EDGE ( 'NONE', *, *, #32, .F. ) ;
#327 = CIRCLE ( 'NONE', #224, 8.000000000000000000 ) ;
#328 = DIRECTION ( 'NONE',  ( 1.000000000000000000, 1.279215233315390572E-16, 0.000000000000000000 ) ) ;
#329 = VECTOR ( 'NONE', #100, 1000.000000000000000 ) ;
#330 = FILL_AREA_STYLE ('',( #25 ) ) ;
#331 = CARTESIAN_POINT ( 'NONE',  ( 0.000000000000000000, 0.5000000000000000000, 0.000000000000000000 ) ) ;
#332 = EDGE_CURVE ( 'NONE', #207, #248, #314, .T. ) ;
#333 =( LENGTH_UNIT ( ) NAMED_UNIT ( * ) SI_UNIT ( .MILLI., .METRE. ) );
#334 =( NAMED_UNIT ( * ) PLANE_ANGLE_UNIT ( ) SI_UNIT ( $, .RADIAN. ) );
#335 = CLOSED_SHELL ( 'NONE', ( #199, #226, #135, #244, #254, #322 ) ) ;
#336 = STYLED_ITEM ( 'NONE', ( #47 ), #254 ) ;
#337 = CARTESIAN_POINT ( 'NONE',  ( 0.000000000000000000, 0.000000000000000000, 0.000000000000000000 ) ) ;
#338 = CARTESIAN_POINT ( 'NONE',  ( 0.000000000000000000, 0.000000000000000000, 0.000000000000000000 ) ) ;
#339 = DIRECTION ( 'NONE',  ( 0.000000000000000000, 0.000000000000000000, -1.000000000000000000 ) ) ;
#340 = EDGE_CURVE ( 'NONE', #248, #4, #13, .T. ) ;
#341 = UNCERTAINTY_MEASURE_WITH_UNIT (LENGTH_MEASURE( 1.000000000000000082E-05 ), #243, 'distance_accuracy_value', 'NONE');
#342 = PRESENTATION_LAYER_ASSIGNMENT (  '', '', ( #347 ) ) ;
#343 = ORIENTED_EDGE ( 'NONE', *, *, #362, .F. ) ;
#344 = UNCERTAINTY_MEASURE_WITH_UNIT (LENGTH_MEASURE( 1.000000000000000082E-05 ), #17, 'distance_accuracy_value', 'NONE');
#345 = CARTESIAN_POINT ( 'NONE',  ( 8.000000000000000000, 89.00000000000000000, 0.000000000000000000 ) ) ;
#346 = MECHANICAL_DESIGN_GEOMETRIC_PRESENTATION_REPRESENTATION (  '', ( #48 ), #98 ) ;
#347 = STYLED_ITEM ( 'NONE', ( #184 ), #199 ) ;
#348 = FACE_OUTER_BOUND ( 'NONE', #220, .T. ) ;
#349 = PRESENTATION_STYLE_ASSIGNMENT (( #233 ) ) ;
#350 = EDGE_CURVE ( 'NONE', #81, #283, #162, .T. ) ;
#351 = ORIENTED_EDGE ( 'NONE', *, *, #173, .T. ) ;
#352 = CARTESIAN_POINT ( 'NONE',  ( 8.000000000000000000, 40.00000000000000000, 9.797174393178825657E-16 ) ) ;
#353 =( GEOMETRIC_REPRESENTATION_CONTEXT ( 3 ) GLOBAL_UNCERTAINTY_ASSIGNED_CONTEXT ( ( #252 ) ) GLOBAL_UNIT_ASSIGNED_CONTEXT ( ( #360, #334, #168 ) ) REPRESENTATION_CONTEXT ( 'NONE', 'WORKASPACE' ) );
#354 = VECTOR ( 'NONE', #157, 1000.000000000000000 ) ;
#355 =( NAMED_UNIT ( * ) PLANE_ANGLE_UNIT ( ) SI_UNIT ( $, .RADIAN. ) );
#356 = ORIENTED_EDGE ( 'NONE', *, *, #66, .T. ) ;
#357 =( NAMED_UNIT ( * ) PLANE_ANGLE_UNIT ( ) SI_UNIT ( $, .RADIAN. ) );
#358 = PRODUCT ( '59503', '59503', '', ( #213 ) ) ;
#359 = DIRECTION ( 'NONE',  ( -1.279215233315390572E-16, 1.000000000000000000, -0.000000000000000000 ) ) ;
#360 =( LENGTH_UNIT ( ) NAMED_UNIT ( * ) SI_UNIT ( .MILLI., .METRE. ) );
#361 = SHAPE_DEFINITION_REPRESENTATION ( #180, #12 ) ;
#362 = EDGE_CURVE ( 'NONE', #207, #285, #43, .T. ) ;
#363 = DIRECTION ( 'NONE',  ( 0.000000000000000000, 0.000000000000000000, 1.000000000000000000 ) ) ;
#364 = SURFACE_STYLE_FILL_AREA ( #26 ) ;
#365 = UNCERTAINTY_MEASURE_WITH_UNIT (LENGTH_MEASURE( 1.000000000000000082E-05 ), #290, 'distance_accuracy_value', 'NONE');
#366 = SURFACE_STYLE_USAGE ( .BOTH. , #193 ) ;
#367 = CARTESIAN_POINT ( 'NONE',  ( 8.000000000000000000, 89.00000000000000000, 9.797174393178825657E-16 ) ) ;
#368 = STYLED_ITEM ( 'NONE', ( #131 ), #226 ) ;
#369 = SURFACE_STYLE_FILL_AREA ( #280 ) ;
#370 = SURFACE_SIDE_STYLE ('',( #369 ) ) ;
ENDSEC;
END-ISO-10303-21;
