ISO-10303-21;
HEADER;
FILE_DESCRIPTION (( 'STEP AP214' ),
    '1' );
FILE_NAME ('83184.STEP',
    '2023-06-23T07:52:29',
    ( '' ),
    ( '' ),
    'SwSTEP 2.0',
    'SolidWorks 2023',
    '' );
FILE_SCHEMA (( 'AUTOMOTIVE_DESIGN' ));
ENDSEC;

DATA;
#1 = CARTESIAN_POINT ( 'NONE',  ( 0.06250000000000000000, 2.000000000000000000, 7.654042494670963708E-18 ) ) ;
#2 = PRESENTATION_LAYER_ASSIGNMENT (  '', '', ( #130 ) ) ;
#3 = CARTESIAN_POINT ( 'NONE',  ( 7.654042494670957545E-18, 0.000000000000000000, 0.06250000000000000000 ) ) ;
#4 = LENGTH_MEASURE_WITH_UNIT ( LENGTH_MEASURE( 0.02539999999999999897 ), #52 );
#5 = DIRECTION ( 'NONE',  ( -0.000000000000000000, -1.000000000000000000, -0.000000000000000000 ) ) ;
#6 = SURFACE_STYLE_USAGE ( .BOTH. , #91 ) ;
#7 = STYLED_ITEM ( 'NONE', ( #164 ), #259 ) ;
#8 = FACE_OUTER_BOUND ( 'NONE', #128, .T. ) ;
#9 = PRODUCT ( '83184', '83184', '', ( #166 ) ) ;
#10 = EDGE_LOOP ( 'NONE', ( #80, #247, #221, #200 ) ) ;
#11 = PRESENTATION_STYLE_ASSIGNMENT (( #125 ) ) ;
#12 = VECTOR ( 'NONE', #57, 39.37007874015748143 ) ;
#13 =( NAMED_UNIT ( * ) PLANE_ANGLE_UNIT ( ) SI_UNIT ( $, .RADIAN. ) );
#14 = ORIENTED_EDGE ( 'NONE', *, *, #98, .F. ) ;
#15 = FACE_OUTER_BOUND ( 'NONE', #25, .T. ) ;
#16 = FACE_OUTER_BOUND ( 'NONE', #78, .T. ) ;
#17 =( NAMED_UNIT ( * ) PLANE_ANGLE_UNIT ( ) SI_UNIT ( $, .RADIAN. ) );
#18 = EDGE_CURVE ( 'NONE', #104, #279, #77, .T. ) ;
#19 = LENGTH_MEASURE_WITH_UNIT ( LENGTH_MEASURE( 0.02539999999999999897 ), #280 );
#20 = PRESENTATION_LAYER_ASSIGNMENT (  '', '', ( #133 ) ) ;
#21 = DIMENSIONAL_EXPONENTS ( 1.000000000000000000, 0.000000000000000000, 0.000000000000000000, 0.000000000000000000, 0.000000000000000000, 0.000000000000000000, 0.000000000000000000 ) ;
#22 = PRESENTATION_STYLE_ASSIGNMENT (( #85 ) ) ;
#23 = CARTESIAN_POINT ( 'NONE',  ( -0.06250000000000000000, 0.3749999999999999445, 0.000000000000000000 ) ) ;
#24 = CYLINDRICAL_SURFACE ( 'NONE', #266, 0.06250000000000000000 ) ;
#25 = EDGE_LOOP ( 'NONE', ( #299, #297, #217, #14 ) ) ;
#26 = DIRECTION ( 'NONE',  ( -1.000000000000000000, 0.000000000000000000, 0.000000000000000000 ) ) ;
#27 = STYLED_ITEM ( 'NONE', ( #22 ), #163 ) ;
#28 = LINE ( 'NONE', #189, #47 ) ;
#29 = DIRECTION ( 'NONE',  ( -0.000000000000000000, -1.000000000000000000, -0.000000000000000000 ) ) ;
#30 = DIRECTION ( 'NONE',  ( 1.000000000000000000, 3.768143997376475057E-17, 0.000000000000000000 ) ) ;
#31 = DIRECTION ( 'NONE',  ( -1.000000000000000000, 0.000000000000000000, 0.000000000000000000 ) ) ;
#32 = ADVANCED_BREP_SHAPE_REPRESENTATION ( '83184', ( #271, #263, #120 ), #135 ) ;
#33 = CARTESIAN_POINT ( 'NONE',  ( 4.437159120301362840E-35, 0.3750000000000000555, 0.000000000000000000 ) ) ;
#34 = CLOSED_SHELL ( 'NONE', ( #203, #103, #194, #246 ) ) ;
#35 = COLOUR_RGB ( '',0.7921568627450980005, 0.8196078431372548767, 0.9333333333333333481 ) ;
#36 = DIRECTION ( 'NONE',  ( -1.000000000000000000, 0.000000000000000000, 0.000000000000000000 ) ) ;
#37 =( NAMED_UNIT ( * ) SI_UNIT ( $, .STERADIAN. ) SOLID_ANGLE_UNIT ( ) );
#38 = UNCERTAINTY_MEASURE_WITH_UNIT (LENGTH_MEASURE( 1.000000000000000082E-05 ), #289, 'distance_accuracy_value', 'NONE');
#39 = SURFACE_STYLE_USAGE ( .BOTH. , #173 ) ;
#40 = EDGE_CURVE ( 'NONE', #295, #225, #50, .T. ) ;
#41 = CARTESIAN_POINT ( 'NONE',  ( 0.000000000000000000, 0.000000000000000000, -0.06250000000000000000 ) ) ;
#42 = ORIENTED_EDGE ( 'NONE', *, *, #122, .F. ) ;
#43 = ORIENTED_EDGE ( 'NONE', *, *, #84, .T. ) ;
#44 = UNCERTAINTY_MEASURE_WITH_UNIT (LENGTH_MEASURE( 1.000000000000000082E-05 ), #241, 'distance_accuracy_value', 'NONE');
#45 = SURFACE_SIDE_STYLE ('',( #68 ) ) ;
#46 = VERTEX_POINT ( 'NONE', #23 ) ;
#47 = VECTOR ( 'NONE', #136, 39.37007874015748143 ) ;
#48 = STYLED_ITEM ( 'NONE', ( #56 ), #277 ) ;
#49 =( NAMED_UNIT ( * ) SI_UNIT ( $, .STERADIAN. ) SOLID_ANGLE_UNIT ( ) );
#50 = LINE ( 'NONE', #157, #274 ) ;
#51 = MECHANICAL_DESIGN_GEOMETRIC_PRESENTATION_REPRESENTATION (  '', ( #27 ), #174 ) ;
#52 =( LENGTH_UNIT ( ) NAMED_UNIT ( * ) SI_UNIT ( $, .METRE. ) );
#53 = DIRECTION ( 'NONE',  ( 1.000000000000000000, 0.000000000000000000, 0.000000000000000000 ) ) ;
#54 =( NAMED_UNIT ( * ) SI_UNIT ( $, .STERADIAN. ) SOLID_ANGLE_UNIT ( ) );
#55 = AXIS2_PLACEMENT_3D ( 'NONE', #226, #86, #219 ) ;
#56 = PRESENTATION_STYLE_ASSIGNMENT (( #262 ) ) ;
#57 = DIRECTION ( 'NONE',  ( -3.768143997376475057E-17, 1.000000000000000000, -0.000000000000000000 ) ) ;
#58 = EDGE_CURVE ( 'NONE', #304, #46, #66, .T. ) ;
#59 =( CONVERSION_BASED_UNIT ( 'INCH', #215 ) LENGTH_UNIT ( ) NAMED_UNIT ( #250 ) );
#60 = PRODUCT_RELATED_PRODUCT_CATEGORY ( 'part', '', ( #9 ) ) ;
#61 = LINE ( 'NONE', #41, #260 ) ;
#62 = EDGE_LOOP ( 'NONE', ( #195, #43 ) ) ;
#63 = LENGTH_MEASURE_WITH_UNIT ( LENGTH_MEASURE( 0.02539999999999999897 ), #296 );
#64 = ORIENTED_EDGE ( 'NONE', *, *, #18, .F. ) ;
#65 =( NAMED_UNIT ( * ) SI_UNIT ( $, .STERADIAN. ) SOLID_ANGLE_UNIT ( ) );
#66 = CIRCLE ( 'NONE', #281, 0.06250000000000000000 ) ;
#67 = EDGE_CURVE ( 'NONE', #295, #276, #116, .T. ) ;
#68 = SURFACE_STYLE_FILL_AREA ( #202 ) ;
#69 = DIRECTION ( 'NONE',  ( -0.000000000000000000, -1.000000000000000000, -0.000000000000000000 ) ) ;
#70 = CARTESIAN_POINT ( 'NONE',  ( 0.000000000000000000, 0.3749999999999999445, 0.000000000000000000 ) ) ;
#71 = COLOUR_RGB ( '',1.000000000000000000, 0.000000000000000000, 0.000000000000000000 ) ;
#72 = CARTESIAN_POINT ( 'NONE',  ( 0.06250000000000000000, 2.000000000000000000, 0.000000000000000000 ) ) ;
#73 = CIRCLE ( 'NONE', #293, 0.06250000000000000000 ) ;
#74 = DIRECTION ( 'NONE',  ( 0.000000000000000000, 0.000000000000000000, -1.000000000000000000 ) ) ;
#75 = PRODUCT_DEFINITION ( 'UNKNOWN', '', #178, #106 ) ;
#76 = FILL_AREA_STYLE_COLOUR ( '', #35 ) ;
#77 = CIRCLE ( 'NONE', #188, 0.06250000000000005551 ) ;
#78 = EDGE_LOOP ( 'NONE', ( #176, #197 ) ) ;
#79 = UNCERTAINTY_MEASURE_WITH_UNIT (LENGTH_MEASURE( 1.000000000000000082E-05 ), #114, 'distance_accuracy_value', 'NONE');
#80 = ORIENTED_EDGE ( 'NONE', *, *, #92, .T. ) ;
#81 = MECHANICAL_DESIGN_GEOMETRIC_PRESENTATION_REPRESENTATION (  '', ( #133 ), #204 ) ;
#82 = STYLED_ITEM ( 'NONE', ( #11 ), #271 ) ;
#83 = VERTEX_POINT ( 'NONE', #193 ) ;
#84 = EDGE_CURVE ( 'NONE', #279, #104, #160, .T. ) ;
#85 = SURFACE_STYLE_USAGE ( .BOTH. , #45 ) ;
#86 = DIRECTION ( 'NONE',  ( 0.000000000000000000, -1.000000000000000000, -0.000000000000000000 ) ) ;
#87 = AXIS2_PLACEMENT_3D ( 'NONE', #33, #118, #238 ) ;
#88 = LENGTH_MEASURE_WITH_UNIT ( LENGTH_MEASURE( 0.02539999999999999897 ), #229 );
#89 = AXIS2_PLACEMENT_3D ( 'NONE', #172, #29, #74 ) ;
#90 = SURFACE_SIDE_STYLE ('',( #308 ) ) ;
#91 = SURFACE_SIDE_STYLE ('',( #301 ) ) ;
#92 = EDGE_CURVE ( 'NONE', #276, #295, #73, .T. ) ;
#93 = DIRECTION ( 'NONE',  ( 0.000000000000000000, 0.000000000000000000, -1.000000000000000000 ) ) ;
#94 = AXIS2_PLACEMENT_3D ( 'NONE', #167, #142, #31 ) ;
#95 = DIRECTION ( 'NONE',  ( -3.768143997376475057E-17, 1.000000000000000000, -0.000000000000000000 ) ) ;
#96 = CARTESIAN_POINT ( 'NONE',  ( 0.06249999999999997224, 2.000000000000000000, 7.654042494670960626E-18 ) ) ;
#97 = FILL_AREA_STYLE ('',( #76 ) ) ;
#98 = EDGE_CURVE ( 'NONE', #225, #83, #198, .T. ) ;
#99 = DIRECTION ( 'NONE',  ( -0.000000000000000000, -1.000000000000000000, -0.000000000000000000 ) ) ;
#100 = EDGE_LOOP ( 'NONE', ( #101, #108, #64, #206 ) ) ;
#101 = ORIENTED_EDGE ( 'NONE', *, *, #139, .T. ) ;
#102 = FILL_AREA_STYLE_COLOUR ( '', #71 ) ;
#103 = ADVANCED_FACE ( 'NONE', ( #8 ), #143, .F. ) ;
#104 = VERTEX_POINT ( 'NONE', #211 ) ;
#105 = FILL_AREA_STYLE_COLOUR ( '', #212 ) ;
#106 = PRODUCT_DEFINITION_CONTEXT ( 'detailed design', #244, 'design' ) ;
#107 = MECHANICAL_DESIGN_GEOMETRIC_PRESENTATION_REPRESENTATION (  '', ( #7 ), #222 ) ;
#108 = ORIENTED_EDGE ( 'NONE', *, *, #122, .T. ) ;
#109 =( GEOMETRIC_REPRESENTATION_CONTEXT ( 3 ) GLOBAL_UNCERTAINTY_ASSIGNED_CONTEXT ( ( #79 ) ) GLOBAL_UNIT_ASSIGNED_CONTEXT ( ( #114, #17, #129 ) ) REPRESENTATION_CONTEXT ( 'NONE', 'WORKASPACE' ) );
#110 = ORIENTED_EDGE ( 'NONE', *, *, #58, .T. ) ;
#111 = PLANE ( 'NONE',  #242 ) ;
#112 = DIRECTION ( 'NONE',  ( -0.000000000000000000, -1.000000000000000000, -0.000000000000000000 ) ) ;
#113 = FILL_AREA_STYLE ('',( #140 ) ) ;
#114 =( CONVERSION_BASED_UNIT ( 'INCH', #88 ) LENGTH_UNIT ( ) NAMED_UNIT ( #21 ) );
#115 = DIRECTION ( 'NONE',  ( 0.000000000000000000, -0.000000000000000000, 1.000000000000000000 ) ) ;
#116 = CIRCLE ( 'NONE', #89, 0.06250000000000000000 ) ;
#117 =( NAMED_UNIT ( * ) PLANE_ANGLE_UNIT ( ) SI_UNIT ( $, .RADIAN. ) );
#118 = DIRECTION ( 'NONE',  ( -3.768143997376475057E-17, 1.000000000000000000, 0.000000000000000000 ) ) ;
#119 = PRESENTATION_LAYER_ASSIGNMENT (  '', '', ( #7 ) ) ;
#120 = AXIS2_PLACEMENT_3D ( 'NONE', #286, #161, #53 ) ;
#121 = FILL_AREA_STYLE_COLOUR ( '', #267 ) ;
#122 = EDGE_CURVE ( 'NONE', #304, #279, #233, .T. ) ;
#123 = SURFACE_SIDE_STYLE ('',( #148 ) ) ;
#124 = ORIENTED_EDGE ( 'NONE', *, *, #214, .T. ) ;
#125 = SURFACE_STYLE_USAGE ( .BOTH. , #123 ) ;
#126 = PRESENTATION_LAYER_ASSIGNMENT (  '', '', ( #27 ) ) ;
#127 =( GEOMETRIC_REPRESENTATION_CONTEXT ( 3 ) GLOBAL_UNCERTAINTY_ASSIGNED_CONTEXT ( ( #216 ) ) GLOBAL_UNIT_ASSIGNED_CONTEXT ( ( #59, #144, #264 ) ) REPRESENTATION_CONTEXT ( 'NONE', 'WORKASPACE' ) );
#128 = EDGE_LOOP ( 'NONE', ( #179, #201 ) ) ;
#129 =( NAMED_UNIT ( * ) SI_UNIT ( $, .STERADIAN. ) SOLID_ANGLE_UNIT ( ) );
#130 = STYLED_ITEM ( 'NONE', ( #291 ), #263 ) ;
#131 =( CONVERSION_BASED_UNIT ( 'INCH', #19 ) LENGTH_UNIT ( ) NAMED_UNIT ( #180 ) );
#132 = LENGTH_MEASURE_WITH_UNIT ( LENGTH_MEASURE( 0.02539999999999999897 ), #205 );
#133 = STYLED_ITEM ( 'NONE', ( #257 ), #190 ) ;
#134 = APPLICATION_PROTOCOL_DEFINITION ( 'draft international standard', 'automotive_design', 1998, #244 ) ;
#135 =( GEOMETRIC_REPRESENTATION_CONTEXT ( 3 ) GLOBAL_UNCERTAINTY_ASSIGNED_CONTEXT ( ( #220 ) ) GLOBAL_UNIT_ASSIGNED_CONTEXT ( ( #307, #183, #159 ) ) REPRESENTATION_CONTEXT ( 'NONE', 'WORKASPACE' ) );
#136 = DIRECTION ( 'NONE',  ( -3.768143997376475057E-17, 1.000000000000000000, -0.000000000000000000 ) ) ;
#137 = CARTESIAN_POINT ( 'NONE',  ( -6.123233995736772199E-17, 2.000000000000000000, 0.000000000000000000 ) ) ;
#138 = APPLICATION_PROTOCOL_DEFINITION ( 'draft international standard', 'automotive_design', 1998, #236 ) ;
#139 = EDGE_CURVE ( 'NONE', #46, #304, #153, .T. ) ;
#140 = FILL_AREA_STYLE_COLOUR ( '', #300 ) ;
#141 = CLOSED_SHELL ( 'NONE', ( #259, #190, #277, #163 ) ) ;
#142 = DIRECTION ( 'NONE',  ( -3.768143997376475057E-17, 1.000000000000000000, -0.000000000000000000 ) ) ;
#143 = PLANE ( 'NONE',  #87 ) ;
#144 =( NAMED_UNIT ( * ) PLANE_ANGLE_UNIT ( ) SI_UNIT ( $, .RADIAN. ) );
#145 = CARTESIAN_POINT ( 'NONE',  ( 0.000000000000000000, 0.3749999999999999445, 0.000000000000000000 ) ) ;
#146 = COLOUR_RGB ( '',1.000000000000000000, 0.000000000000000000, 0.000000000000000000 ) ;
#147 = SURFACE_STYLE_FILL_AREA ( #298 ) ;
#148 = SURFACE_STYLE_FILL_AREA ( #97 ) ;
#149 = CYLINDRICAL_SURFACE ( 'NONE', #268, 0.06250000000000000000 ) ;
#150 = AXIS2_PLACEMENT_3D ( 'NONE', #145, #239, #36 ) ;
#151 = UNCERTAINTY_MEASURE_WITH_UNIT (LENGTH_MEASURE( 1.000000000000000082E-05 ), #255, 'distance_accuracy_value', 'NONE');
#152 = PLANE ( 'NONE',  #55 ) ;
#153 = CIRCLE ( 'NONE', #150, 0.06250000000000000000 ) ;
#154 = MECHANICAL_DESIGN_GEOMETRIC_PRESENTATION_REPRESENTATION (  '', ( #82 ), #224 ) ;
#155 = FACE_OUTER_BOUND ( 'NONE', #218, .T. ) ;
#156 = CARTESIAN_POINT ( 'NONE',  ( 0.000000000000000000, 0.000000000000000000, 0.000000000000000000 ) ) ;
#157 = CARTESIAN_POINT ( 'NONE',  ( 7.654042494670957545E-18, 0.000000000000000000, 0.06250000000000000000 ) ) ;
#158 = EDGE_CURVE ( 'NONE', #276, #83, #61, .T. ) ;
#159 =( NAMED_UNIT ( * ) SI_UNIT ( $, .STERADIAN. ) SOLID_ANGLE_UNIT ( ) );
#160 = CIRCLE ( 'NONE', #245, 0.06250000000000005551 ) ;
#161 = DIRECTION ( 'NONE',  ( 0.000000000000000000, 0.000000000000000000, 1.000000000000000000 ) ) ;
#162 = MECHANICAL_DESIGN_GEOMETRIC_PRESENTATION_REPRESENTATION (  '', ( #130 ), #127 ) ;
#163 = ADVANCED_FACE ( 'NONE', ( #16 ), #152, .T. ) ;
#164 = PRESENTATION_STYLE_ASSIGNMENT (( #182 ) ) ;
#165 = DIRECTION ( 'NONE',  ( -1.000000000000000000, 0.000000000000000000, 0.000000000000000000 ) ) ;
#166 = PRODUCT_CONTEXT ( 'NONE', #236, 'mechanical' ) ;
#167 = CARTESIAN_POINT ( 'NONE',  ( -6.123233995736772199E-17, 2.000000000000000000, 0.000000000000000000 ) ) ;
#168 = AXIS2_PLACEMENT_3D ( 'NONE', #181, #69, #283 ) ;
#169 = CYLINDRICAL_SURFACE ( 'NONE', #94, 0.06250000000000002776 ) ;
#170 = DIRECTION ( 'NONE',  ( -1.000000000000000000, 0.000000000000000000, 0.000000000000000000 ) ) ;
#171 = SURFACE_SIDE_STYLE ('',( #147 ) ) ;
#172 = CARTESIAN_POINT ( 'NONE',  ( 0.000000000000000000, 0.3750000000000000555, 0.000000000000000000 ) ) ;
#173 = SURFACE_SIDE_STYLE ('',( #213 ) ) ;
#174 =( GEOMETRIC_REPRESENTATION_CONTEXT ( 3 ) GLOBAL_UNCERTAINTY_ASSIGNED_CONTEXT ( ( #265 ) ) GLOBAL_UNIT_ASSIGNED_CONTEXT ( ( #131, #223, #49 ) ) REPRESENTATION_CONTEXT ( 'NONE', 'WORKASPACE' ) );
#175 = FILL_AREA_STYLE ('',( #121 ) ) ;
#176 = ORIENTED_EDGE ( 'NONE', *, *, #184, .T. ) ;
#177 = AXIS2_PLACEMENT_3D ( 'NONE', #210, #95, #26 ) ;
#178 = PRODUCT_DEFINITION_FORMATION_WITH_SPECIFIED_SOURCE ( 'ANY', '', #9, .NOT_KNOWN. ) ;
#179 = ORIENTED_EDGE ( 'NONE', *, *, #139, .F. ) ;
#180 = DIMENSIONAL_EXPONENTS ( 1.000000000000000000, 0.000000000000000000, 0.000000000000000000, 0.000000000000000000, 0.000000000000000000, 0.000000000000000000, 0.000000000000000000 ) ;
#181 = CARTESIAN_POINT ( 'NONE',  ( 0.000000000000000000, 0.000000000000000000, 0.000000000000000000 ) ) ;
#182 = SURFACE_STYLE_USAGE ( .BOTH. , #90 ) ;
#183 =( NAMED_UNIT ( * ) PLANE_ANGLE_UNIT ( ) SI_UNIT ( $, .RADIAN. ) );
#184 = EDGE_CURVE ( 'NONE', #83, #225, #305, .T. ) ;
#185 = PRODUCT_DEFINITION_SHAPE ( 'NONE', 'NONE',  #75 ) ;
#186 = LENGTH_MEASURE_WITH_UNIT ( LENGTH_MEASURE( 0.02539999999999999897 ), #234 );
#187 = CARTESIAN_POINT ( 'NONE',  ( 0.000000000000000000, 0.3750000000000000555, 0.000000000000000000 ) ) ;
#188 = AXIS2_PLACEMENT_3D ( 'NONE', #137, #284, #302 ) ;
#189 = CARTESIAN_POINT ( 'NONE',  ( -0.06250000000000009714, 2.000000000000000000, 0.000000000000000000 ) ) ;
#190 = ADVANCED_FACE ( 'NONE', ( #155 ), #111, .T. ) ;
#191 = CARTESIAN_POINT ( 'NONE',  ( 0.000000000000000000, 0.000000000000000000, 0.000000000000000000 ) ) ;
#192 = DIRECTION ( 'NONE',  ( 0.000000000000000000, 0.000000000000000000, -1.000000000000000000 ) ) ;
#193 = CARTESIAN_POINT ( 'NONE',  ( 0.000000000000000000, 0.000000000000000000, -0.06250000000000000000 ) ) ;
#194 = ADVANCED_FACE ( 'NONE', ( #232 ), #169, .T. ) ;
#195 = ORIENTED_EDGE ( 'NONE', *, *, #18, .T. ) ;
#196 = EDGE_LOOP ( 'NONE', ( #42, #110, #124, #306 ) ) ;
#197 = ORIENTED_EDGE ( 'NONE', *, *, #98, .T. ) ;
#198 = CIRCLE ( 'NONE', #227, 0.06250000000000000000 ) ;
#199 = FILL_AREA_STYLE ('',( #105 ) ) ;
#200 = ORIENTED_EDGE ( 'NONE', *, *, #158, .F. ) ;
#201 = ORIENTED_EDGE ( 'NONE', *, *, #58, .F. ) ;
#202 = FILL_AREA_STYLE ('',( #278 ) ) ;
#203 = ADVANCED_FACE ( 'NONE', ( #235 ), #208, .T. ) ;
#204 =( GEOMETRIC_REPRESENTATION_CONTEXT ( 3 ) GLOBAL_UNCERTAINTY_ASSIGNED_CONTEXT ( ( #151 ) ) GLOBAL_UNIT_ASSIGNED_CONTEXT ( ( #255, #117, #54 ) ) REPRESENTATION_CONTEXT ( 'NONE', 'WORKASPACE' ) );
#205 =( LENGTH_UNIT ( ) NAMED_UNIT ( * ) SI_UNIT ( $, .METRE. ) );
#206 = ORIENTED_EDGE ( 'NONE', *, *, #214, .F. ) ;
#207 = DIRECTION ( 'NONE',  ( 3.768143997376475057E-17, -1.000000000000000000, 0.000000000000000000 ) ) ;
#208 = CYLINDRICAL_SURFACE ( 'NONE', #177, 0.06250000000000002776 ) ;
#209 = CARTESIAN_POINT ( 'NONE',  ( -6.123233995736772199E-17, 2.000000000000000000, 0.000000000000000000 ) ) ;
#210 = CARTESIAN_POINT ( 'NONE',  ( -6.123233995736772199E-17, 2.000000000000000000, 0.000000000000000000 ) ) ;
#211 = CARTESIAN_POINT ( 'NONE',  ( -0.06250000000000012490, 2.000000000000000000, 0.000000000000000000 ) ) ;
#212 = COLOUR_RGB ( '',1.000000000000000000, 0.000000000000000000, 0.000000000000000000 ) ;
#213 = SURFACE_STYLE_FILL_AREA ( #175 ) ;
#214 = EDGE_CURVE ( 'NONE', #46, #104, #28, .T. ) ;
#215 = LENGTH_MEASURE_WITH_UNIT ( LENGTH_MEASURE( 0.02539999999999999897 ), #243 );
#216 = UNCERTAINTY_MEASURE_WITH_UNIT (LENGTH_MEASURE( 1.000000000000000082E-05 ), #59, 'distance_accuracy_value', 'NONE');
#217 = ORIENTED_EDGE ( 'NONE', *, *, #158, .T. ) ;
#218 = EDGE_LOOP ( 'NONE', ( #294, #270 ) ) ;
#219 = DIRECTION ( 'NONE',  ( 0.000000000000000000, 0.000000000000000000, -1.000000000000000000 ) ) ;
#220 = UNCERTAINTY_MEASURE_WITH_UNIT (LENGTH_MEASURE( 1.000000000000000082E-05 ), #307, 'distance_accuracy_value', 'NONE');
#221 = ORIENTED_EDGE ( 'NONE', *, *, #184, .F. ) ;
#222 =( GEOMETRIC_REPRESENTATION_CONTEXT ( 3 ) GLOBAL_UNCERTAINTY_ASSIGNED_CONTEXT ( ( #38 ) ) GLOBAL_UNIT_ASSIGNED_CONTEXT ( ( #289, #240, #37 ) ) REPRESENTATION_CONTEXT ( 'NONE', 'WORKASPACE' ) );
#223 =( NAMED_UNIT ( * ) PLANE_ANGLE_UNIT ( ) SI_UNIT ( $, .RADIAN. ) );
#224 =( GEOMETRIC_REPRESENTATION_CONTEXT ( 3 ) GLOBAL_UNCERTAINTY_ASSIGNED_CONTEXT ( ( #44 ) ) GLOBAL_UNIT_ASSIGNED_CONTEXT ( ( #241, #13, #65 ) ) REPRESENTATION_CONTEXT ( 'NONE', 'WORKASPACE' ) );
#225 = VERTEX_POINT ( 'NONE', #3 ) ;
#226 = CARTESIAN_POINT ( 'NONE',  ( 0.000000000000000000, 0.000000000000000000, 0.000000000000000000 ) ) ;
#227 = AXIS2_PLACEMENT_3D ( 'NONE', #191, #256, #93 ) ;
#228 = DIMENSIONAL_EXPONENTS ( 1.000000000000000000, 0.000000000000000000, 0.000000000000000000, 0.000000000000000000, 0.000000000000000000, 0.000000000000000000, 0.000000000000000000 ) ;
#229 =( LENGTH_UNIT ( ) NAMED_UNIT ( * ) SI_UNIT ( $, .METRE. ) );
#230 = FACE_OUTER_BOUND ( 'NONE', #10, .T. ) ;
#231 = SHAPE_DEFINITION_REPRESENTATION ( #185, #32 ) ;
#232 = FACE_OUTER_BOUND ( 'NONE', #196, .T. ) ;
#233 = LINE ( 'NONE', #96, #12 ) ;
#234 =( LENGTH_UNIT ( ) NAMED_UNIT ( * ) SI_UNIT ( $, .METRE. ) );
#235 = FACE_OUTER_BOUND ( 'NONE', #100, .T. ) ;
#236 = APPLICATION_CONTEXT ( 'automotive_design' ) ;
#237 = DIRECTION ( 'NONE',  ( 0.000000000000000000, 1.000000000000000000, 0.000000000000000000 ) ) ;
#238 = DIRECTION ( 'NONE',  ( -1.000000000000000000, -3.768143997376475057E-17, 0.000000000000000000 ) ) ;
#239 = DIRECTION ( 'NONE',  ( -3.768143997376475057E-17, 1.000000000000000000, -0.000000000000000000 ) ) ;
#240 =( NAMED_UNIT ( * ) PLANE_ANGLE_UNIT ( ) SI_UNIT ( $, .RADIAN. ) );
#241 =( CONVERSION_BASED_UNIT ( 'INCH', #63 ) LENGTH_UNIT ( ) NAMED_UNIT ( #285 ) );
#242 = AXIS2_PLACEMENT_3D ( 'NONE', #258, #237, #115 ) ;
#243 =( LENGTH_UNIT ( ) NAMED_UNIT ( * ) SI_UNIT ( $, .METRE. ) );
#244 = APPLICATION_CONTEXT ( 'automotive_design' ) ;
#245 = AXIS2_PLACEMENT_3D ( 'NONE', #209, #292, #165 ) ;
#246 = ADVANCED_FACE ( 'NONE', ( #251 ), #290, .F. ) ;
#247 = ORIENTED_EDGE ( 'NONE', *, *, #40, .T. ) ;
#248 = DIRECTION ( 'NONE',  ( -3.768143997376475057E-17, 1.000000000000000000, -0.000000000000000000 ) ) ;
#249 = CARTESIAN_POINT ( 'NONE',  ( 7.654042494670957545E-18, 0.3750000000000000555, 0.06250000000000000000 ) ) ;
#250 = DIMENSIONAL_EXPONENTS ( 1.000000000000000000, 0.000000000000000000, 0.000000000000000000, 0.000000000000000000, 0.000000000000000000, 0.000000000000000000, 0.000000000000000000 ) ;
#251 = FACE_OUTER_BOUND ( 'NONE', #62, .T. ) ;
#252 = AXIS2_PLACEMENT_3D ( 'NONE', #72, #207, #30 ) ;
#253 = MECHANICAL_DESIGN_GEOMETRIC_PRESENTATION_REPRESENTATION (  '', ( #48 ), #109 ) ;
#254 = CARTESIAN_POINT ( 'NONE',  ( 0.06250000000000000000, 0.3749999999999999445, 7.654042494670963708E-18 ) ) ;
#255 =( CONVERSION_BASED_UNIT ( 'INCH', #4 ) LENGTH_UNIT ( ) NAMED_UNIT ( #228 ) );
#256 = DIRECTION ( 'NONE',  ( -0.000000000000000000, -1.000000000000000000, -0.000000000000000000 ) ) ;
#257 = PRESENTATION_STYLE_ASSIGNMENT (( #6 ) ) ;
#258 = CARTESIAN_POINT ( 'NONE',  ( 0.000000000000000000, 0.3750000000000000555, 0.000000000000000000 ) ) ;
#259 = ADVANCED_FACE ( 'NONE', ( #230 ), #24, .T. ) ;
#260 = VECTOR ( 'NONE', #273, 39.37007874015748143 ) ;
#261 = DIRECTION ( 'NONE',  ( 0.000000000000000000, 0.000000000000000000, -1.000000000000000000 ) ) ;
#262 = SURFACE_STYLE_USAGE ( .BOTH. , #171 ) ;
#263 = MANIFOLD_SOLID_BREP ( 'Revolve - Tool Body (Straight Shanked)', #34 ) ;
#264 =( NAMED_UNIT ( * ) SI_UNIT ( $, .STERADIAN. ) SOLID_ANGLE_UNIT ( ) );
#265 = UNCERTAINTY_MEASURE_WITH_UNIT (LENGTH_MEASURE( 1.000000000000000082E-05 ), #131, 'distance_accuracy_value', 'NONE');
#266 = AXIS2_PLACEMENT_3D ( 'NONE', #269, #99, #192 ) ;
#267 = COLOUR_RGB ( '',0.7921568627450980005, 0.8196078431372548767, 0.9333333333333333481 ) ;
#268 = AXIS2_PLACEMENT_3D ( 'NONE', #156, #112, #275 ) ;
#269 = CARTESIAN_POINT ( 'NONE',  ( 0.000000000000000000, 0.000000000000000000, 0.000000000000000000 ) ) ;
#270 = ORIENTED_EDGE ( 'NONE', *, *, #67, .F. ) ;
#271 = MANIFOLD_SOLID_BREP ( 'Revolve - Cutting Edge', #141 ) ;
#272 = CARTESIAN_POINT ( 'NONE',  ( 0.000000000000000000, 0.3750000000000000555, -0.06250000000000000000 ) ) ;
#273 = DIRECTION ( 'NONE',  ( -0.000000000000000000, -1.000000000000000000, -0.000000000000000000 ) ) ;
#274 = VECTOR ( 'NONE', #309, 39.37007874015748143 ) ;
#275 = DIRECTION ( 'NONE',  ( 0.000000000000000000, 0.000000000000000000, -1.000000000000000000 ) ) ;
#276 = VERTEX_POINT ( 'NONE', #272 ) ;
#277 = ADVANCED_FACE ( 'NONE', ( #15 ), #149, .T. ) ;
#278 = FILL_AREA_STYLE_COLOUR ( '', #146 ) ;
#279 = VERTEX_POINT ( 'NONE', #1 ) ;
#280 =( LENGTH_UNIT ( ) NAMED_UNIT ( * ) SI_UNIT ( $, .METRE. ) );
#281 = AXIS2_PLACEMENT_3D ( 'NONE', #70, #248, #170 ) ;
#282 = PRESENTATION_LAYER_ASSIGNMENT (  '', '', ( #82 ) ) ;
#283 = DIRECTION ( 'NONE',  ( 0.000000000000000000, 0.000000000000000000, -1.000000000000000000 ) ) ;
#284 = DIRECTION ( 'NONE',  ( -3.768143997376475057E-17, 1.000000000000000000, -0.000000000000000000 ) ) ;
#285 = DIMENSIONAL_EXPONENTS ( 1.000000000000000000, 0.000000000000000000, 0.000000000000000000, 0.000000000000000000, 0.000000000000000000, 0.000000000000000000, 0.000000000000000000 ) ;
#286 = CARTESIAN_POINT ( 'NONE',  ( 0.000000000000000000, 0.000000000000000000, 0.000000000000000000 ) ) ;
#287 = PRESENTATION_LAYER_ASSIGNMENT (  '', '', ( #48 ) ) ;
#288 = DIMENSIONAL_EXPONENTS ( 1.000000000000000000, 0.000000000000000000, 0.000000000000000000, 0.000000000000000000, 0.000000000000000000, 0.000000000000000000, 0.000000000000000000 ) ;
#289 =( CONVERSION_BASED_UNIT ( 'INCH', #186 ) LENGTH_UNIT ( ) NAMED_UNIT ( #288 ) );
#290 = PLANE ( 'NONE',  #252 ) ;
#291 = PRESENTATION_STYLE_ASSIGNMENT (( #39 ) ) ;
#292 = DIRECTION ( 'NONE',  ( -3.768143997376475057E-17, 1.000000000000000000, -0.000000000000000000 ) ) ;
#293 = AXIS2_PLACEMENT_3D ( 'NONE', #187, #5, #261 ) ;
#294 = ORIENTED_EDGE ( 'NONE', *, *, #92, .F. ) ;
#295 = VERTEX_POINT ( 'NONE', #249 ) ;
#296 =( LENGTH_UNIT ( ) NAMED_UNIT ( * ) SI_UNIT ( $, .METRE. ) );
#297 = ORIENTED_EDGE ( 'NONE', *, *, #67, .T. ) ;
#298 = FILL_AREA_STYLE ('',( #102 ) ) ;
#299 = ORIENTED_EDGE ( 'NONE', *, *, #40, .F. ) ;
#300 = COLOUR_RGB ( '',1.000000000000000000, 0.000000000000000000, 0.000000000000000000 ) ;
#301 = SURFACE_STYLE_FILL_AREA ( #199 ) ;
#302 = DIRECTION ( 'NONE',  ( -1.000000000000000000, 0.000000000000000000, 0.000000000000000000 ) ) ;
#303 = DIMENSIONAL_EXPONENTS ( 1.000000000000000000, 0.000000000000000000, 0.000000000000000000, 0.000000000000000000, 0.000000000000000000, 0.000000000000000000, 0.000000000000000000 ) ;
#304 = VERTEX_POINT ( 'NONE', #254 ) ;
#305 = CIRCLE ( 'NONE', #168, 0.06250000000000000000 ) ;
#306 = ORIENTED_EDGE ( 'NONE', *, *, #84, .F. ) ;
#307 =( CONVERSION_BASED_UNIT ( 'INCH', #132 ) LENGTH_UNIT ( ) NAMED_UNIT ( #303 ) );
#308 = SURFACE_STYLE_FILL_AREA ( #113 ) ;
#309 = DIRECTION ( 'NONE',  ( -0.000000000000000000, -1.000000000000000000, -0.000000000000000000 ) ) ;
ENDSEC;
END-ISO-10303-21;
