ISO-10303-21;
HEADER;
FILE_DESCRIPTION (( 'STEP AP214' ),
    '1' );
FILE_NAME ('Micro_SEM-078-04X.STEP',
    '2021-09-02T01:03:35',
    ( '' ),
    ( '' ),
    'SwSTEP 2.0',
    'SolidWorks 2020',
    '' );
FILE_SCHEMA (( 'AUTOMOTIVE_DESIGN' ));
ENDSEC;

DATA;
#1 = DIRECTION ( 'NONE',  ( -0.1736481776669311916, 2.126576849575783316E-17, 0.9848077530122080203 ) ) ;
#2 = AXIS2_PLACEMENT_3D ( 'NONE', #111, #212, #187 ) ;
#3 = DIRECTION ( 'NONE',  ( -1.224646799147353454E-16, -0.0000000000000000000, -1.000000000000000000 ) ) ;
#4 = DIRECTION ( 'NONE',  ( 0.7071067811865456854, 8.659560562354911904E-17, -0.7071067811865493491 ) ) ;
#5 = DIRECTION ( 'NONE',  ( -1.000000000000000000, 0.0000000000000000000, 0.0000000000000000000 ) ) ;
#6 = ADVANCED_FACE ( 'NONE', ( #223 ), #116, .T. ) ;
#7 = DIRECTION ( 'NONE',  ( 1.000000000000000000, 0.0000000000000000000, 0.0000000000000000000 ) ) ;
#8 = CARTESIAN_POINT ( 'NONE',  ( 0.0000000000000000000, 0.0000000000000000000, 1.500000000000000222 ) ) ;
#9 = STYLED_ITEM ( 'NONE', ( #112 ), #119 ) ;
#10 =( GEOMETRIC_REPRESENTATION_CONTEXT ( 3 ) GLOBAL_UNCERTAINTY_ASSIGNED_CONTEXT ( ( #299 ) ) GLOBAL_UNIT_ASSIGNED_CONTEXT ( ( #105, #199, #264 ) ) REPRESENTATION_CONTEXT ( 'NONE', 'WORKASPACE' ) );
#11 = FACE_OUTER_BOUND ( 'NONE', #294, .T. ) ;
#12 = VERTEX_POINT ( 'NONE', #185 ) ;
#13 = ORIENTED_EDGE ( 'NONE', *, *, #138, .T. ) ;
#14 =( LENGTH_UNIT ( ) NAMED_UNIT ( * ) SI_UNIT ( $, .METRE. ) );
#15 = ORIENTED_EDGE ( 'NONE', *, *, #164, .F. ) ;
#16 = AXIS2_PLACEMENT_3D ( 'NONE', #167, #196, #149 ) ;
#17 = EDGE_LOOP ( 'NONE', ( #104, #86, #292, #63 ) ) ;
#18 = ORIENTED_EDGE ( 'NONE', *, *, #260, .T. ) ;
#19 = ADVANCED_FACE ( 'NONE', ( #159 ), #198, .T. ) ;
#20 = FILL_AREA_STYLE_COLOUR ( '', #60 ) ;
#21 = AXIS2_PLACEMENT_3D ( 'NONE', #166, #77, #121 ) ;
#22 = APPLICATION_PROTOCOL_DEFINITION ( 'draft international standard', 'automotive_design', 1998, #181 ) ;
#23 = FACE_OUTER_BOUND ( 'NONE', #205, .T. ) ;
#24 = DIRECTION ( 'NONE',  ( -1.000000000000000000, 0.0000000000000000000, 1.224646799147353700E-16 ) ) ;
#25 = DIRECTION ( 'NONE',  ( 1.000000000000000000, 0.0000000000000000000, 0.0000000000000000000 ) ) ;
#26 = AXIS2_PLACEMENT_3D ( 'NONE', #215, #54, #284 ) ;
#27 = PRODUCT ( 'Micro_SEM-078-04X', 'Micro_SEM-078-04X', '', ( #90 ) ) ;
#28 = DIRECTION ( 'NONE',  ( 0.0000000000000000000, 0.0000000000000000000, -1.000000000000000000 ) ) ;
#29 = CARTESIAN_POINT ( 'NONE',  ( 0.06250000000000002776, 7.654042494670959086E-18, 0.2892130222250905436 ) ) ;
#30 = DIRECTION ( 'NONE',  ( 0.1736481776669313859, 0.0000000000000000000, 0.9848077530122077983 ) ) ;
#31 = AXIS2_PLACEMENT_3D ( 'NONE', #34, #201, #83 ) ;
#32 = CARTESIAN_POINT ( 'NONE',  ( 0.03901095000000002339, 0.0000000000000000000, 0.1559999999999999998 ) ) ;
#33 = ADVANCED_FACE ( 'NONE', ( #297 ), #235, .T. ) ;
#34 = CARTESIAN_POINT ( 'NONE',  ( 0.0000000000000000000, 0.0000000000000000000, 1.485000000000000764 ) ) ;
#35 = VERTEX_POINT ( 'NONE', #92 ) ;
#36 = AXIS2_PLACEMENT_3D ( 'NONE', #97, #148, #261 ) ;
#37 = STYLED_ITEM ( 'NONE', ( #61 ), #184 ) ;
#38 =( NAMED_UNIT ( * ) SI_UNIT ( $, .STERADIAN. ) SOLID_ANGLE_UNIT ( ) );
#39 = ORIENTED_EDGE ( 'NONE', *, *, #103, .F. ) ;
#40 = ORIENTED_EDGE ( 'NONE', *, *, #197, .F. ) ;
#41 = EDGE_CURVE ( 'NONE', #108, #87, #217, .T. ) ;
#42 = CYLINDRICAL_SURFACE ( 'NONE', #262, 0.03901095000000000257 ) ;
#43 = CARTESIAN_POINT ( 'NONE',  ( 0.06250000000000000000, 7.654042494670956004E-18, 1.485000000000000764 ) ) ;
#44 = PRODUCT_DEFINITION_CONTEXT ( 'detailed design', #181, 'design' ) ;
#45 = CIRCLE ( 'NONE', #177, 0.03901095000000000257 ) ;
#46 = DIRECTION ( 'NONE',  ( 0.0000000000000000000, 0.0000000000000000000, 1.000000000000000000 ) ) ;
#47 = PRODUCT_DEFINITION ( 'UNKNOWN', '', #210, #44 ) ;
#48 = SURFACE_STYLE_FILL_AREA ( #71 ) ;
#49 = APPLICATION_CONTEXT ( 'automotive_design' ) ;
#50 = DIRECTION ( 'NONE',  ( 0.0000000000000000000, 0.0000000000000000000, -1.000000000000000000 ) ) ;
#51 = CONICAL_SURFACE ( 'NONE', #70, 0.04750000000000064587, 0.7853981633974457255 ) ;
#52 = DIRECTION ( 'NONE',  ( -0.0000000000000000000, -0.0000000000000000000, -1.000000000000000000 ) ) ;
#53 = CARTESIAN_POINT ( 'NONE',  ( -0.04750000000000064587, 0.0000000000000000000, 1.500000000000000222 ) ) ;
#54 = DIRECTION ( 'NONE',  ( 0.0000000000000000000, 0.0000000000000000000, 1.000000000000000000 ) ) ;
#55 = VECTOR ( 'NONE', #281, 39.37007874015748143 ) ;
#56 =( NAMED_UNIT ( * ) SI_UNIT ( $, .STERADIAN. ) SOLID_ANGLE_UNIT ( ) );
#57 = LENGTH_MEASURE_WITH_UNIT ( LENGTH_MEASURE( 0.02539999999999999897 ), #14 );
#58 = ORIENTED_EDGE ( 'NONE', *, *, #164, .T. ) ;
#59 = VERTEX_POINT ( 'NONE', #206 ) ;
#60 = COLOUR_RGB ( '',0.7921568627450980005, 0.8196078431372548767, 0.9333333333333333481 ) ;
#61 = PRESENTATION_STYLE_ASSIGNMENT (( #127 ) ) ;
#62 = DIRECTION ( 'NONE',  ( 0.0000000000000000000, 0.0000000000000000000, 1.000000000000000000 ) ) ;
#63 = ORIENTED_EDGE ( 'NONE', *, *, #165, .F. ) ;
#64 = ORIENTED_EDGE ( 'NONE', *, *, #124, .T. ) ;
#65 = AXIS2_PLACEMENT_3D ( 'NONE', #258, #125, #238 ) ;
#66 = EDGE_CURVE ( 'NONE', #129, #35, #233, .T. ) ;
#67 = DIRECTION ( 'NONE',  ( -1.224646799147353454E-16, -0.0000000000000000000, -1.000000000000000000 ) ) ;
#68 = DIRECTION ( 'NONE',  ( -1.224646799147353454E-16, -0.0000000000000000000, -1.000000000000000000 ) ) ;
#69 = DIRECTION ( 'NONE',  ( -0.0000000000000000000, -0.0000000000000000000, -1.000000000000000000 ) ) ;
#70 = AXIS2_PLACEMENT_3D ( 'NONE', #8, #28, #5 ) ;
#71 = FILL_AREA_STYLE ('',( #20 ) ) ;
#72 = FACE_OUTER_BOUND ( 'NONE', #156, .T. ) ;
#73 = FACE_OUTER_BOUND ( 'NONE', #17, .T. ) ;
#74 = FACE_OUTER_BOUND ( 'NONE', #174, .T. ) ;
#75 = DIRECTION ( 'NONE',  ( -1.224646799147353454E-16, -0.0000000000000000000, -1.000000000000000000 ) ) ;
#76 = LINE ( 'NONE', #193, #253 ) ;
#77 = DIRECTION ( 'NONE',  ( 0.0000000000000000000, 0.0000000000000000000, 1.000000000000000000 ) ) ;
#78 = AXIS2_PLACEMENT_3D ( 'NONE', #273, #68, #251 ) ;
#79 =( GEOMETRIC_REPRESENTATION_CONTEXT ( 3 ) GLOBAL_UNCERTAINTY_ASSIGNED_CONTEXT ( ( #252 ) ) GLOBAL_UNIT_ASSIGNED_CONTEXT ( ( #246, #178, #38 ) ) REPRESENTATION_CONTEXT ( 'NONE', 'WORKASPACE' ) );
#80 = ORIENTED_EDGE ( 'NONE', *, *, #180, .T. ) ;
#81 = FILL_AREA_STYLE ('',( #130 ) ) ;
#82 = ADVANCED_FACE ( 'NONE', ( #23 ), #42, .T. ) ;
#83 = DIRECTION ( 'NONE',  ( 1.000000000000000000, 0.0000000000000000000, 0.0000000000000000000 ) ) ;
#84 = EDGE_LOOP ( 'NONE', ( #64, #268 ) ) ;
#85 = LENGTH_MEASURE_WITH_UNIT ( LENGTH_MEASURE( 0.02539999999999999897 ), #107 );
#86 = ORIENTED_EDGE ( 'NONE', *, *, #160, .T. ) ;
#87 = VERTEX_POINT ( 'NONE', #94 ) ;
#88 = CARTESIAN_POINT ( 'NONE',  ( 0.0000000000000000000, 0.0000000000000000000, 1.500000000000000222 ) ) ;
#89 = DIRECTION ( 'NONE',  ( -1.000000000000000000, 0.0000000000000000000, 1.224646799147353700E-16 ) ) ;
#90 = PRODUCT_CONTEXT ( 'NONE', #49, 'mechanical' ) ;
#91 = SURFACE_STYLE_USAGE ( .BOTH. , #142 ) ;
#92 = CARTESIAN_POINT ( 'NONE',  ( -0.06249999999999996531, 0.0000000000000000000, 0.2892130222250905436 ) ) ;
#93 = AXIS2_PLACEMENT_3D ( 'NONE', #88, #50, #163 ) ;
#94 = CARTESIAN_POINT ( 'NONE',  ( -0.06250000000000000000, 0.0000000000000000000, 1.485000000000000764 ) ) ;
#95 = DIRECTION ( 'NONE',  ( 1.000000000000000000, 0.0000000000000000000, 0.0000000000000000000 ) ) ;
#96 = EDGE_CURVE ( 'NONE', #175, #106, #276, .T. ) ;
#97 = CARTESIAN_POINT ( 'NONE',  ( 3.541838019396895887E-17, 0.0000000000000000000, 0.2892130222250905436 ) ) ;
#98 = CIRCLE ( 'NONE', #113, 0.03901095000000000257 ) ;
#99 = CARTESIAN_POINT ( 'NONE',  ( 0.0000000000000000000, 0.0000000000000000000, 1.500000000000000222 ) ) ;
#100 = ADVANCED_FACE ( 'NONE', ( #72 ), #255, .T. ) ;
#101 = LINE ( 'NONE', #280, #266 ) ;
#102 = CIRCLE ( 'NONE', #65, 0.03901095000000000257 ) ;
#103 = EDGE_CURVE ( 'NONE', #175, #129, #45, .T. ) ;
#104 = ORIENTED_EDGE ( 'NONE', *, *, #279, .F. ) ;
#105 =( CONVERSION_BASED_UNIT ( 'INCH', #85 ) LENGTH_UNIT ( ) NAMED_UNIT ( #190 ) );
#106 = VERTEX_POINT ( 'NONE', #161 ) ;
#107 =( LENGTH_UNIT ( ) NAMED_UNIT ( * ) SI_UNIT ( $, .METRE. ) );
#108 = VERTEX_POINT ( 'NONE', #43 ) ;
#109 = DIRECTION ( 'NONE',  ( 1.000000000000000000, 0.0000000000000000000, 0.0000000000000000000 ) ) ;
#110 = EDGE_LOOP ( 'NONE', ( #40, #267, #230, #270 ) ) ;
#111 = CARTESIAN_POINT ( 'NONE',  ( 0.0000000000000000000, 0.0000000000000000000, 1.485000000000000764 ) ) ;
#112 = PRESENTATION_STYLE_ASSIGNMENT (( #91 ) ) ;
#113 = AXIS2_PLACEMENT_3D ( 'NONE', #172, #75, #214 ) ;
#114 = EDGE_CURVE ( 'NONE', #106, #247, #152, .T. ) ;
#115 = CARTESIAN_POINT ( 'NONE',  ( 0.0000000000000000000, 0.0000000000000000000, 1.500000000000000222 ) ) ;
#116 = PLANE ( 'NONE',  #176 ) ;
#117 = SHAPE_DEFINITION_REPRESENTATION ( #295, #184 ) ;
#118 =( CONVERSION_BASED_UNIT ( 'INCH', #208 ) LENGTH_UNIT ( ) NAMED_UNIT ( #195 ) );
#119 = MANIFOLD_SOLID_BREP ( 'Cut-Revolve1', #243 ) ;
#120 = FACE_OUTER_BOUND ( 'NONE', #153, .T. ) ;
#121 = DIRECTION ( 'NONE',  ( 1.000000000000000000, 0.0000000000000000000, 0.0000000000000000000 ) ) ;
#122 = FACE_OUTER_BOUND ( 'NONE', #110, .T. ) ;
#123 = CIRCLE ( 'NONE', #31, 0.06250000000000000000 ) ;
#124 = EDGE_CURVE ( 'NONE', #59, #12, #186, .T. ) ;
#125 = DIRECTION ( 'NONE',  ( -1.224646799147353454E-16, -0.0000000000000000000, -1.000000000000000000 ) ) ;
#126 = DIRECTION ( 'NONE',  ( -1.224646799147353454E-16, -0.0000000000000000000, -1.000000000000000000 ) ) ;
#127 = SURFACE_STYLE_USAGE ( .BOTH. , #128 ) ;
#128 = SURFACE_SIDE_STYLE ('',( #242 ) ) ;
#129 = VERTEX_POINT ( 'NONE', #240 ) ;
#130 = FILL_AREA_STYLE_COLOUR ( '', #227 ) ;
#131 = ORIENTED_EDGE ( 'NONE', *, *, #197, .T. ) ;
#132 = ORIENTED_EDGE ( 'NONE', *, *, #138, .F. ) ;
#133 = APPLICATION_PROTOCOL_DEFINITION ( 'draft international standard', 'automotive_design', 1998, #49 ) ;
#134 = ORIENTED_EDGE ( 'NONE', *, *, #180, .F. ) ;
#135 = PRESENTATION_LAYER_ASSIGNMENT (  '', '', ( #37 ) ) ;
#136 = ORIENTED_EDGE ( 'NONE', *, *, #229, .F. ) ;
#137 = CARTESIAN_POINT ( 'NONE',  ( 0.0000000000000000000, 0.0000000000000000000, 0.0000000000000000000 ) ) ;
#138 = EDGE_CURVE ( 'NONE', #108, #265, #76, .T. ) ;
#139 = CARTESIAN_POINT ( 'NONE',  ( 0.0000000000000000000, 0.0000000000000000000, 0.0000000000000000000 ) ) ;
#140 = AXIS2_PLACEMENT_3D ( 'NONE', #216, #219, #7 ) ;
#141 = DIRECTION ( 'NONE',  ( 1.000000000000000000, 0.0000000000000000000, -0.0000000000000000000 ) ) ;
#142 = SURFACE_SIDE_STYLE ('',( #48 ) ) ;
#143 = CARTESIAN_POINT ( 'NONE',  ( 0.0000000000000000000, 0.0000000000000000000, 0.0000000000000000000 ) ) ;
#144 = DIRECTION ( 'NONE',  ( -1.224646799147353454E-16, -0.0000000000000000000, -1.000000000000000000 ) ) ;
#145 = CARTESIAN_POINT ( 'NONE',  ( -0.03901095000000000257, 0.0000000000000000000, 9.554927009839491933E-18 ) ) ;
#146 = LINE ( 'NONE', #220, #285 ) ;
#147 = CONICAL_SURFACE ( 'NONE', #16, 0.03901095000000000257, 0.1745329251994338915 ) ;
#148 = DIRECTION ( 'NONE',  ( -1.224646799147353454E-16, -0.0000000000000000000, -1.000000000000000000 ) ) ;
#149 = DIRECTION ( 'NONE',  ( 1.000000000000000000, 0.0000000000000000000, 0.0000000000000000000 ) ) ;
#150 = CARTESIAN_POINT ( 'NONE',  ( 0.0000000000000000000, 0.0000000000000000000, 1.500000000000000222 ) ) ;
#151 = ORIENTED_EDGE ( 'NONE', *, *, #66, .F. ) ;
#152 = CIRCLE ( 'NONE', #78, 0.03901095000000000257 ) ;
#153 = EDGE_LOOP ( 'NONE', ( #18, #200 ) ) ;
#154 = ORIENTED_EDGE ( 'NONE', *, *, #293, .T. ) ;
#155 = ADVANCED_FACE ( 'NONE', ( #74 ), #147, .T. ) ;
#156 = EDGE_LOOP ( 'NONE', ( #132, #263, #288, #134 ) ) ;
#157 = ORIENTED_EDGE ( 'NONE', *, *, #124, .F. ) ;
#158 = AXIS2_PLACEMENT_3D ( 'NONE', #143, #3, #24 ) ;
#159 = FACE_OUTER_BOUND ( 'NONE', #202, .T. ) ;
#160 = EDGE_CURVE ( 'NONE', #12, #108, #146, .T. ) ;
#161 = CARTESIAN_POINT ( 'NONE',  ( 0.03901095000000000257, 4.777463504919744426E-18, 0.0000000000000000000 ) ) ;
#162 = CIRCLE ( 'NONE', #36, 0.06250000000000000000 ) ;
#163 = DIRECTION ( 'NONE',  ( -1.000000000000000000, 0.0000000000000000000, 0.0000000000000000000 ) ) ;
#164 = EDGE_CURVE ( 'NONE', #129, #247, #194, .T. ) ;
#165 = EDGE_CURVE ( 'NONE', #59, #87, #169, .T. ) ;
#166 = CARTESIAN_POINT ( 'NONE',  ( 0.0000000000000000000, 0.0000000000000000000, 1.500000000000000222 ) ) ;
#167 = CARTESIAN_POINT ( 'NONE',  ( 1.910449006669871395E-17, 0.0000000000000000000, 0.1559999999999999998 ) ) ;
#168 = CARTESIAN_POINT ( 'NONE',  ( 3.541838019396895887E-17, 0.0000000000000000000, 0.2892130222250905436 ) ) ;
#169 = LINE ( 'NONE', #53, #55 ) ;
#170 = VECTOR ( 'NONE', #67, 39.37007874015748143 ) ;
#171 = EDGE_CURVE ( 'NONE', #35, #265, #162, .T. ) ;
#172 = CARTESIAN_POINT ( 'NONE',  ( 1.910449006669871395E-17, 0.0000000000000000000, 0.1559999999999999998 ) ) ;
#173 = ADVANCED_FACE ( 'NONE', ( #120 ), #283, .F. ) ;
#174 = EDGE_LOOP ( 'NONE', ( #151, #39, #224, #80 ) ) ;
#175 = VERTEX_POINT ( 'NONE', #32 ) ;
#176 = AXIS2_PLACEMENT_3D ( 'NONE', #115, #46, #141 ) ;
#177 = AXIS2_PLACEMENT_3D ( 'NONE', #296, #277, #298 ) ;
#178 =( NAMED_UNIT ( * ) PLANE_ANGLE_UNIT ( ) SI_UNIT ( $, .RADIAN. ) );
#179 = ORIENTED_EDGE ( 'NONE', *, *, #160, .F. ) ;
#180 = EDGE_CURVE ( 'NONE', #265, #35, #207, .T. ) ;
#181 = APPLICATION_CONTEXT ( 'automotive_design' ) ;
#182 = ORIENTED_EDGE ( 'NONE', *, *, #171, .F. ) ;
#183 = ORIENTED_EDGE ( 'NONE', *, *, #114, .F. ) ;
#184 = ADVANCED_BREP_SHAPE_REPRESENTATION ( 'Micro_SEM-078-04X', ( #119, #249 ), #79 ) ;
#185 = CARTESIAN_POINT ( 'NONE',  ( 0.04750000000000064587, 6.735557395310482421E-18, 1.500000000000000222 ) ) ;
#186 = CIRCLE ( 'NONE', #21, 0.04750000000000064587 ) ;
#187 = DIRECTION ( 'NONE',  ( 1.000000000000000000, 0.0000000000000000000, 0.0000000000000000000 ) ) ;
#188 = DIRECTION ( 'NONE',  ( -1.000000000000000000, 0.0000000000000000000, 0.0000000000000000000 ) ) ;
#189 = DIRECTION ( 'NONE',  ( -1.224646799147353454E-16, -0.0000000000000000000, -1.000000000000000000 ) ) ;
#190 = DIMENSIONAL_EXPONENTS ( 1.000000000000000000, 0.0000000000000000000, 0.0000000000000000000, 0.0000000000000000000, 0.0000000000000000000, 0.0000000000000000000, 0.0000000000000000000 ) ;
#191 = CARTESIAN_POINT ( 'NONE',  ( -0.03901095000000000257, 0.0000000000000000000, 4.777463504919745966E-18 ) ) ;
#192 = CONICAL_SURFACE ( 'NONE', #140, 0.03901095000000000257, 0.1745329251994338915 ) ;
#193 = CARTESIAN_POINT ( 'NONE',  ( 0.06250000000000000000, 7.654042494670956004E-18, 1.500000000000000222 ) ) ;
#194 = LINE ( 'NONE', #191, #257 ) ;
#195 = DIMENSIONAL_EXPONENTS ( 1.000000000000000000, 0.0000000000000000000, 0.0000000000000000000, 0.0000000000000000000, 0.0000000000000000000, 0.0000000000000000000, 0.0000000000000000000 ) ;
#196 = DIRECTION ( 'NONE',  ( 1.224646799147353454E-16, 0.0000000000000000000, 1.000000000000000000 ) ) ;
#197 = EDGE_CURVE ( 'NONE', #129, #175, #98, .T. ) ;
#198 = CONICAL_SURFACE ( 'NONE', #93, 0.04750000000000064587, 0.7853981633974457255 ) ;
#199 =( NAMED_UNIT ( * ) PLANE_ANGLE_UNIT ( ) SI_UNIT ( $, .RADIAN. ) );
#200 = ORIENTED_EDGE ( 'NONE', *, *, #114, .T. ) ;
#201 = DIRECTION ( 'NONE',  ( 0.0000000000000000000, 0.0000000000000000000, -1.000000000000000000 ) ) ;
#202 = EDGE_LOOP ( 'NONE', ( #179, #157, #228, #245 ) ) ;
#203 =( GEOMETRIC_REPRESENTATION_CONTEXT ( 3 ) GLOBAL_UNCERTAINTY_ASSIGNED_CONTEXT ( ( #275 ) ) GLOBAL_UNIT_ASSIGNED_CONTEXT ( ( #118, #278, #56 ) ) REPRESENTATION_CONTEXT ( 'NONE', 'WORKASPACE' ) );
#204 = ORIENTED_EDGE ( 'NONE', *, *, #96, .T. ) ;
#205 = EDGE_LOOP ( 'NONE', ( #131, #204, #286, #15 ) ) ;
#206 = CARTESIAN_POINT ( 'NONE',  ( -0.04750000000000064587, 0.0000000000000000000, 1.500000000000000222 ) ) ;
#207 = CIRCLE ( 'NONE', #244, 0.06250000000000000000 ) ;
#208 = LENGTH_MEASURE_WITH_UNIT ( LENGTH_MEASURE( 0.02539999999999999897 ), #256 );
#209 = MECHANICAL_DESIGN_GEOMETRIC_PRESENTATION_REPRESENTATION (  '', ( #9 ), #203 ) ;
#210 = PRODUCT_DEFINITION_FORMATION_WITH_SPECIFIED_SOURCE ( 'ANY', '', #27, .NOT_KNOWN. ) ;
#211 = CARTESIAN_POINT ( 'NONE',  ( -0.03901094999999998869, 4.777463504919744426E-18, 0.1559999999999999998 ) ) ;
#212 = DIRECTION ( 'NONE',  ( 0.0000000000000000000, 0.0000000000000000000, -1.000000000000000000 ) ) ;
#213 = AXIS2_PLACEMENT_3D ( 'NONE', #231, #69, #188 ) ;
#214 = DIRECTION ( 'NONE',  ( -1.000000000000000000, 0.0000000000000000000, 0.0000000000000000000 ) ) ;
#215 = CARTESIAN_POINT ( 'NONE',  ( 0.0000000000000000000, 0.0000000000000000000, 0.0000000000000000000 ) ) ;
#216 = CARTESIAN_POINT ( 'NONE',  ( 1.910449006669871395E-17, 0.0000000000000000000, 0.1559999999999999998 ) ) ;
#217 = CIRCLE ( 'NONE', #2, 0.06250000000000000000 ) ;
#218 = MECHANICAL_DESIGN_GEOMETRIC_PRESENTATION_REPRESENTATION (  '', ( #37 ), #10 ) ;
#219 = DIRECTION ( 'NONE',  ( 1.224646799147353454E-16, 0.0000000000000000000, 1.000000000000000000 ) ) ;
#220 = CARTESIAN_POINT ( 'NONE',  ( 0.04750000000000064587, 5.817072295950006528E-18, 1.500000000000000222 ) ) ;
#221 = DIRECTION ( 'NONE',  ( -0.0000000000000000000, -0.0000000000000000000, -1.000000000000000000 ) ) ;
#222 = VECTOR ( 'NONE', #239, 39.37007874015748143 ) ;
#223 = FACE_OUTER_BOUND ( 'NONE', #84, .T. ) ;
#224 = ORIENTED_EDGE ( 'NONE', *, *, #248, .T. ) ;
#225 = ORIENTED_EDGE ( 'NONE', *, *, #103, .T. ) ;
#226 = PRESENTATION_LAYER_ASSIGNMENT (  '', '', ( #9 ) ) ;
#227 = COLOUR_RGB ( '',0.7921568627450980005, 0.8196078431372548767, 0.9333333333333333481 ) ;
#228 = ORIENTED_EDGE ( 'NONE', *, *, #165, .T. ) ;
#229 = EDGE_CURVE ( 'NONE', #87, #35, #259, .T. ) ;
#230 = ORIENTED_EDGE ( 'NONE', *, *, #171, .T. ) ;
#231 = CARTESIAN_POINT ( 'NONE',  ( 0.0000000000000000000, 0.0000000000000000000, 1.500000000000000222 ) ) ;
#232 = VECTOR ( 'NONE', #1, 39.37007874015747433 ) ;
#233 = LINE ( 'NONE', #211, #232 ) ;
#234 = ADVANCED_FACE ( 'NONE', ( #73 ), #51, .T. ) ;
#235 = CYLINDRICAL_SURFACE ( 'NONE', #158, 0.03901095000000000257 ) ;
#236 = CIRCLE ( 'NONE', #271, 0.04750000000000064587 ) ;
#237 = CARTESIAN_POINT ( 'NONE',  ( -0.06250000000000000000, 0.0000000000000000000, 1.500000000000000222 ) ) ;
#238 = DIRECTION ( 'NONE',  ( -1.000000000000000000, 0.0000000000000000000, 1.224646799147353700E-16 ) ) ;
#239 = DIRECTION ( 'NONE',  ( -0.0000000000000000000, -0.0000000000000000000, -1.000000000000000000 ) ) ;
#240 = CARTESIAN_POINT ( 'NONE',  ( -0.03901094999999998869, 6.215752999795350985E-18, 0.1559999999999999998 ) ) ;
#241 = CYLINDRICAL_SURFACE ( 'NONE', #290, 0.06250000000000000000 ) ;
#242 = SURFACE_STYLE_FILL_AREA ( #81 ) ;
#243 = CLOSED_SHELL ( 'NONE', ( #82, #269, #234, #287, #100, #6, #19, #155, #33, #173 ) ) ;
#244 = AXIS2_PLACEMENT_3D ( 'NONE', #168, #144, #95 ) ;
#245 = ORIENTED_EDGE ( 'NONE', *, *, #41, .F. ) ;
#246 =( CONVERSION_BASED_UNIT ( 'INCH', #57 ) LENGTH_UNIT ( ) NAMED_UNIT ( #282 ) );
#247 = VERTEX_POINT ( 'NONE', #145 ) ;
#248 = EDGE_CURVE ( 'NONE', #175, #265, #101, .T. ) ;
#249 = AXIS2_PLACEMENT_3D ( 'NONE', #139, #254, #25 ) ;
#250 = ORIENTED_EDGE ( 'NONE', *, *, #96, .F. ) ;
#251 = DIRECTION ( 'NONE',  ( -1.000000000000000000, 0.0000000000000000000, 1.224646799147353700E-16 ) ) ;
#252 = UNCERTAINTY_MEASURE_WITH_UNIT (LENGTH_MEASURE( 1.000000000000000082E-05 ), #246, 'distance_accuracy_value', 'NONE');
#253 = VECTOR ( 'NONE', #52, 39.37007874015748143 ) ;
#254 = DIRECTION ( 'NONE',  ( 0.0000000000000000000, 0.0000000000000000000, 1.000000000000000000 ) ) ;
#255 = CYLINDRICAL_SURFACE ( 'NONE', #213, 0.06250000000000000000 ) ;
#256 =( LENGTH_UNIT ( ) NAMED_UNIT ( * ) SI_UNIT ( $, .METRE. ) );
#257 = VECTOR ( 'NONE', #126, 39.37007874015748143 ) ;
#258 = CARTESIAN_POINT ( 'NONE',  ( 5.850705389343263536E-34, 0.0000000000000000000, 4.777463504919745966E-18 ) ) ;
#259 = LINE ( 'NONE', #237, #222 ) ;
#260 = EDGE_CURVE ( 'NONE', #247, #106, #102, .T. ) ;
#261 = DIRECTION ( 'NONE',  ( 1.000000000000000000, 0.0000000000000000000, 0.0000000000000000000 ) ) ;
#262 = AXIS2_PLACEMENT_3D ( 'NONE', #137, #189, #89 ) ;
#263 = ORIENTED_EDGE ( 'NONE', *, *, #41, .T. ) ;
#264 =( NAMED_UNIT ( * ) SI_UNIT ( $, .STERADIAN. ) SOLID_ANGLE_UNIT ( ) );
#265 = VERTEX_POINT ( 'NONE', #29 ) ;
#266 = VECTOR ( 'NONE', #30, 39.37007874015748143 ) ;
#267 = ORIENTED_EDGE ( 'NONE', *, *, #66, .T. ) ;
#268 = ORIENTED_EDGE ( 'NONE', *, *, #279, .T. ) ;
#269 = ADVANCED_FACE ( 'NONE', ( #122 ), #192, .T. ) ;
#270 = ORIENTED_EDGE ( 'NONE', *, *, #248, .F. ) ;
#271 = AXIS2_PLACEMENT_3D ( 'NONE', #99, #62, #109 ) ;
#272 = CARTESIAN_POINT ( 'NONE',  ( 0.03901095000000000257, 4.777463504919744426E-18, -4.777463504919745966E-18 ) ) ;
#273 = CARTESIAN_POINT ( 'NONE',  ( 5.850705389343263536E-34, 0.0000000000000000000, 4.777463504919745966E-18 ) ) ;
#274 = PRODUCT_RELATED_PRODUCT_CATEGORY ( 'part', '', ( #27 ) ) ;
#275 = UNCERTAINTY_MEASURE_WITH_UNIT (LENGTH_MEASURE( 1.000000000000000082E-05 ), #118, 'distance_accuracy_value', 'NONE');
#276 = LINE ( 'NONE', #272, #170 ) ;
#277 = DIRECTION ( 'NONE',  ( -1.224646799147353454E-16, -0.0000000000000000000, -1.000000000000000000 ) ) ;
#278 =( NAMED_UNIT ( * ) PLANE_ANGLE_UNIT ( ) SI_UNIT ( $, .RADIAN. ) );
#279 = EDGE_CURVE ( 'NONE', #12, #59, #236, .T. ) ;
#280 = CARTESIAN_POINT ( 'NONE',  ( 0.03901095000000002339, 0.0000000000000000000, 0.1559999999999999998 ) ) ;
#281 = DIRECTION ( 'NONE',  ( -0.7071067811865456854, 0.0000000000000000000, -0.7071067811865493491 ) ) ;
#282 = DIMENSIONAL_EXPONENTS ( 1.000000000000000000, 0.0000000000000000000, 0.0000000000000000000, 0.0000000000000000000, 0.0000000000000000000, 0.0000000000000000000, 0.0000000000000000000 ) ;
#283 = PLANE ( 'NONE',  #26 ) ;
#284 = DIRECTION ( 'NONE',  ( 1.000000000000000000, 0.0000000000000000000, -0.0000000000000000000 ) ) ;
#285 = VECTOR ( 'NONE', #4, 39.37007874015748143 ) ;
#286 = ORIENTED_EDGE ( 'NONE', *, *, #260, .F. ) ;
#287 = ADVANCED_FACE ( 'NONE', ( #11 ), #241, .T. ) ;
#288 = ORIENTED_EDGE ( 'NONE', *, *, #229, .T. ) ;
#289 = EDGE_LOOP ( 'NONE', ( #250, #225, #58, #183 ) ) ;
#290 = AXIS2_PLACEMENT_3D ( 'NONE', #150, #221, #291 ) ;
#291 = DIRECTION ( 'NONE',  ( -1.000000000000000000, 0.0000000000000000000, 0.0000000000000000000 ) ) ;
#292 = ORIENTED_EDGE ( 'NONE', *, *, #293, .F. ) ;
#293 = EDGE_CURVE ( 'NONE', #87, #108, #123, .T. ) ;
#294 = EDGE_LOOP ( 'NONE', ( #154, #13, #182, #136 ) ) ;
#295 = PRODUCT_DEFINITION_SHAPE ( 'NONE', 'NONE',  #47 ) ;
#296 = CARTESIAN_POINT ( 'NONE',  ( 1.910449006669871395E-17, 0.0000000000000000000, 0.1559999999999999998 ) ) ;
#297 = FACE_OUTER_BOUND ( 'NONE', #289, .T. ) ;
#298 = DIRECTION ( 'NONE',  ( -1.000000000000000000, 0.0000000000000000000, 0.0000000000000000000 ) ) ;
#299 = UNCERTAINTY_MEASURE_WITH_UNIT (LENGTH_MEASURE( 1.000000000000000082E-05 ), #105, 'distance_accuracy_value', 'NONE');
ENDSEC;
END-ISO-10303-21;
