ISO-10303-21;
HEADER;
FILE_DESCRIPTION (( 'STEP AP214' ),
    '1' );
FILE_NAME ('82519.STEP',
    '2023-06-23T05:55:36',
    ( '' ),
    ( '' ),
    'SwSTEP 2.0',
    'SolidWorks 2023',
    '' );
FILE_SCHEMA (( 'AUTOMOTIVE_DESIGN' ));
ENDSEC;

DATA;
#1 =( GEOMETRIC_REPRESENTATION_CONTEXT ( 3 ) GLOBAL_UNCERTAINTY_ASSIGNED_CONTEXT ( ( #38 ) ) GLOBAL_UNIT_ASSIGNED_CONTEXT ( ( #296, #251, #135 ) ) REPRESENTATION_CONTEXT ( 'NONE', 'WORKASPACE' ) );
#2 = VECTOR ( 'NONE', #83, 39.37007874015748143 ) ;
#3 = ADVANCED_FACE ( 'NONE', ( #169 ), #46, .T. ) ;
#4 = CARTESIAN_POINT ( 'NONE',  ( 0.09375000000000001388, 3.000000000000000444, 1.148106374200644325E-17 ) ) ;
#5 =( GEOMETRIC_REPRESENTATION_CONTEXT ( 3 ) GLOBAL_UNCERTAINTY_ASSIGNED_CONTEXT ( ( #239 ) ) GLOBAL_UNIT_ASSIGNED_CONTEXT ( ( #11, #185, #229 ) ) REPRESENTATION_CONTEXT ( 'NONE', 'WORKASPACE' ) );
#6 = AXIS2_PLACEMENT_3D ( 'NONE', #55, #79, #270 ) ;
#7 =( LENGTH_UNIT ( ) NAMED_UNIT ( * ) SI_UNIT ( $, .METRE. ) );
#8 = LINE ( 'NONE', #59, #2 ) ;
#9 = CARTESIAN_POINT ( 'NONE',  ( 0.09375000000000001388, 3.000000000000000444, 0.000000000000000000 ) ) ;
#10 = PRODUCT_DEFINITION_CONTEXT ( 'detailed design', #163, 'design' ) ;
#11 =( CONVERSION_BASED_UNIT ( 'INCH', #195 ) LENGTH_UNIT ( ) NAMED_UNIT ( #257 ) );
#12 = LENGTH_MEASURE_WITH_UNIT ( LENGTH_MEASURE( 0.02539999999999999897 ), #20 );
#13 = AXIS2_PLACEMENT_3D ( 'NONE', #183, #129, #104 ) ;
#14 = PRESENTATION_LAYER_ASSIGNMENT (  '', '', ( #77 ) ) ;
#15 = LENGTH_MEASURE_WITH_UNIT ( LENGTH_MEASURE( 0.02539999999999999897 ), #230 );
#16 = ORIENTED_EDGE ( 'NONE', *, *, #97, .T. ) ;
#17 = LINE ( 'NONE', #262, #116 ) ;
#18 = SURFACE_STYLE_FILL_AREA ( #298 ) ;
#19 = LENGTH_MEASURE_WITH_UNIT ( LENGTH_MEASURE( 0.02539999999999999897 ), #119 );
#20 =( LENGTH_UNIT ( ) NAMED_UNIT ( * ) SI_UNIT ( $, .METRE. ) );
#21 = CARTESIAN_POINT ( 'NONE',  ( 0.000000000000000000, 0.000000000000000000, -0.09375000000000001388 ) ) ;
#22 = CIRCLE ( 'NONE', #62, 0.09375000000000001388 ) ;
#23 = PLANE ( 'NONE',  #128 ) ;
#24 = CARTESIAN_POINT ( 'NONE',  ( 0.000000000000000000, 0.000000000000000000, 0.000000000000000000 ) ) ;
#25 = CIRCLE ( 'NONE', #13, 0.09375000000000006939 ) ;
#26 = DIRECTION ( 'NONE',  ( -0.000000000000000000, -1.000000000000000000, -0.000000000000000000 ) ) ;
#27 = LENGTH_MEASURE_WITH_UNIT ( LENGTH_MEASURE( 0.02539999999999999897 ), #7 );
#28 = AXIS2_PLACEMENT_3D ( 'NONE', #283, #52, #73 ) ;
#29 = PLANE ( 'NONE',  #237 ) ;
#30 =( NAMED_UNIT ( * ) PLANE_ANGLE_UNIT ( ) SI_UNIT ( $, .RADIAN. ) );
#31 = EDGE_CURVE ( 'NONE', #112, #238, #25, .T. ) ;
#32 = AXIS2_PLACEMENT_3D ( 'NONE', #281, #217, #151 ) ;
#33 = DIMENSIONAL_EXPONENTS ( 1.000000000000000000, 0.000000000000000000, 0.000000000000000000, 0.000000000000000000, 0.000000000000000000, 0.000000000000000000, 0.000000000000000000 ) ;
#34 = CARTESIAN_POINT ( 'NONE',  ( 0.000000000000000000, 0.000000000000000000, 0.000000000000000000 ) ) ;
#35 = CARTESIAN_POINT ( 'NONE',  ( 0.000000000000000000, 1.187500000000000000, -0.09375000000000001388 ) ) ;
#36 = SURFACE_STYLE_USAGE ( .BOTH. , #114 ) ;
#37 = DIMENSIONAL_EXPONENTS ( 1.000000000000000000, 0.000000000000000000, 0.000000000000000000, 0.000000000000000000, 0.000000000000000000, 0.000000000000000000, 0.000000000000000000 ) ;
#38 = UNCERTAINTY_MEASURE_WITH_UNIT (LENGTH_MEASURE( 1.000000000000000082E-05 ), #296, 'distance_accuracy_value', 'NONE');
#39 = ADVANCED_FACE ( 'NONE', ( #293 ), #273, .F. ) ;
#40 = ORIENTED_EDGE ( 'NONE', *, *, #44, .F. ) ;
#41 = DIRECTION ( 'NONE',  ( 0.000000000000000000, -1.000000000000000000, -0.000000000000000000 ) ) ;
#42 = APPLICATION_CONTEXT ( 'automotive_design' ) ;
#43 = VERTEX_POINT ( 'NONE', #290 ) ;
#44 = EDGE_CURVE ( 'NONE', #139, #253, #22, .T. ) ;
#45 = SURFACE_STYLE_FILL_AREA ( #201 ) ;
#46 = PLANE ( 'NONE',  #210 ) ;
#47 = UNCERTAINTY_MEASURE_WITH_UNIT (LENGTH_MEASURE( 1.000000000000000082E-05 ), #212, 'distance_accuracy_value', 'NONE');
#48 = STYLED_ITEM ( 'NONE', ( #64 ), #75 ) ;
#49 = DIRECTION ( 'NONE',  ( -0.000000000000000000, -1.000000000000000000, -0.000000000000000000 ) ) ;
#50 = VECTOR ( 'NONE', #286, 39.37007874015748143 ) ;
#51 = DIRECTION ( 'NONE',  ( -3.378335997647874040E-17, 1.000000000000000000, 0.000000000000000000 ) ) ;
#52 = DIRECTION ( 'NONE',  ( -3.378335997647874040E-17, 1.000000000000000000, -0.000000000000000000 ) ) ;
#53 = CARTESIAN_POINT ( 'NONE',  ( 0.000000000000000000, 0.000000000000000000, 0.000000000000000000 ) ) ;
#54 = AXIS2_PLACEMENT_3D ( 'NONE', #127, #26, #96 ) ;
#55 = CARTESIAN_POINT ( 'NONE',  ( 0.000000000000000000, 0.000000000000000000, 0.000000000000000000 ) ) ;
#56 = AXIS2_PLACEMENT_3D ( 'NONE', #9, #61, #222 ) ;
#57 = CIRCLE ( 'NONE', #32, 0.09375000000000001388 ) ;
#58 = APPLICATION_PROTOCOL_DEFINITION ( 'draft international standard', 'automotive_design', 1998, #163 ) ;
#59 = CARTESIAN_POINT ( 'NONE',  ( 0.09374999999999997224, 3.000000000000000444, 1.148106374200644171E-17 ) ) ;
#60 = ADVANCED_FACE ( 'NONE', ( #132 ), #29, .T. ) ;
#61 = DIRECTION ( 'NONE',  ( 3.378335997647874040E-17, -1.000000000000000000, 0.000000000000000000 ) ) ;
#62 = AXIS2_PLACEMENT_3D ( 'NONE', #268, #181, #248 ) ;
#63 = EDGE_LOOP ( 'NONE', ( #164, #261, #40, #235 ) ) ;
#64 = PRESENTATION_STYLE_ASSIGNMENT (( #279 ) ) ;
#65 = ORIENTED_EDGE ( 'NONE', *, *, #31, .T. ) ;
#66 = VERTEX_POINT ( 'NONE', #35 ) ;
#67 = AXIS2_PLACEMENT_3D ( 'NONE', #24, #145, #243 ) ;
#68 =( NAMED_UNIT ( * ) PLANE_ANGLE_UNIT ( ) SI_UNIT ( $, .RADIAN. ) );
#69 = MANIFOLD_SOLID_BREP ( 'Revolve - Cutting Edge', #109 ) ;
#70 = SURFACE_SIDE_STYLE ('',( #45 ) ) ;
#71 = EDGE_LOOP ( 'NONE', ( #214, #233 ) ) ;
#72 = DIRECTION ( 'NONE',  ( -3.378335997647874040E-17, 1.000000000000000000, -0.000000000000000000 ) ) ;
#73 = DIRECTION ( 'NONE',  ( -1.000000000000000000, 0.000000000000000000, 0.000000000000000000 ) ) ;
#74 = AXIS2_PLACEMENT_3D ( 'NONE', #175, #49, #123 ) ;
#75 = ADVANCED_FACE ( 'NONE', ( #277 ), #209, .T. ) ;
#76 = DIRECTION ( 'NONE',  ( -0.000000000000000000, -1.000000000000000000, -0.000000000000000000 ) ) ;
#77 = STYLED_ITEM ( 'NONE', ( #131 ), #272 ) ;
#78 = SURFACE_STYLE_USAGE ( .BOTH. , #155 ) ;
#79 = DIRECTION ( 'NONE',  ( 0.000000000000000000, 0.000000000000000000, 1.000000000000000000 ) ) ;
#80 =( NAMED_UNIT ( * ) SI_UNIT ( $, .STERADIAN. ) SOLID_ANGLE_UNIT ( ) );
#81 =( GEOMETRIC_REPRESENTATION_CONTEXT ( 3 ) GLOBAL_UNCERTAINTY_ASSIGNED_CONTEXT ( ( #47 ) ) GLOBAL_UNIT_ASSIGNED_CONTEXT ( ( #212, #68, #299 ) ) REPRESENTATION_CONTEXT ( 'NONE', 'WORKASPACE' ) );
#82 = EDGE_CURVE ( 'NONE', #66, #43, #57, .T. ) ;
#83 = DIRECTION ( 'NONE',  ( -3.378335997647874040E-17, 1.000000000000000000, -0.000000000000000000 ) ) ;
#84 = EDGE_LOOP ( 'NONE', ( #120, #16, #227, #159 ) ) ;
#85 = SURFACE_SIDE_STYLE ('',( #143 ) ) ;
#86 = MECHANICAL_DESIGN_GEOMETRIC_PRESENTATION_REPRESENTATION (  '', ( #48 ), #275 ) ;
#87 = SURFACE_SIDE_STYLE ('',( #18 ) ) ;
#88 = ORIENTED_EDGE ( 'NONE', *, *, #194, .F. ) ;
#89 =( NAMED_UNIT ( * ) SI_UNIT ( $, .STERADIAN. ) SOLID_ANGLE_UNIT ( ) );
#90 = EDGE_LOOP ( 'NONE', ( #115, #95 ) ) ;
#91 = PRESENTATION_LAYER_ASSIGNMENT (  '', '', ( #255 ) ) ;
#92 = EDGE_CURVE ( 'NONE', #43, #253, #152, .T. ) ;
#93 = CIRCLE ( 'NONE', #28, 0.09375000000000001388 ) ;
#94 = PRESENTATION_STYLE_ASSIGNMENT (( #258 ) ) ;
#95 = ORIENTED_EDGE ( 'NONE', *, *, #130, .T. ) ;
#96 = DIRECTION ( 'NONE',  ( 0.000000000000000000, 0.000000000000000000, -1.000000000000000000 ) ) ;
#97 = EDGE_CURVE ( 'NONE', #43, #66, #232, .T. ) ;
#98 = MECHANICAL_DESIGN_GEOMETRIC_PRESENTATION_REPRESENTATION (  '', ( #231 ), #1 ) ;
#99 =( NAMED_UNIT ( * ) PLANE_ANGLE_UNIT ( ) SI_UNIT ( $, .RADIAN. ) );
#100 = CARTESIAN_POINT ( 'NONE',  ( 7.582401355855259480E-33, 1.187499999999999778, 0.000000000000000000 ) ) ;
#101 =( NAMED_UNIT ( * ) SI_UNIT ( $, .STERADIAN. ) SOLID_ANGLE_UNIT ( ) );
#102 = FACE_OUTER_BOUND ( 'NONE', #110, .T. ) ;
#103 = DIRECTION ( 'NONE',  ( -3.378335997647874040E-17, 1.000000000000000000, -0.000000000000000000 ) ) ;
#104 = DIRECTION ( 'NONE',  ( -1.000000000000000000, 0.000000000000000000, 0.000000000000000000 ) ) ;
#105 = FILL_AREA_STYLE ('',( #156 ) ) ;
#106 = FILL_AREA_STYLE_COLOUR ( '', #198 ) ;
#107 = ADVANCED_FACE ( 'NONE', ( #263 ), #23, .F. ) ;
#108 = FILL_AREA_STYLE ('',( #106 ) ) ;
#109 = CLOSED_SHELL ( 'NONE', ( #118, #3, #75, #60 ) ) ;
#110 = EDGE_LOOP ( 'NONE', ( #133, #182, #206, #88 ) ) ;
#111 = CARTESIAN_POINT ( 'NONE',  ( 0.000000000000000000, 0.000000000000000000, -0.09375000000000001388 ) ) ;
#112 = VERTEX_POINT ( 'NONE', #4 ) ;
#113 = ADVANCED_FACE ( 'NONE', ( #102 ), #125, .T. ) ;
#114 = SURFACE_SIDE_STYLE ('',( #188 ) ) ;
#115 = ORIENTED_EDGE ( 'NONE', *, *, #44, .T. ) ;
#116 = VECTOR ( 'NONE', #171, 39.37007874015748143 ) ;
#117 = ORIENTED_EDGE ( 'NONE', *, *, #282, .F. ) ;
#118 = ADVANCED_FACE ( 'NONE', ( #150 ), #124, .T. ) ;
#119 =( LENGTH_UNIT ( ) NAMED_UNIT ( * ) SI_UNIT ( $, .METRE. ) );
#120 = ORIENTED_EDGE ( 'NONE', *, *, #92, .F. ) ;
#121 = COLOUR_RGB ( '',1.000000000000000000, 0.000000000000000000, 0.000000000000000000 ) ;
#122 = FACE_OUTER_BOUND ( 'NONE', #280, .T. ) ;
#123 = DIRECTION ( 'NONE',  ( 0.000000000000000000, 0.000000000000000000, -1.000000000000000000 ) ) ;
#124 = CYLINDRICAL_SURFACE ( 'NONE', #74, 0.09375000000000001388 ) ;
#125 = CYLINDRICAL_SURFACE ( 'NONE', #211, 0.09375000000000004163 ) ;
#126 = PRESENTATION_LAYER_ASSIGNMENT (  '', '', ( #256 ) ) ;
#127 = CARTESIAN_POINT ( 'NONE',  ( 0.000000000000000000, 1.187500000000000000, 0.000000000000000000 ) ) ;
#128 = AXIS2_PLACEMENT_3D ( 'NONE', #219, #51, #242 ) ;
#129 = DIRECTION ( 'NONE',  ( -3.378335997647874040E-17, 1.000000000000000000, -0.000000000000000000 ) ) ;
#130 = EDGE_CURVE ( 'NONE', #253, #139, #215, .T. ) ;
#131 = PRESENTATION_STYLE_ASSIGNMENT (( #78 ) ) ;
#132 = FACE_OUTER_BOUND ( 'NONE', #90, .T. ) ;
#133 = ORIENTED_EDGE ( 'NONE', *, *, #189, .T. ) ;
#134 = AXIS2_PLACEMENT_3D ( 'NONE', #308, #216, #173 ) ;
#135 =( NAMED_UNIT ( * ) SI_UNIT ( $, .STERADIAN. ) SOLID_ANGLE_UNIT ( ) );
#136 = DIMENSIONAL_EXPONENTS ( 1.000000000000000000, 0.000000000000000000, 0.000000000000000000, 0.000000000000000000, 0.000000000000000000, 0.000000000000000000, 0.000000000000000000 ) ;
#137 = SHAPE_DEFINITION_REPRESENTATION ( #146, #220 ) ;
#138 = FILL_AREA_STYLE_COLOUR ( '', #186 ) ;
#139 = VERTEX_POINT ( 'NONE', #21 ) ;
#140 = DIMENSIONAL_EXPONENTS ( 1.000000000000000000, 0.000000000000000000, 0.000000000000000000, 0.000000000000000000, 0.000000000000000000, 0.000000000000000000, 0.000000000000000000 ) ;
#141 =( NAMED_UNIT ( * ) PLANE_ANGLE_UNIT ( ) SI_UNIT ( $, .RADIAN. ) );
#142 = EDGE_LOOP ( 'NONE', ( #144, #65 ) ) ;
#143 = SURFACE_STYLE_FILL_AREA ( #234 ) ;
#144 = ORIENTED_EDGE ( 'NONE', *, *, #177, .T. ) ;
#145 = DIRECTION ( 'NONE',  ( -0.000000000000000000, -1.000000000000000000, -0.000000000000000000 ) ) ;
#146 = PRODUCT_DEFINITION_SHAPE ( 'NONE', 'NONE',  #306 ) ;
#147 = COLOUR_RGB ( '',1.000000000000000000, 0.000000000000000000, 0.000000000000000000 ) ;
#148 = DIRECTION ( 'NONE',  ( -1.000000000000000000, 0.000000000000000000, 0.000000000000000000 ) ) ;
#149 = UNCERTAINTY_MEASURE_WITH_UNIT (LENGTH_MEASURE( 1.000000000000000082E-05 ), #260, 'distance_accuracy_value', 'NONE');
#150 = FACE_OUTER_BOUND ( 'NONE', #63, .T. ) ;
#151 = DIRECTION ( 'NONE',  ( 0.000000000000000000, 0.000000000000000000, -1.000000000000000000 ) ) ;
#152 = LINE ( 'NONE', #265, #176 ) ;
#153 = PRODUCT_DEFINITION_FORMATION_WITH_SPECIFIED_SOURCE ( 'ANY', '', #301, .NOT_KNOWN. ) ;
#154 = PRODUCT_CONTEXT ( 'NONE', #42, 'mechanical' ) ;
#155 = SURFACE_SIDE_STYLE ('',( #271 ) ) ;
#156 = FILL_AREA_STYLE_COLOUR ( '', #266 ) ;
#157 = LENGTH_MEASURE_WITH_UNIT ( LENGTH_MEASURE( 0.02539999999999999897 ), #289 );
#158 = SURFACE_STYLE_FILL_AREA ( #108 ) ;
#159 = ORIENTED_EDGE ( 'NONE', *, *, #130, .F. ) ;
#160 = CARTESIAN_POINT ( 'NONE',  ( -0.09375000000000013878, 3.000000000000000444, 0.000000000000000000 ) ) ;
#161 = CLOSED_SHELL ( 'NONE', ( #113, #107, #204, #39 ) ) ;
#162 =( GEOMETRIC_REPRESENTATION_CONTEXT ( 3 ) GLOBAL_UNCERTAINTY_ASSIGNED_CONTEXT ( ( #274 ) ) GLOBAL_UNIT_ASSIGNED_CONTEXT ( ( #292, #247, #80 ) ) REPRESENTATION_CONTEXT ( 'NONE', 'WORKASPACE' ) );
#163 = APPLICATION_CONTEXT ( 'automotive_design' ) ;
#164 = ORIENTED_EDGE ( 'NONE', *, *, #82, .T. ) ;
#165 = ORIENTED_EDGE ( 'NONE', *, *, #31, .F. ) ;
#166 =( CONVERSION_BASED_UNIT ( 'INCH', #15 ) LENGTH_UNIT ( ) NAMED_UNIT ( #254 ) );
#167 = STYLED_ITEM ( 'NONE', ( #191 ), #3 ) ;
#168 = CARTESIAN_POINT ( 'NONE',  ( 0.000000000000000000, 1.187500000000000000, 0.000000000000000000 ) ) ;
#169 = FACE_OUTER_BOUND ( 'NONE', #213, .T. ) ;
#170 = PRESENTATION_LAYER_ASSIGNMENT (  '', '', ( #231 ) ) ;
#171 = DIRECTION ( 'NONE',  ( -3.378335997647874040E-17, 1.000000000000000000, -0.000000000000000000 ) ) ;
#172 = CARTESIAN_POINT ( 'NONE',  ( -0.09375000000000001388, 1.187499999999999778, 0.000000000000000000 ) ) ;
#173 = DIRECTION ( 'NONE',  ( -1.000000000000000000, 0.000000000000000000, 0.000000000000000000 ) ) ;
#174 = DIRECTION ( 'NONE',  ( -3.378335997647874040E-17, 1.000000000000000000, -0.000000000000000000 ) ) ;
#175 = CARTESIAN_POINT ( 'NONE',  ( 0.000000000000000000, 0.000000000000000000, 0.000000000000000000 ) ) ;
#176 = VECTOR ( 'NONE', #76, 39.37007874015748143 ) ;
#177 = EDGE_CURVE ( 'NONE', #238, #112, #294, .T. ) ;
#178 = DIRECTION ( 'NONE',  ( -1.000000000000000000, 0.000000000000000000, 0.000000000000000000 ) ) ;
#179 = COLOUR_RGB ( '',0.7921568627450980005, 0.8196078431372548767, 0.9333333333333333481 ) ;
#180 =( GEOMETRIC_REPRESENTATION_CONTEXT ( 3 ) GLOBAL_UNCERTAINTY_ASSIGNED_CONTEXT ( ( #149 ) ) GLOBAL_UNIT_ASSIGNED_CONTEXT ( ( #260, #99, #101 ) ) REPRESENTATION_CONTEXT ( 'NONE', 'WORKASPACE' ) );
#181 = DIRECTION ( 'NONE',  ( -0.000000000000000000, -1.000000000000000000, -0.000000000000000000 ) ) ;
#182 = ORIENTED_EDGE ( 'NONE', *, *, #282, .T. ) ;
#183 = CARTESIAN_POINT ( 'NONE',  ( -6.123233995736772199E-17, 3.000000000000000444, 0.000000000000000000 ) ) ;
#184 = ORIENTED_EDGE ( 'NONE', *, *, #207, .T. ) ;
#185 =( NAMED_UNIT ( * ) PLANE_ANGLE_UNIT ( ) SI_UNIT ( $, .RADIAN. ) );
#186 = COLOUR_RGB ( '',1.000000000000000000, 0.000000000000000000, 0.000000000000000000 ) ;
#187 = UNCERTAINTY_MEASURE_WITH_UNIT (LENGTH_MEASURE( 1.000000000000000082E-05 ), #224, 'distance_accuracy_value', 'NONE');
#188 = SURFACE_STYLE_FILL_AREA ( #259 ) ;
#189 = EDGE_CURVE ( 'NONE', #192, #302, #93, .T. ) ;
#190 = PRESENTATION_STYLE_ASSIGNMENT (( #225 ) ) ;
#191 = PRESENTATION_STYLE_ASSIGNMENT (( #36 ) ) ;
#192 = VERTEX_POINT ( 'NONE', #172 ) ;
#193 =( GEOMETRIC_REPRESENTATION_CONTEXT ( 3 ) GLOBAL_UNCERTAINTY_ASSIGNED_CONTEXT ( ( #187 ) ) GLOBAL_UNIT_ASSIGNED_CONTEXT ( ( #224, #30, #249 ) ) REPRESENTATION_CONTEXT ( 'NONE', 'WORKASPACE' ) );
#194 = EDGE_CURVE ( 'NONE', #192, #238, #17, .T. ) ;
#195 = LENGTH_MEASURE_WITH_UNIT ( LENGTH_MEASURE( 0.02539999999999999897 ), #278 );
#196 = DIRECTION ( 'NONE',  ( -1.000000000000000000, 0.000000000000000000, 0.000000000000000000 ) ) ;
#197 = CARTESIAN_POINT ( 'NONE',  ( -6.123233995736772199E-17, 3.000000000000000444, 0.000000000000000000 ) ) ;
#198 = COLOUR_RGB ( '',1.000000000000000000, 0.000000000000000000, 0.000000000000000000 ) ;
#199 = MECHANICAL_DESIGN_GEOMETRIC_PRESENTATION_REPRESENTATION (  '', ( #77 ), #162 ) ;
#200 = DIRECTION ( 'NONE',  ( 0.000000000000000000, 0.000000000000000000, -1.000000000000000000 ) ) ;
#201 = FILL_AREA_STYLE ('',( #264 ) ) ;
#202 = MECHANICAL_DESIGN_GEOMETRIC_PRESENTATION_REPRESENTATION (  '', ( #167 ), #81 ) ;
#203 = CARTESIAN_POINT ( 'NONE',  ( 1.148106374200643863E-17, 0.000000000000000000, 0.09375000000000001388 ) ) ;
#204 = ADVANCED_FACE ( 'NONE', ( #122 ), #305, .T. ) ;
#205 = AXIS2_PLACEMENT_3D ( 'NONE', #197, #72, #148 ) ;
#206 = ORIENTED_EDGE ( 'NONE', *, *, #177, .F. ) ;
#207 = EDGE_CURVE ( 'NONE', #302, #192, #284, .T. ) ;
#208 = ORIENTED_EDGE ( 'NONE', *, *, #194, .T. ) ;
#209 = CYLINDRICAL_SURFACE ( 'NONE', #67, 0.09375000000000001388 ) ;
#210 = AXIS2_PLACEMENT_3D ( 'NONE', #168, #287, #267 ) ;
#211 = AXIS2_PLACEMENT_3D ( 'NONE', #218, #174, #196 ) ;
#212 =( CONVERSION_BASED_UNIT ( 'INCH', #12 ) LENGTH_UNIT ( ) NAMED_UNIT ( #33 ) );
#213 = EDGE_LOOP ( 'NONE', ( #295, #276 ) ) ;
#214 = ORIENTED_EDGE ( 'NONE', *, *, #189, .F. ) ;
#215 = CIRCLE ( 'NONE', #246, 0.09375000000000001388 ) ;
#216 = DIRECTION ( 'NONE',  ( -3.378335997647874040E-17, 1.000000000000000000, -0.000000000000000000 ) ) ;
#217 = DIRECTION ( 'NONE',  ( -0.000000000000000000, -1.000000000000000000, -0.000000000000000000 ) ) ;
#218 = CARTESIAN_POINT ( 'NONE',  ( -6.123233995736772199E-17, 3.000000000000000444, 0.000000000000000000 ) ) ;
#219 = CARTESIAN_POINT ( 'NONE',  ( 5.349915990470371091E-35, 1.187500000000000000, 0.000000000000000000 ) ) ;
#220 = ADVANCED_BREP_SHAPE_REPRESENTATION ( '82519', ( #69, #272, #6 ), #193 ) ;
#221 = CARTESIAN_POINT ( 'NONE',  ( 0.09375000000000001388, 1.187499999999999778, 1.148106374200644325E-17 ) ) ;
#222 = DIRECTION ( 'NONE',  ( 1.000000000000000000, 3.378335997647874040E-17, 0.000000000000000000 ) ) ;
#223 = PRESENTATION_LAYER_ASSIGNMENT (  '', '', ( #48 ) ) ;
#224 =( CONVERSION_BASED_UNIT ( 'INCH', #27 ) LENGTH_UNIT ( ) NAMED_UNIT ( #37 ) );
#225 = SURFACE_STYLE_USAGE ( .BOTH. , #250 ) ;
#226 = MECHANICAL_DESIGN_GEOMETRIC_PRESENTATION_REPRESENTATION (  '', ( #255 ), #5 ) ;
#227 = ORIENTED_EDGE ( 'NONE', *, *, #303, .T. ) ;
#228 = DIMENSIONAL_EXPONENTS ( 1.000000000000000000, 0.000000000000000000, 0.000000000000000000, 0.000000000000000000, 0.000000000000000000, 0.000000000000000000, 0.000000000000000000 ) ;
#229 =( NAMED_UNIT ( * ) SI_UNIT ( $, .STERADIAN. ) SOLID_ANGLE_UNIT ( ) );
#230 =( LENGTH_UNIT ( ) NAMED_UNIT ( * ) SI_UNIT ( $, .METRE. ) );
#231 = STYLED_ITEM ( 'NONE', ( #190 ), #60 ) ;
#232 = CIRCLE ( 'NONE', #54, 0.09375000000000001388 ) ;
#233 = ORIENTED_EDGE ( 'NONE', *, *, #207, .F. ) ;
#234 = FILL_AREA_STYLE ('',( #304 ) ) ;
#235 = ORIENTED_EDGE ( 'NONE', *, *, #303, .F. ) ;
#236 = DIRECTION ( 'NONE',  ( -0.000000000000000000, -1.000000000000000000, -0.000000000000000000 ) ) ;
#237 = AXIS2_PLACEMENT_3D ( 'NONE', #34, #41, #300 ) ;
#238 = VERTEX_POINT ( 'NONE', #160 ) ;
#239 = UNCERTAINTY_MEASURE_WITH_UNIT (LENGTH_MEASURE( 1.000000000000000082E-05 ), #11, 'distance_accuracy_value', 'NONE');
#240 = SURFACE_STYLE_USAGE ( .BOTH. , #70 ) ;
#241 = LENGTH_MEASURE_WITH_UNIT ( LENGTH_MEASURE( 0.02539999999999999897 ), #285 );
#242 = DIRECTION ( 'NONE',  ( -1.000000000000000000, -3.378335997647874040E-17, 0.000000000000000000 ) ) ;
#243 = DIRECTION ( 'NONE',  ( 0.000000000000000000, 0.000000000000000000, -1.000000000000000000 ) ) ;
#244 = PRODUCT_RELATED_PRODUCT_CATEGORY ( 'part', '', ( #301 ) ) ;
#245 = LINE ( 'NONE', #111, #50 ) ;
#246 = AXIS2_PLACEMENT_3D ( 'NONE', #53, #236, #200 ) ;
#247 =( NAMED_UNIT ( * ) PLANE_ANGLE_UNIT ( ) SI_UNIT ( $, .RADIAN. ) );
#248 = DIRECTION ( 'NONE',  ( 0.000000000000000000, 0.000000000000000000, -1.000000000000000000 ) ) ;
#249 =( NAMED_UNIT ( * ) SI_UNIT ( $, .STERADIAN. ) SOLID_ANGLE_UNIT ( ) );
#250 = SURFACE_SIDE_STYLE ('',( #158 ) ) ;
#251 =( NAMED_UNIT ( * ) PLANE_ANGLE_UNIT ( ) SI_UNIT ( $, .RADIAN. ) );
#252 = FILL_AREA_STYLE_COLOUR ( '', #121 ) ;
#253 = VERTEX_POINT ( 'NONE', #203 ) ;
#254 = DIMENSIONAL_EXPONENTS ( 1.000000000000000000, 0.000000000000000000, 0.000000000000000000, 0.000000000000000000, 0.000000000000000000, 0.000000000000000000, 0.000000000000000000 ) ;
#255 = STYLED_ITEM ( 'NONE', ( #94 ), #69 ) ;
#256 = STYLED_ITEM ( 'NONE', ( #309 ), #118 ) ;
#257 = DIMENSIONAL_EXPONENTS ( 1.000000000000000000, 0.000000000000000000, 0.000000000000000000, 0.000000000000000000, 0.000000000000000000, 0.000000000000000000, 0.000000000000000000 ) ;
#258 = SURFACE_STYLE_USAGE ( .BOTH. , #85 ) ;
#259 = FILL_AREA_STYLE ('',( #252 ) ) ;
#260 =( CONVERSION_BASED_UNIT ( 'INCH', #241 ) LENGTH_UNIT ( ) NAMED_UNIT ( #136 ) );
#261 = ORIENTED_EDGE ( 'NONE', *, *, #92, .T. ) ;
#262 = CARTESIAN_POINT ( 'NONE',  ( -0.09375000000000011102, 3.000000000000000444, 0.000000000000000000 ) ) ;
#263 = FACE_OUTER_BOUND ( 'NONE', #71, .T. ) ;
#264 = FILL_AREA_STYLE_COLOUR ( '', #147 ) ;
#265 = CARTESIAN_POINT ( 'NONE',  ( 1.148106374200643863E-17, 0.000000000000000000, 0.09375000000000001388 ) ) ;
#266 = COLOUR_RGB ( '',0.7921568627450980005, 0.8196078431372548767, 0.9333333333333333481 ) ;
#267 = DIRECTION ( 'NONE',  ( 0.000000000000000000, -0.000000000000000000, 1.000000000000000000 ) ) ;
#268 = CARTESIAN_POINT ( 'NONE',  ( 0.000000000000000000, 0.000000000000000000, 0.000000000000000000 ) ) ;
#269 = AXIS2_PLACEMENT_3D ( 'NONE', #100, #103, #178 ) ;
#270 = DIRECTION ( 'NONE',  ( 1.000000000000000000, 0.000000000000000000, 0.000000000000000000 ) ) ;
#271 = SURFACE_STYLE_FILL_AREA ( #105 ) ;
#272 = MANIFOLD_SOLID_BREP ( 'Revolve - Tool Body (Straight Shanked)', #161 ) ;
#273 = PLANE ( 'NONE',  #56 ) ;
#274 = UNCERTAINTY_MEASURE_WITH_UNIT (LENGTH_MEASURE( 1.000000000000000082E-05 ), #292, 'distance_accuracy_value', 'NONE');
#275 =( GEOMETRIC_REPRESENTATION_CONTEXT ( 3 ) GLOBAL_UNCERTAINTY_ASSIGNED_CONTEXT ( ( #307 ) ) GLOBAL_UNIT_ASSIGNED_CONTEXT ( ( #166, #141, #89 ) ) REPRESENTATION_CONTEXT ( 'NONE', 'WORKASPACE' ) );
#276 = ORIENTED_EDGE ( 'NONE', *, *, #97, .F. ) ;
#277 = FACE_OUTER_BOUND ( 'NONE', #84, .T. ) ;
#278 =( LENGTH_UNIT ( ) NAMED_UNIT ( * ) SI_UNIT ( $, .METRE. ) );
#279 = SURFACE_STYLE_USAGE ( .BOTH. , #87 ) ;
#280 = EDGE_LOOP ( 'NONE', ( #117, #184, #208, #165 ) ) ;
#281 = CARTESIAN_POINT ( 'NONE',  ( 0.000000000000000000, 1.187500000000000000, 0.000000000000000000 ) ) ;
#282 = EDGE_CURVE ( 'NONE', #302, #112, #8, .T. ) ;
#283 = CARTESIAN_POINT ( 'NONE',  ( 7.582401355855259480E-33, 1.187499999999999778, 0.000000000000000000 ) ) ;
#284 = CIRCLE ( 'NONE', #269, 0.09375000000000001388 ) ;
#285 =( LENGTH_UNIT ( ) NAMED_UNIT ( * ) SI_UNIT ( $, .METRE. ) );
#286 = DIRECTION ( 'NONE',  ( -0.000000000000000000, -1.000000000000000000, -0.000000000000000000 ) ) ;
#287 = DIRECTION ( 'NONE',  ( 0.000000000000000000, 1.000000000000000000, 0.000000000000000000 ) ) ;
#288 = MECHANICAL_DESIGN_GEOMETRIC_PRESENTATION_REPRESENTATION (  '', ( #256 ), #180 ) ;
#289 =( LENGTH_UNIT ( ) NAMED_UNIT ( * ) SI_UNIT ( $, .METRE. ) );
#290 = CARTESIAN_POINT ( 'NONE',  ( 1.148106374200643863E-17, 1.187500000000000000, 0.09375000000000001388 ) ) ;
#291 = APPLICATION_PROTOCOL_DEFINITION ( 'draft international standard', 'automotive_design', 1998, #42 ) ;
#292 =( CONVERSION_BASED_UNIT ( 'INCH', #157 ) LENGTH_UNIT ( ) NAMED_UNIT ( #228 ) );
#293 = FACE_OUTER_BOUND ( 'NONE', #142, .T. ) ;
#294 = CIRCLE ( 'NONE', #205, 0.09375000000000006939 ) ;
#295 = ORIENTED_EDGE ( 'NONE', *, *, #82, .F. ) ;
#296 =( CONVERSION_BASED_UNIT ( 'INCH', #19 ) LENGTH_UNIT ( ) NAMED_UNIT ( #140 ) );
#297 = PRESENTATION_LAYER_ASSIGNMENT (  '', '', ( #167 ) ) ;
#298 = FILL_AREA_STYLE ('',( #138 ) ) ;
#299 =( NAMED_UNIT ( * ) SI_UNIT ( $, .STERADIAN. ) SOLID_ANGLE_UNIT ( ) );
#300 = DIRECTION ( 'NONE',  ( 0.000000000000000000, 0.000000000000000000, -1.000000000000000000 ) ) ;
#301 = PRODUCT ( '82519', '82519', '', ( #154 ) ) ;
#302 = VERTEX_POINT ( 'NONE', #221 ) ;
#303 = EDGE_CURVE ( 'NONE', #66, #139, #245, .T. ) ;
#304 = FILL_AREA_STYLE_COLOUR ( '', #179 ) ;
#305 = CYLINDRICAL_SURFACE ( 'NONE', #134, 0.09375000000000004163 ) ;
#306 = PRODUCT_DEFINITION ( 'UNKNOWN', '', #153, #10 ) ;
#307 = UNCERTAINTY_MEASURE_WITH_UNIT (LENGTH_MEASURE( 1.000000000000000082E-05 ), #166, 'distance_accuracy_value', 'NONE');
#308 = CARTESIAN_POINT ( 'NONE',  ( -6.123233995736772199E-17, 3.000000000000000444, 0.000000000000000000 ) ) ;
#309 = PRESENTATION_STYLE_ASSIGNMENT (( #240 ) ) ;
ENDSEC;
END-ISO-10303-21;
