ISO-10303-21;
HEADER;
FILE_DESCRIPTION (( 'STEP AP214' ),
    '1' );
FILE_NAME ('Micro_BEMM-100-4X.STEP',
    '2021-09-03T13:34:03',
    ( '' ),
    ( '' ),
    'SwSTEP 2.0',
    'SolidWorks 2020',
    '' );
FILE_SCHEMA (( 'AUTOMOTIVE_DESIGN' ));
ENDSEC;

DATA;
#1 = CIRCLE ( 'NONE', #195, 0.1966536495000000273 ) ;
#2 = VERTEX_POINT ( 'NONE', #162 ) ;
#3 = CIRCLE ( 'NONE', #278, 0.1968504999999999838 ) ;
#4 =( GEOMETRIC_REPRESENTATION_CONTEXT ( 3 ) GLOBAL_UNCERTAINTY_ASSIGNED_CONTEXT ( ( #101 ) ) GLOBAL_UNIT_ASSIGNED_CONTEXT ( ( #147, #208, #89 ) ) REPRESENTATION_CONTEXT ( 'NONE', 'WORKASPACE' ) );
#5 = VERTEX_POINT ( 'NONE', #155 ) ;
#6 = DIRECTION ( 'NONE',  ( -1.000000000000000000, 0.0000000000000000000, 1.224646799147353207E-16 ) ) ;
#7 = LINE ( 'NONE', #284, #164 ) ;
#8 = FACE_OUTER_BOUND ( 'NONE', #108, .T. ) ;
#9 = LENGTH_MEASURE_WITH_UNIT ( LENGTH_MEASURE( 0.02539999999999999897 ), #288 );
#10 = CARTESIAN_POINT ( 'NONE',  ( 0.1966536495000000273, 2.408312624008205478E-17, -2.408312624008205478E-17 ) ) ;
#11 = DIRECTION ( 'NONE',  ( -1.224646799147353207E-16, -0.0000000000000000000, -1.000000000000000000 ) ) ;
#12 = CARTESIAN_POINT ( 'NONE',  ( 1.206728250503578783E-16, 0.0000000000000000000, 0.9853683946618323475 ) ) ;
#13 = CIRCLE ( 'NONE', #215, 0.1966536494999999996 ) ;
#14 = CLOSED_SHELL ( 'NONE', ( #170, #240, #57, #290, #254, #261, #212, #200, #43, #42, #115 ) ) ;
#15 = DIRECTION ( 'NONE',  ( 0.0000000000000000000, 0.0000000000000000000, 1.000000000000000000 ) ) ;
#16 = DIRECTION ( 'NONE',  ( -1.000000000000000000, 1.224646799147353207E-16, 0.0000000000000000000 ) ) ;
#17 = CARTESIAN_POINT ( 'NONE',  ( 1.205361061354380629E-16, 0.0000000000000000000, 0.9842519999999999047 ) ) ;
#18 = UNCERTAINTY_MEASURE_WITH_UNIT (LENGTH_MEASURE( 1.000000000000000082E-05 ), #295, 'distance_accuracy_value', 'NONE');
#19 = LENGTH_MEASURE_WITH_UNIT ( LENGTH_MEASURE( 0.02539999999999999897 ), #121 );
#20 = CIRCLE ( 'NONE', #276, 0.1968504999999999838 ) ;
#21 = VERTEX_POINT ( 'NONE', #60 ) ;
#22 = FACE_OUTER_BOUND ( 'NONE', #32, .T. ) ;
#23 = ORIENTED_EDGE ( 'NONE', *, *, #314, .F. ) ;
#24 = CYLINDRICAL_SURFACE ( 'NONE', #248, 0.1968504999999999838 ) ;
#25 = CARTESIAN_POINT ( 'NONE',  ( -0.1966536494999999163, 2.408312624008205478E-17, 0.9842519999999999047 ) ) ;
#26 = AXIS2_PLACEMENT_3D ( 'NONE', #282, #41, #209 ) ;
#27 = ORIENTED_EDGE ( 'NONE', *, *, #275, .T. ) ;
#28 = CIRCLE ( 'NONE', #96, 0.1966536495000000273 ) ;
#29 = ORIENTED_EDGE ( 'NONE', *, *, #70, .T. ) ;
#30 = EDGE_CURVE ( 'NONE', #244, #277, #264, .T. ) ;
#31 = MANIFOLD_SOLID_BREP ( 'Fillet1', #14 ) ;
#32 = EDGE_LOOP ( 'NONE', ( #107, #201, #318, #98 ) ) ;
#33 = ORIENTED_EDGE ( 'NONE', *, *, #118, .T. ) ;
#34 = AXIS2_PLACEMENT_3D ( 'NONE', #189, #169, #232 ) ;
#35 = ORIENTED_EDGE ( 'NONE', *, *, #82, .T. ) ;
#36 = AXIS2_PLACEMENT_3D ( 'NONE', #250, #221, #302 ) ;
#37 = FACE_OUTER_BOUND ( 'NONE', #53, .T. ) ;
#38 = DIRECTION ( 'NONE',  ( 0.7071067811865354713, 8.659560562354783714E-17, -0.7071067811865594521 ) ) ;
#39 = CIRCLE ( 'NONE', #117, 0.1818505000000002481 ) ;
#40 = CARTESIAN_POINT ( 'NONE',  ( -0.1968504999999998450, 0.0000000000000000000, 0.9853683946618323475 ) ) ;
#41 = DIRECTION ( 'NONE',  ( 0.0000000000000000000, 1.000000000000000000, 0.0000000000000000000 ) ) ;
#42 = ADVANCED_FACE ( 'NONE', ( #37 ), #323, .T. ) ;
#43 = ADVANCED_FACE ( 'NONE', ( #166 ), #111, .T. ) ;
#44 = DIRECTION ( 'NONE',  ( 1.224646799147353207E-16, 0.0000000000000000000, 1.000000000000000000 ) ) ;
#45 = CARTESIAN_POINT ( 'NONE',  ( -0.1968504999999999838, 0.0000000000000000000, 2.819646000000000097 ) ) ;
#46 = PRODUCT_RELATED_PRODUCT_CATEGORY ( 'part', '', ( #110 ) ) ;
#47 = AXIS2_PLACEMENT_3D ( 'NONE', #148, #235, #190 ) ;
#48 = DIRECTION ( 'NONE',  ( -1.000000000000000000, 0.0000000000000000000, 0.0000000000000000000 ) ) ;
#49 = PLANE ( 'NONE',  #269 ) ;
#50 = AXIS2_PLACEMENT_3D ( 'NONE', #136, #270, #224 ) ;
#51 = CYLINDRICAL_SURFACE ( 'NONE', #135, 0.1966536495000000273 ) ;
#52 = ORIENTED_EDGE ( 'NONE', *, *, #30, .F. ) ;
#53 = EDGE_LOOP ( 'NONE', ( #88, #165, #184, #83 ) ) ;
#54 = CARTESIAN_POINT ( 'NONE',  ( 0.0000000000000000000, 0.0000000000000000000, 2.834646000000000665 ) ) ;
#55 = EDGE_LOOP ( 'NONE', ( #27, #322, #109, #223 ) ) ;
#56 = CARTESIAN_POINT ( 'NONE',  ( 0.0000000000000000000, 0.0000000000000000000, 2.834646000000000665 ) ) ;
#57 = ADVANCED_FACE ( 'NONE', ( #233 ), #220, .T. ) ;
#58 = CYLINDRICAL_SURFACE ( 'NONE', #50, 0.1968504999999999838 ) ;
#59 = CONICAL_SURFACE ( 'NONE', #315, 0.1818505000000002481, 0.7853981633974312926 ) ;
#60 = CARTESIAN_POINT ( 'NONE',  ( 0.1818505000000002481, 2.318874837419510283E-17, 2.834646000000000665 ) ) ;
#61 = EDGE_LOOP ( 'NONE', ( #247, #253, #141 ) ) ;
#62 = PRODUCT_DEFINITION_SHAPE ( 'NONE', 'NONE',  #72 ) ;
#63 = ORIENTED_EDGE ( 'NONE', *, *, #118, .F. ) ;
#64 = EDGE_LOOP ( 'NONE', ( #87, #242, #292, #199 ) ) ;
#65 = DIRECTION ( 'NONE',  ( 0.0000000000000000000, -1.000000000000000000, 0.0000000000000000000 ) ) ;
#66 = DIRECTION ( 'NONE',  ( 0.1736481776669314414, 0.0000000000000000000, 0.9848077530122077983 ) ) ;
#67 = APPLICATION_PROTOCOL_DEFINITION ( 'draft international standard', 'automotive_design', 1998, #150 ) ;
#68 = CARTESIAN_POINT ( 'NONE',  ( -0.1968504999999999838, 0.0000000000000000000, 2.834646000000000665 ) ) ;
#69 = CARTESIAN_POINT ( 'NONE',  ( 2.408312624008205170E-17, 0.0000000000000000000, 0.1966536494999999996 ) ) ;
#70 = EDGE_CURVE ( 'NONE', #142, #277, #279, .T. ) ;
#71 = SPHERICAL_SURFACE ( 'NONE', #26, 0.1966536494999999996 ) ;
#72 = PRODUCT_DEFINITION ( 'UNKNOWN', '', #134, #320 ) ;
#73 = DIRECTION ( 'NONE',  ( 1.224646799147353207E-16, 0.0000000000000000000, 1.000000000000000000 ) ) ;
#74 = LINE ( 'NONE', #91, #102 ) ;
#75 = PRESENTATION_STYLE_ASSIGNMENT (( #289 ) ) ;
#76 = DIRECTION ( 'NONE',  ( -1.000000000000000000, 0.0000000000000000000, 0.0000000000000000000 ) ) ;
#77 =( NAMED_UNIT ( * ) PLANE_ANGLE_UNIT ( ) SI_UNIT ( $, .RADIAN. ) );
#78 = DIRECTION ( 'NONE',  ( 1.224646799147353207E-16, 0.0000000000000000000, 1.000000000000000000 ) ) ;
#79 = VERTEX_POINT ( 'NONE', #306 ) ;
#80 = CIRCLE ( 'NONE', #131, 0.1966536494999999996 ) ;
#81 = ORIENTED_EDGE ( 'NONE', *, *, #196, .T. ) ;
#82 = EDGE_CURVE ( 'NONE', #5, #244, #143, .T. ) ;
#83 = ORIENTED_EDGE ( 'NONE', *, *, #230, .T. ) ;
#84 = ADVANCED_BREP_SHAPE_REPRESENTATION ( 'Micro_BEMM-100-4X', ( #31, #246 ), #160 ) ;
#85 = CIRCLE ( 'NONE', #198, 0.1966536495000000273 ) ;
#86 = ORIENTED_EDGE ( 'NONE', *, *, #251, .T. ) ;
#87 = ORIENTED_EDGE ( 'NONE', *, *, #104, .T. ) ;
#88 = ORIENTED_EDGE ( 'NONE', *, *, #90, .F. ) ;
#89 =( NAMED_UNIT ( * ) SI_UNIT ( $, .STERADIAN. ) SOLID_ANGLE_UNIT ( ) );
#90 = EDGE_CURVE ( 'NONE', #5, #79, #168, .T. ) ;
#91 = CARTESIAN_POINT ( 'NONE',  ( -0.1818505000000002481, 0.0000000000000000000, 2.834646000000000665 ) ) ;
#92 = EDGE_CURVE ( 'NONE', #21, #225, #7, .T. ) ;
#93 = CARTESIAN_POINT ( 'NONE',  ( 1.205361061354380629E-16, 0.0000000000000000000, 0.9842519999999999047 ) ) ;
#94 = AXIS2_PLACEMENT_3D ( 'NONE', #229, #116, #305 ) ;
#95 = SURFACE_STYLE_FILL_AREA ( #309 ) ;
#96 = AXIS2_PLACEMENT_3D ( 'NONE', #93, #310, #48 ) ;
#97 = DIRECTION ( 'NONE',  ( 1.224646799147353207E-16, 1.000000000000000000, -0.0000000000000000000 ) ) ;
#98 = ORIENTED_EDGE ( 'NONE', *, *, #126, .F. ) ;
#99 = DIRECTION ( 'NONE',  ( -1.224646799147353207E-16, -0.0000000000000000000, -1.000000000000000000 ) ) ;
#100 = DIRECTION ( 'NONE',  ( -0.0000000000000000000, -0.0000000000000000000, -1.000000000000000000 ) ) ;
#101 = UNCERTAINTY_MEASURE_WITH_UNIT (LENGTH_MEASURE( 1.000000000000000082E-05 ), #147, 'distance_accuracy_value', 'NONE');
#102 = VECTOR ( 'NONE', #316, 39.37007874015748854 ) ;
#103 = DIRECTION ( 'NONE',  ( 1.000000000000000000, 0.0000000000000000000, -0.0000000000000000000 ) ) ;
#104 = EDGE_CURVE ( 'NONE', #142, #225, #3, .T. ) ;
#105 = CARTESIAN_POINT ( 'NONE',  ( 0.1968504999999999838, 2.410723347355560646E-17, 2.819646000000000097 ) ) ;
#106 = EDGE_CURVE ( 'NONE', #79, #154, #259, .T. ) ;
#107 = ORIENTED_EDGE ( 'NONE', *, *, #151, .F. ) ;
#108 = EDGE_LOOP ( 'NONE', ( #163, #81, #133 ) ) ;
#109 = ORIENTED_EDGE ( 'NONE', *, *, #106, .T. ) ;
#110 = PRODUCT ( 'Micro_BEMM-100-4X', 'Micro_BEMM-100-4X', '', ( #281 ) ) ;
#111 = CONICAL_SURFACE ( 'NONE', #174, 0.1966536495000000273, 0.1745329251994339470 ) ;
#112 = FILL_AREA_STYLE ('',( #139 ) ) ;
#113 = SURFACE_SIDE_STYLE ('',( #202 ) ) ;
#114 = DIRECTION ( 'NONE',  ( 1.000000000000000000, 0.0000000000000000000, 0.0000000000000000000 ) ) ;
#115 = ADVANCED_FACE ( 'NONE', ( #8 ), #71, .T. ) ;
#116 = DIRECTION ( 'NONE',  ( 1.224646799147353207E-16, 0.0000000000000000000, 1.000000000000000000 ) ) ;
#117 = AXIS2_PLACEMENT_3D ( 'NONE', #324, #236, #243 ) ;
#118 = EDGE_CURVE ( 'NONE', #225, #142, #263, .T. ) ;
#119 =( GEOMETRIC_REPRESENTATION_CONTEXT ( 3 ) GLOBAL_UNCERTAINTY_ASSIGNED_CONTEXT ( ( #241 ) ) GLOBAL_UNIT_ASSIGNED_CONTEXT ( ( #127, #77, #128 ) ) REPRESENTATION_CONTEXT ( 'NONE', 'WORKASPACE' ) );
#120 = LENGTH_MEASURE_WITH_UNIT ( LENGTH_MEASURE( 0.02539999999999999897 ), #294 );
#121 =( LENGTH_UNIT ( ) NAMED_UNIT ( * ) SI_UNIT ( $, .METRE. ) );
#122 = CONICAL_SURFACE ( 'NONE', #47, 0.1818505000000002481, 0.7853981633974312926 ) ;
#123 = COLOUR_RGB ( '',0.7921568627450980005, 0.8196078431372548767, 0.9333333333333333481 ) ;
#124 = CARTESIAN_POINT ( 'NONE',  ( 0.0000000000000000000, 0.0000000000000000000, 2.834646000000000665 ) ) ;
#125 = DIRECTION ( 'NONE',  ( 1.000000000000000000, 0.0000000000000000000, 0.0000000000000000000 ) ) ;
#126 = EDGE_CURVE ( 'NONE', #252, #142, #74, .T. ) ;
#127 =( CONVERSION_BASED_UNIT ( 'INCH', #19 ) LENGTH_UNIT ( ) NAMED_UNIT ( #210 ) );
#128 =( NAMED_UNIT ( * ) SI_UNIT ( $, .STERADIAN. ) SOLID_ANGLE_UNIT ( ) );
#129 = CARTESIAN_POINT ( 'NONE',  ( 0.1968504999999999838, 2.410723347355560646E-17, 2.834646000000000665 ) ) ;
#130 = EDGE_LOOP ( 'NONE', ( #183, #86, #226, #271 ) ) ;
#131 = AXIS2_PLACEMENT_3D ( 'NONE', #158, #65, #161 ) ;
#132 = DIRECTION ( 'NONE',  ( -0.1736481776669312194, 2.126576849575783625E-17, 0.9848077530122077983 ) ) ;
#133 = ORIENTED_EDGE ( 'NONE', *, *, #230, .F. ) ;
#134 = PRODUCT_DEFINITION_FORMATION_WITH_SPECIFIED_SOURCE ( 'ANY', '', #110, .NOT_KNOWN. ) ;
#135 = AXIS2_PLACEMENT_3D ( 'NONE', #181, #138, #321 ) ;
#136 = CARTESIAN_POINT ( 'NONE',  ( 0.0000000000000000000, 0.0000000000000000000, 2.834646000000000665 ) ) ;
#137 = VERTEX_POINT ( 'NONE', #157 ) ;
#138 = DIRECTION ( 'NONE',  ( -1.224646799147353207E-16, -0.0000000000000000000, -1.000000000000000000 ) ) ;
#139 = FILL_AREA_STYLE_COLOUR ( '', #298 ) ;
#140 = FACE_OUTER_BOUND ( 'NONE', #301, .T. ) ;
#141 = ORIENTED_EDGE ( 'NONE', *, *, #106, .F. ) ;
#142 = VERTEX_POINT ( 'NONE', #45 ) ;
#143 = LINE ( 'NONE', #144, #304 ) ;
#144 = CARTESIAN_POINT ( 'NONE',  ( 0.1966536495000001661, 0.0000000000000000000, 0.9842519999999999047 ) ) ;
#145 = PRESENTATION_LAYER_ASSIGNMENT (  '', '', ( #149 ) ) ;
#146 = CARTESIAN_POINT ( 'NONE',  ( 0.0000000000000000000, 0.0000000000000000000, 2.819646000000000097 ) ) ;
#147 =( CONVERSION_BASED_UNIT ( 'INCH', #120 ) LENGTH_UNIT ( ) NAMED_UNIT ( #227 ) );
#148 = CARTESIAN_POINT ( 'NONE',  ( 0.0000000000000000000, 0.0000000000000000000, 2.834646000000000665 ) ) ;
#149 = STYLED_ITEM ( 'NONE', ( #204 ), #31 ) ;
#150 = APPLICATION_CONTEXT ( 'automotive_design' ) ;
#151 = EDGE_CURVE ( 'NONE', #21, #252, #39, .T. ) ;
#152 = VECTOR ( 'NONE', #228, 39.37007874015748143 ) ;
#153 = ORIENTED_EDGE ( 'NONE', *, *, #92, .F. ) ;
#154 = VERTEX_POINT ( 'NONE', #317 ) ;
#155 = CARTESIAN_POINT ( 'NONE',  ( 0.1966536495000001661, 0.0000000000000000000, 0.9842519999999999047 ) ) ;
#156 = CIRCLE ( 'NONE', #311, 0.1818505000000002481 ) ;
#157 = CARTESIAN_POINT ( 'NONE',  ( -0.1966536494999999163, 2.409517985681882908E-17, 0.9842519999999999047 ) ) ;
#158 = CARTESIAN_POINT ( 'NONE',  ( 2.408312624008205170E-17, 0.0000000000000000000, 0.1966536494999999996 ) ) ;
#159 = EDGE_LOOP ( 'NONE', ( #297, #219, #35, #265 ) ) ;
#160 =( GEOMETRIC_REPRESENTATION_CONTEXT ( 3 ) GLOBAL_UNCERTAINTY_ASSIGNED_CONTEXT ( ( #18 ) ) GLOBAL_UNIT_ASSIGNED_CONTEXT ( ( #295, #192, #285 ) ) REPRESENTATION_CONTEXT ( 'NONE', 'WORKASPACE' ) );
#161 = DIRECTION ( 'NONE',  ( 0.0000000000000000000, 0.0000000000000000000, -1.000000000000000000 ) ) ;
#162 = CARTESIAN_POINT ( 'NONE',  ( 3.612468936012307139E-17, 0.0000000000000000000, 0.0000000000000000000 ) ) ;
#163 = ORIENTED_EDGE ( 'NONE', *, *, #218, .F. ) ;
#164 = VECTOR ( 'NONE', #38, 39.37007874015748854 ) ;
#165 = ORIENTED_EDGE ( 'NONE', *, *, #313, .T. ) ;
#166 = FACE_OUTER_BOUND ( 'NONE', #159, .T. ) ;
#167 = SHAPE_DEFINITION_REPRESENTATION ( #62, #84 ) ;
#168 = LINE ( 'NONE', #10, #152 ) ;
#169 = DIRECTION ( 'NONE',  ( 0.0000000000000000000, 0.0000000000000000000, -1.000000000000000000 ) ) ;
#170 = ADVANCED_FACE ( 'NONE', ( #293 ), #272, .T. ) ;
#171 = MECHANICAL_DESIGN_GEOMETRIC_PRESENTATION_REPRESENTATION (  '', ( #149 ), #4 ) ;
#172 = DIRECTION ( 'NONE',  ( 0.0000000000000000000, 0.0000000000000000000, 1.000000000000000000 ) ) ;
#173 = DIRECTION ( 'NONE',  ( -0.0000000000000000000, -0.0000000000000000000, -1.000000000000000000 ) ) ;
#174 = AXIS2_PLACEMENT_3D ( 'NONE', #255, #44, #188 ) ;
#175 = STYLED_ITEM ( 'NONE', ( #75 ), #84 ) ;
#176 = DIRECTION ( 'NONE',  ( -1.000000000000000000, 0.0000000000000000000, 0.0000000000000000000 ) ) ;
#177 = APPLICATION_CONTEXT ( 'automotive_design' ) ;
#178 = DIRECTION ( 'NONE',  ( -1.000000000000000000, 0.0000000000000000000, 1.736458998224860523E-16 ) ) ;
#179 = ORIENTED_EDGE ( 'NONE', *, *, #314, .T. ) ;
#180 = VECTOR ( 'NONE', #99, 39.37007874015748143 ) ;
#181 = CARTESIAN_POINT ( 'NONE',  ( 0.0000000000000000000, 0.0000000000000000000, 0.0000000000000000000 ) ) ;
#182 = ORIENTED_EDGE ( 'NONE', *, *, #151, .T. ) ;
#183 = ORIENTED_EDGE ( 'NONE', *, *, #275, .F. ) ;
#184 = ORIENTED_EDGE ( 'NONE', *, *, #280, .T. ) ;
#185 = PRESENTATION_LAYER_ASSIGNMENT (  '', '', ( #175 ) ) ;
#186 = EDGE_LOOP ( 'NONE', ( #268, #33, #29, #52 ) ) ;
#187 = VECTOR ( 'NONE', #173, 39.37007874015748143 ) ;
#188 = DIRECTION ( 'NONE',  ( 1.000000000000000000, 0.0000000000000000000, 0.0000000000000000000 ) ) ;
#189 = CARTESIAN_POINT ( 'NONE',  ( 0.0000000000000000000, 0.0000000000000000000, 2.819646000000000097 ) ) ;
#190 = DIRECTION ( 'NONE',  ( -1.000000000000000000, 0.0000000000000000000, 0.0000000000000000000 ) ) ;
#191 = DIRECTION ( 'NONE',  ( -1.224646799147353207E-16, -0.0000000000000000000, -1.000000000000000000 ) ) ;
#192 =( NAMED_UNIT ( * ) PLANE_ANGLE_UNIT ( ) SI_UNIT ( $, .RADIAN. ) );
#193 = DIRECTION ( 'NONE',  ( 0.0000000000000000000, 0.0000000000000000000, -1.000000000000000000 ) ) ;
#194 = SURFACE_SIDE_STYLE ('',( #95 ) ) ;
#195 = AXIS2_PLACEMENT_3D ( 'NONE', #17, #11, #308 ) ;
#196 = EDGE_CURVE ( 'NONE', #2, #79, #80, .T. ) ;
#197 = FACE_OUTER_BOUND ( 'NONE', #267, .T. ) ;
#198 = AXIS2_PLACEMENT_3D ( 'NONE', #291, #78, #178 ) ;
#199 = ORIENTED_EDGE ( 'NONE', *, *, #70, .F. ) ;
#200 = ADVANCED_FACE ( 'NONE', ( #140 ), #59, .T. ) ;
#201 = ORIENTED_EDGE ( 'NONE', *, *, #92, .T. ) ;
#202 = SURFACE_STYLE_FILL_AREA ( #112 ) ;
#203 = MECHANICAL_DESIGN_GEOMETRIC_PRESENTATION_REPRESENTATION (  '', ( #175 ), #119 ) ;
#204 = PRESENTATION_STYLE_ASSIGNMENT (( #325 ) ) ;
#205 = DIRECTION ( 'NONE',  ( 1.000000000000000000, 0.0000000000000000000, 0.0000000000000000000 ) ) ;
#206 = DIRECTION ( 'NONE',  ( 1.000000000000000000, 0.0000000000000000000, 0.0000000000000000000 ) ) ;
#207 = VECTOR ( 'NONE', #237, 39.37007874015748143 ) ;
#208 =( NAMED_UNIT ( * ) PLANE_ANGLE_UNIT ( ) SI_UNIT ( $, .RADIAN. ) );
#209 = DIRECTION ( 'NONE',  ( 1.000000000000000000, 0.0000000000000000000, 0.0000000000000000000 ) ) ;
#210 = DIMENSIONAL_EXPONENTS ( 1.000000000000000000, 0.0000000000000000000, 0.0000000000000000000, 0.0000000000000000000, 0.0000000000000000000, 0.0000000000000000000, 0.0000000000000000000 ) ;
#211 = EDGE_CURVE ( 'NONE', #225, #244, #239, .T. ) ;
#212 = ADVANCED_FACE ( 'NONE', ( #197 ), #49, .T. ) ;
#213 = DIRECTION ( 'NONE',  ( -1.224646799147353207E-16, -0.0000000000000000000, -1.000000000000000000 ) ) ;
#214 = AXIS2_PLACEMENT_3D ( 'NONE', #69, #222, #205 ) ;
#215 = AXIS2_PLACEMENT_3D ( 'NONE', #216, #97, #16 ) ;
#216 = CARTESIAN_POINT ( 'NONE',  ( 2.408312624008205170E-17, 0.0000000000000000000, 0.1966536494999999996 ) ) ;
#217 = DIRECTION ( 'NONE',  ( 0.0000000000000000000, 0.0000000000000000000, 1.000000000000000000 ) ) ;
#218 = EDGE_CURVE ( 'NONE', #2, #154, #13, .T. ) ;
#219 = ORIENTED_EDGE ( 'NONE', *, *, #313, .F. ) ;
#220 = CONICAL_SURFACE ( 'NONE', #286, 0.1966536495000000273, 0.1745329251994339470 ) ;
#221 = DIRECTION ( 'NONE',  ( -1.224646799147353207E-16, -0.0000000000000000000, -1.000000000000000000 ) ) ;
#222 = DIRECTION ( 'NONE',  ( 0.0000000000000000000, 1.000000000000000000, 0.0000000000000000000 ) ) ;
#223 = ORIENTED_EDGE ( 'NONE', *, *, #280, .F. ) ;
#224 = DIRECTION ( 'NONE',  ( -1.000000000000000000, 0.0000000000000000000, 0.0000000000000000000 ) ) ;
#225 = VERTEX_POINT ( 'NONE', #105 ) ;
#226 = ORIENTED_EDGE ( 'NONE', *, *, #300, .T. ) ;
#227 = DIMENSIONAL_EXPONENTS ( 1.000000000000000000, 0.0000000000000000000, 0.0000000000000000000, 0.0000000000000000000, 0.0000000000000000000, 0.0000000000000000000, 0.0000000000000000000 ) ;
#228 = DIRECTION ( 'NONE',  ( -1.224646799147353207E-16, -0.0000000000000000000, -1.000000000000000000 ) ) ;
#229 = CARTESIAN_POINT ( 'NONE',  ( 2.408312624008205170E-17, 0.0000000000000000000, 0.1966536494999999996 ) ) ;
#230 = EDGE_CURVE ( 'NONE', #154, #79, #85, .T. ) ;
#231 = APPLICATION_PROTOCOL_DEFINITION ( 'draft international standard', 'automotive_design', 1998, #177 ) ;
#232 = DIRECTION ( 'NONE',  ( 1.000000000000000000, 0.0000000000000000000, 0.0000000000000000000 ) ) ;
#233 = FACE_OUTER_BOUND ( 'NONE', #130, .T. ) ;
#234 = CARTESIAN_POINT ( 'NONE',  ( -0.1966536495000000273, 0.0000000000000000000, 2.408312624008205478E-17 ) ) ;
#235 = DIRECTION ( 'NONE',  ( 0.0000000000000000000, 0.0000000000000000000, -1.000000000000000000 ) ) ;
#236 = DIRECTION ( 'NONE',  ( 0.0000000000000000000, 0.0000000000000000000, 1.000000000000000000 ) ) ;
#237 = DIRECTION ( 'NONE',  ( -0.0000000000000000000, -0.0000000000000000000, -1.000000000000000000 ) ) ;
#238 = DIRECTION ( 'NONE',  ( 1.000000000000000000, 0.0000000000000000000, 0.0000000000000000000 ) ) ;
#239 = LINE ( 'NONE', #129, #207 ) ;
#240 = ADVANCED_FACE ( 'NONE', ( #262 ), #51, .T. ) ;
#241 = UNCERTAINTY_MEASURE_WITH_UNIT (LENGTH_MEASURE( 1.000000000000000082E-05 ), #127, 'distance_accuracy_value', 'NONE');
#242 = ORIENTED_EDGE ( 'NONE', *, *, #211, .T. ) ;
#243 = DIRECTION ( 'NONE',  ( 1.000000000000000000, 0.0000000000000000000, 0.0000000000000000000 ) ) ;
#244 = VERTEX_POINT ( 'NONE', #296 ) ;
#245 = AXIS2_PLACEMENT_3D ( 'NONE', #257, #191, #6 ) ;
#246 = AXIS2_PLACEMENT_3D ( 'NONE', #256, #217, #238 ) ;
#247 = ORIENTED_EDGE ( 'NONE', *, *, #196, .F. ) ;
#248 = AXIS2_PLACEMENT_3D ( 'NONE', #56, #100, #76 ) ;
#249 = FACE_OUTER_BOUND ( 'NONE', #64, .T. ) ;
#250 = CARTESIAN_POINT ( 'NONE',  ( 1.206728250503578783E-16, 0.0000000000000000000, 0.9853683946618323475 ) ) ;
#251 = EDGE_CURVE ( 'NONE', #137, #277, #266, .T. ) ;
#252 = VERTEX_POINT ( 'NONE', #273 ) ;
#253 = ORIENTED_EDGE ( 'NONE', *, *, #218, .T. ) ;
#254 = ADVANCED_FACE ( 'NONE', ( #249 ), #58, .T. ) ;
#255 = CARTESIAN_POINT ( 'NONE',  ( 1.205361061354380629E-16, 0.0000000000000000000, 0.9842519999999999047 ) ) ;
#256 = CARTESIAN_POINT ( 'NONE',  ( 0.0000000000000000000, 0.0000000000000000000, 0.0000000000000000000 ) ) ;
#257 = CARTESIAN_POINT ( 'NONE',  ( 0.0000000000000000000, 0.0000000000000000000, 0.0000000000000000000 ) ) ;
#258 = DIRECTION ( 'NONE',  ( 0.0000000000000000000, 0.0000000000000000000, -1.000000000000000000 ) ) ;
#259 = CIRCLE ( 'NONE', #94, 0.1966536495000000273 ) ;
#260 = VECTOR ( 'NONE', #132, 39.37007874015748143 ) ;
#261 = ADVANCED_FACE ( 'NONE', ( #299 ), #24, .T. ) ;
#262 = FACE_OUTER_BOUND ( 'NONE', #55, .T. ) ;
#263 = CIRCLE ( 'NONE', #34, 0.1968504999999999838 ) ;
#264 = CIRCLE ( 'NONE', #36, 0.1968504999999999838 ) ;
#265 = ORIENTED_EDGE ( 'NONE', *, *, #30, .T. ) ;
#266 = LINE ( 'NONE', #25, #260 ) ;
#267 = EDGE_LOOP ( 'NONE', ( #179, #182 ) ) ;
#268 = ORIENTED_EDGE ( 'NONE', *, *, #211, .F. ) ;
#269 = AXIS2_PLACEMENT_3D ( 'NONE', #124, #15, #103 ) ;
#270 = DIRECTION ( 'NONE',  ( -0.0000000000000000000, -0.0000000000000000000, -1.000000000000000000 ) ) ;
#271 = ORIENTED_EDGE ( 'NONE', *, *, #82, .F. ) ;
#272 = SPHERICAL_SURFACE ( 'NONE', #214, 0.1966536494999999996 ) ;
#273 = CARTESIAN_POINT ( 'NONE',  ( -0.1818505000000002481, 0.0000000000000000000, 2.834646000000000665 ) ) ;
#274 = ORIENTED_EDGE ( 'NONE', *, *, #126, .T. ) ;
#275 = EDGE_CURVE ( 'NONE', #137, #5, #28, .T. ) ;
#276 = AXIS2_PLACEMENT_3D ( 'NONE', #12, #213, #125 ) ;
#277 = VERTEX_POINT ( 'NONE', #40 ) ;
#278 = AXIS2_PLACEMENT_3D ( 'NONE', #146, #258, #114 ) ;
#279 = LINE ( 'NONE', #68, #187 ) ;
#280 = EDGE_CURVE ( 'NONE', #137, #154, #307, .T. ) ;
#281 = PRODUCT_CONTEXT ( 'NONE', #177, 'mechanical' ) ;
#282 = CARTESIAN_POINT ( 'NONE',  ( 2.408312624008205170E-17, 0.0000000000000000000, 0.1966536494999999996 ) ) ;
#283 = DIRECTION ( 'NONE',  ( 1.000000000000000000, 0.0000000000000000000, 0.0000000000000000000 ) ) ;
#284 = CARTESIAN_POINT ( 'NONE',  ( 0.1818505000000002481, 2.227026327483460228E-17, 2.834646000000000665 ) ) ;
#285 =( NAMED_UNIT ( * ) SI_UNIT ( $, .STERADIAN. ) SOLID_ANGLE_UNIT ( ) );
#286 = AXIS2_PLACEMENT_3D ( 'NONE', #287, #73, #206 ) ;
#287 = CARTESIAN_POINT ( 'NONE',  ( 1.205361061354380629E-16, 0.0000000000000000000, 0.9842519999999999047 ) ) ;
#288 =( LENGTH_UNIT ( ) NAMED_UNIT ( * ) SI_UNIT ( $, .METRE. ) );
#289 = SURFACE_STYLE_USAGE ( .BOTH. , #194 ) ;
#290 = ADVANCED_FACE ( 'NONE', ( #22 ), #122, .T. ) ;
#291 = CARTESIAN_POINT ( 'NONE',  ( 2.408312624008205170E-17, 0.0000000000000000000, 0.1966536494999999996 ) ) ;
#292 = ORIENTED_EDGE ( 'NONE', *, *, #300, .F. ) ;
#293 = FACE_OUTER_BOUND ( 'NONE', #61, .T. ) ;
#294 =( LENGTH_UNIT ( ) NAMED_UNIT ( * ) SI_UNIT ( $, .METRE. ) );
#295 =( CONVERSION_BASED_UNIT ( 'INCH', #9 ) LENGTH_UNIT ( ) NAMED_UNIT ( #303 ) );
#296 = CARTESIAN_POINT ( 'NONE',  ( 0.1968505000000001226, 2.410723347355561878E-17, 0.9853683946618323475 ) ) ;
#297 = ORIENTED_EDGE ( 'NONE', *, *, #251, .F. ) ;
#298 = COLOUR_RGB ( '',0.7921568627450980005, 0.8196078431372548767, 0.9333333333333333481 ) ;
#299 = FACE_OUTER_BOUND ( 'NONE', #186, .T. ) ;
#300 = EDGE_CURVE ( 'NONE', #277, #244, #20, .T. ) ;
#301 = EDGE_LOOP ( 'NONE', ( #153, #23, #274, #63 ) ) ;
#302 = DIRECTION ( 'NONE',  ( 1.000000000000000000, 0.0000000000000000000, 0.0000000000000000000 ) ) ;
#303 = DIMENSIONAL_EXPONENTS ( 1.000000000000000000, 0.0000000000000000000, 0.0000000000000000000, 0.0000000000000000000, 0.0000000000000000000, 0.0000000000000000000, 0.0000000000000000000 ) ;
#304 = VECTOR ( 'NONE', #66, 39.37007874015748143 ) ;
#305 = DIRECTION ( 'NONE',  ( -1.000000000000000000, 0.0000000000000000000, 1.736458998224860523E-16 ) ) ;
#306 = CARTESIAN_POINT ( 'NONE',  ( 0.1966536495000000828, 2.408312624008205478E-17, 0.1966536494999999718 ) ) ;
#307 = LINE ( 'NONE', #234, #180 ) ;
#308 = DIRECTION ( 'NONE',  ( -1.000000000000000000, 0.0000000000000000000, 0.0000000000000000000 ) ) ;
#309 = FILL_AREA_STYLE ('',( #312 ) ) ;
#310 = DIRECTION ( 'NONE',  ( -1.224646799147353207E-16, -0.0000000000000000000, -1.000000000000000000 ) ) ;
#311 = AXIS2_PLACEMENT_3D ( 'NONE', #319, #172, #283 ) ;
#312 = FILL_AREA_STYLE_COLOUR ( '', #123 ) ;
#313 = EDGE_CURVE ( 'NONE', #5, #137, #1, .T. ) ;
#314 = EDGE_CURVE ( 'NONE', #252, #21, #156, .T. ) ;
#315 = AXIS2_PLACEMENT_3D ( 'NONE', #54, #193, #176 ) ;
#316 = DIRECTION ( 'NONE',  ( -0.7071067811865354713, 0.0000000000000000000, -0.7071067811865594521 ) ) ;
#317 = CARTESIAN_POINT ( 'NONE',  ( -0.1966536494999999996, 0.0000000000000000000, 0.1966536495000000273 ) ) ;
#318 = ORIENTED_EDGE ( 'NONE', *, *, #104, .F. ) ;
#319 = CARTESIAN_POINT ( 'NONE',  ( 0.0000000000000000000, 0.0000000000000000000, 2.834646000000000665 ) ) ;
#320 = PRODUCT_DEFINITION_CONTEXT ( 'detailed design', #150, 'design' ) ;
#321 = DIRECTION ( 'NONE',  ( -1.000000000000000000, 0.0000000000000000000, 1.224646799147353207E-16 ) ) ;
#322 = ORIENTED_EDGE ( 'NONE', *, *, #90, .T. ) ;
#323 = CYLINDRICAL_SURFACE ( 'NONE', #245, 0.1966536495000000273 ) ;
#324 = CARTESIAN_POINT ( 'NONE',  ( 0.0000000000000000000, 0.0000000000000000000, 2.834646000000000665 ) ) ;
#325 = SURFACE_STYLE_USAGE ( .BOTH. , #113 ) ;
ENDSEC;
END-ISO-10303-21;
