ISO-10303-21;
HEADER;
FILE_DESCRIPTION (( 'STEP AP214' ),
    '1' );
FILE_NAME ('Micro_BEM-031-02X.STEP',
    '2021-09-03T12:57:00',
    ( '' ),
    ( '' ),
    'SwSTEP 2.0',
    'SolidWorks 2020',
    '' );
FILE_SCHEMA (( 'AUTOMOTIVE_DESIGN' ));
ENDSEC;

DATA;
#1 = CARTESIAN_POINT ( 'NONE',  ( 0.01563435000000001560, 1.914655668424943751E-18, 0.01563434999999999825 ) ) ;
#2 = FACE_OUTER_BOUND ( 'NONE', #227, .T. ) ;
#3 = ORIENTED_EDGE ( 'NONE', *, *, #234, .T. ) ;
#4 = CARTESIAN_POINT ( 'NONE',  ( 1.914655668424943366E-18, 0.0000000000000000000, 0.01563435000000000172 ) ) ;
#5 = ADVANCED_FACE ( 'NONE', ( #41 ), #294, .T. ) ;
#6 = DIRECTION ( 'NONE',  ( 1.000000000000000000, 0.0000000000000000000, 0.0000000000000000000 ) ) ;
#7 = AXIS2_PLACEMENT_3D ( 'NONE', #69, #150, #181 ) ;
#8 = CARTESIAN_POINT ( 'NONE',  ( 0.01563435000000001560, 1.914655668424943751E-18, -1.914655668424944522E-18 ) ) ;
#9 = ADVANCED_FACE ( 'NONE', ( #40 ), #184, .T. ) ;
#10 = LINE ( 'NONE', #57, #95 ) ;
#11 = FACE_OUTER_BOUND ( 'NONE', #309, .T. ) ;
#12 = APPLICATION_CONTEXT ( 'automotive_design' ) ;
#13 = AXIS2_PLACEMENT_3D ( 'NONE', #140, #246, #316 ) ;
#14 = CARTESIAN_POINT ( 'NONE',  ( -0.01563435000000000172, 4.784349081547952189E-18, 0.07800000000000009703 ) ) ;
#15 = CIRCLE ( 'NONE', #143, 0.06250000000000002776 ) ;
#16 = ORIENTED_EDGE ( 'NONE', *, *, #228, .F. ) ;
#17 =( CONVERSION_BASED_UNIT ( 'INCH', #156 ) LENGTH_UNIT ( ) NAMED_UNIT ( #191 ) );
#18 = DIRECTION ( 'NONE',  ( -0.0000000000000000000, -0.0000000000000000000, -1.000000000000000000 ) ) ;
#19 = CIRCLE ( 'NONE', #13, 0.04750000000000064587 ) ;
#20 = CLOSED_SHELL ( 'NONE', ( #82, #5, #112, #251, #274, #282, #290, #26, #134, #139, #9 ) ) ;
#21 = DIRECTION ( 'NONE',  ( 1.000000000000000000, 0.0000000000000000000, 0.0000000000000000000 ) ) ;
#22 = CONICAL_SURFACE ( 'NONE', #214, 0.04750000000000064587, 0.7853981633974466137 ) ;
#23 =( NAMED_UNIT ( * ) SI_UNIT ( $, .STERADIAN. ) SOLID_ANGLE_UNIT ( ) );
#24 = VERTEX_POINT ( 'NONE', #1 ) ;
#25 = CIRCLE ( 'NONE', #124, 0.06250000000000002776 ) ;
#26 = ADVANCED_FACE ( 'NONE', ( #92 ), #32, .T. ) ;
#27 =( CONVERSION_BASED_UNIT ( 'INCH', #84 ) LENGTH_UNIT ( ) NAMED_UNIT ( #188 ) );
#28 = AXIS2_PLACEMENT_3D ( 'NONE', #244, #196, #86 ) ;
#29 = ADVANCED_BREP_SHAPE_REPRESENTATION ( 'Micro_BEM-031-02X', ( #102, #253 ), #198 ) ;
#30 = ORIENTED_EDGE ( 'NONE', *, *, #166, .T. ) ;
#31 = CARTESIAN_POINT ( 'NONE',  ( 4.210192519679162135E-17, 0.0000000000000000000, 0.3437883088095654016 ) ) ;
#32 = CONICAL_SURFACE ( 'NONE', #7, 0.04750000000000064587, 0.7853981633974466137 ) ;
#33 = DIRECTION ( 'NONE',  ( 1.000000000000000000, 0.0000000000000000000, -0.0000000000000000000 ) ) ;
#34 = CIRCLE ( 'NONE', #122, 0.01563435000000001560 ) ;
#35 = DIRECTION ( 'NONE',  ( 1.224646799147353700E-16, 0.0000000000000000000, 1.000000000000000000 ) ) ;
#36 = CARTESIAN_POINT ( 'NONE',  ( 2.871983502637414086E-18, 0.0000000000000000000, 0.0000000000000000000 ) ) ;
#37 = AXIS2_PLACEMENT_3D ( 'NONE', #272, #43, #207 ) ;
#38 = DIRECTION ( 'NONE',  ( -1.000000000000000000, 0.0000000000000000000, 0.0000000000000000000 ) ) ;
#39 = EDGE_CURVE ( 'NONE', #73, #281, #151, .T. ) ;
#40 = FACE_OUTER_BOUND ( 'NONE', #91, .T. ) ;
#41 = FACE_OUTER_BOUND ( 'NONE', #303, .T. ) ;
#42 =( CONVERSION_BASED_UNIT ( 'INCH', #93 ) LENGTH_UNIT ( ) NAMED_UNIT ( #215 ) );
#43 = DIRECTION ( 'NONE',  ( 0.0000000000000000000, 1.000000000000000000, 0.0000000000000000000 ) ) ;
#44 = AXIS2_PLACEMENT_3D ( 'NONE', #291, #174, #118 ) ;
#45 = SURFACE_SIDE_STYLE ('',( #231 ) ) ;
#46 = LINE ( 'NONE', #247, #267 ) ;
#47 = PRODUCT_CONTEXT ( 'NONE', #325, 'mechanical' ) ;
#48 = ORIENTED_EDGE ( 'NONE', *, *, #39, .F. ) ;
#49 = EDGE_CURVE ( 'NONE', #256, #132, #46, .T. ) ;
#50 = CARTESIAN_POINT ( 'NONE',  ( -0.06249999999999997918, 0.0000000000000000000, 0.3437883088095654016 ) ) ;
#51 = CARTESIAN_POINT ( 'NONE',  ( 9.552245033349369302E-18, 0.0000000000000000000, 0.07800000000000009703 ) ) ;
#52 = AXIS2_PLACEMENT_3D ( 'NONE', #268, #148, #194 ) ;
#53 = CARTESIAN_POINT ( 'NONE',  ( -0.01563435000000001213, 0.0000000000000000000, 0.01563435000000000519 ) ) ;
#54 = PLANE ( 'NONE',  #165 ) ;
#55 = CARTESIAN_POINT ( 'NONE',  ( 0.0000000000000000000, 0.0000000000000000000, 1.500000000000000222 ) ) ;
#56 = CIRCLE ( 'NONE', #252, 0.01563435000000000172 ) ;
#57 = CARTESIAN_POINT ( 'NONE',  ( -0.01563435000000001560, 0.0000000000000000000, 1.914655668424944522E-18 ) ) ;
#58 = DIRECTION ( 'NONE',  ( 1.000000000000000000, 0.0000000000000000000, 0.0000000000000000000 ) ) ;
#59 = CARTESIAN_POINT ( 'NONE',  ( 0.0000000000000000000, 0.0000000000000000000, 1.500000000000000222 ) ) ;
#60 = EDGE_CURVE ( 'NONE', #132, #280, #25, .T. ) ;
#61 = PRESENTATION_LAYER_ASSIGNMENT (  '', '', ( #141 ) ) ;
#62 = CARTESIAN_POINT ( 'NONE',  ( 0.0000000000000000000, 0.0000000000000000000, 0.0000000000000000000 ) ) ;
#63 =( NAMED_UNIT ( * ) SI_UNIT ( $, .STERADIAN. ) SOLID_ANGLE_UNIT ( ) );
#64 = ORIENTED_EDGE ( 'NONE', *, *, #71, .T. ) ;
#65 = SHAPE_DEFINITION_REPRESENTATION ( #248, #29 ) ;
#66 = AXIS2_PLACEMENT_3D ( 'NONE', #55, #242, #192 ) ;
#67 = EDGE_LOOP ( 'NONE', ( #235, #106, #258 ) ) ;
#68 = DIRECTION ( 'NONE',  ( -1.000000000000000000, 0.0000000000000000000, 1.365107116733476959E-16 ) ) ;
#69 = CARTESIAN_POINT ( 'NONE',  ( 0.0000000000000000000, 0.0000000000000000000, 1.500000000000000222 ) ) ;
#70 = ORIENTED_EDGE ( 'NONE', *, *, #109, .T. ) ;
#71 = EDGE_CURVE ( 'NONE', #281, #280, #321, .T. ) ;
#72 = FILL_AREA_STYLE_COLOUR ( '', #89 ) ;
#73 = VERTEX_POINT ( 'NONE', #301 ) ;
#74 = ORIENTED_EDGE ( 'NONE', *, *, #228, .T. ) ;
#75 = MECHANICAL_DESIGN_GEOMETRIC_PRESENTATION_REPRESENTATION (  '', ( #275 ), #313 ) ;
#76 = ORIENTED_EDGE ( 'NONE', *, *, #161, .F. ) ;
#77 = LINE ( 'NONE', #259, #243 ) ;
#78 = CIRCLE ( 'NONE', #312, 0.06250000000000002776 ) ;
#79 = ORIENTED_EDGE ( 'NONE', *, *, #189, .F. ) ;
#80 = EDGE_LOOP ( 'NONE', ( #157, #284, #16, #208 ) ) ;
#81 = AXIS2_PLACEMENT_3D ( 'NONE', #265, #144, #68 ) ;
#82 = ADVANCED_FACE ( 'NONE', ( #273 ), #104, .T. ) ;
#83 = DIRECTION ( 'NONE',  ( -0.0000000000000000000, -0.0000000000000000000, -1.000000000000000000 ) ) ;
#84 = LENGTH_MEASURE_WITH_UNIT ( LENGTH_MEASURE( 0.02539999999999999897 ), #260 );
#85 = DIRECTION ( 'NONE',  ( 0.0000000000000000000, 0.0000000000000000000, -1.000000000000000000 ) ) ;
#86 = DIRECTION ( 'NONE',  ( 1.000000000000000000, 0.0000000000000000000, 0.0000000000000000000 ) ) ;
#87 = VECTOR ( 'NONE', #266, 39.37007874015748143 ) ;
#88 = CARTESIAN_POINT ( 'NONE',  ( 9.552245033349369302E-18, 0.0000000000000000000, 0.07800000000000009703 ) ) ;
#89 = COLOUR_RGB ( '',0.7921568627450980005, 0.8196078431372548767, 0.9333333333333333481 ) ;
#90 = DIRECTION ( 'NONE',  ( -1.000000000000000000, 0.0000000000000000000, 1.365107116733476959E-16 ) ) ;
#91 = EDGE_LOOP ( 'NONE', ( #129, #249, #257 ) ) ;
#92 = FACE_OUTER_BOUND ( 'NONE', #183, .T. ) ;
#93 = LENGTH_MEASURE_WITH_UNIT ( LENGTH_MEASURE( 0.02539999999999999897 ), #159 );
#94 = EDGE_LOOP ( 'NONE', ( #211, #99, #213, #105 ) ) ;
#95 = VECTOR ( 'NONE', #173, 39.37007874015748143 ) ;
#96 = ORIENTED_EDGE ( 'NONE', *, *, #49, .T. ) ;
#97 =( LENGTH_UNIT ( ) NAMED_UNIT ( * ) SI_UNIT ( $, .METRE. ) );
#98 = EDGE_CURVE ( 'NONE', #256, #203, #114, .T. ) ;
#99 = ORIENTED_EDGE ( 'NONE', *, *, #283, .F. ) ;
#100 = AXIS2_PLACEMENT_3D ( 'NONE', #4, #315, #193 ) ;
#101 = VERTEX_POINT ( 'NONE', #53 ) ;
#102 = MANIFOLD_SOLID_BREP ( 'Fillet1', #20 ) ;
#103 = PRODUCT_DEFINITION_CONTEXT ( 'detailed design', #12, 'design' ) ;
#104 = SPHERICAL_SURFACE ( 'NONE', #100, 0.01563435000000000172 ) ;
#105 = ORIENTED_EDGE ( 'NONE', *, *, #149, .T. ) ;
#106 = ORIENTED_EDGE ( 'NONE', *, *, #176, .T. ) ;
#107 = DIRECTION ( 'NONE',  ( 1.000000000000000000, 0.0000000000000000000, 0.0000000000000000000 ) ) ;
#108 = VERTEX_POINT ( 'NONE', #169 ) ;
#109 = EDGE_CURVE ( 'NONE', #108, #128, #77, .T. ) ;
#110 = AXIS2_PLACEMENT_3D ( 'NONE', #88, #220, #38 ) ;
#111 = SURFACE_SIDE_STYLE ('',( #167 ) ) ;
#112 = ADVANCED_FACE ( 'NONE', ( #2 ), #302, .T. ) ;
#113 = DIRECTION ( 'NONE',  ( 0.0000000000000000000, 0.0000000000000000000, -1.000000000000000000 ) ) ;
#114 = CIRCLE ( 'NONE', #130, 0.01563435000000000866 ) ;
#115 = DIRECTION ( 'NONE',  ( -1.000000000000000000, 0.0000000000000000000, 0.0000000000000000000 ) ) ;
#116 = DIRECTION ( 'NONE',  ( 1.000000000000000000, 0.0000000000000000000, 0.0000000000000000000 ) ) ;
#117 = CIRCLE ( 'NONE', #110, 0.01563435000000000866 ) ;
#118 = DIRECTION ( 'NONE',  ( -1.000000000000000000, 1.224646799147353207E-16, 0.0000000000000000000 ) ) ;
#119 = CARTESIAN_POINT ( 'NONE',  ( -0.06250000000000002776, 0.0000000000000000000, 1.500000000000000222 ) ) ;
#120 =( GEOMETRIC_REPRESENTATION_CONTEXT ( 3 ) GLOBAL_UNCERTAINTY_ASSIGNED_CONTEXT ( ( #310 ) ) GLOBAL_UNIT_ASSIGNED_CONTEXT ( ( #27, #137, #133 ) ) REPRESENTATION_CONTEXT ( 'NONE', 'WORKASPACE' ) );
#121 = CARTESIAN_POINT ( 'NONE',  ( 1.914655668424943366E-18, 0.0000000000000000000, 0.01563435000000000172 ) ) ;
#122 = AXIS2_PLACEMENT_3D ( 'NONE', #218, #35, #90 ) ;
#123 = CARTESIAN_POINT ( 'NONE',  ( 0.04750000000000064587, 5.817072295950006528E-18, 1.500000000000000222 ) ) ;
#124 = AXIS2_PLACEMENT_3D ( 'NONE', #179, #153, #21 ) ;
#125 = ORIENTED_EDGE ( 'NONE', *, *, #296, .F. ) ;
#126 = PRESENTATION_STYLE_ASSIGNMENT (( #154 ) ) ;
#127 = ORIENTED_EDGE ( 'NONE', *, *, #189, .T. ) ;
#128 = VERTEX_POINT ( 'NONE', #279 ) ;
#129 = ORIENTED_EDGE ( 'NONE', *, *, #176, .F. ) ;
#130 = AXIS2_PLACEMENT_3D ( 'NONE', #155, #164, #115 ) ;
#131 = PRODUCT_DEFINITION ( 'UNKNOWN', '', #138, #103 ) ;
#132 = VERTEX_POINT ( 'NONE', #50 ) ;
#133 =( NAMED_UNIT ( * ) SI_UNIT ( $, .STERADIAN. ) SOLID_ANGLE_UNIT ( ) );
#134 = ADVANCED_FACE ( 'NONE', ( #162 ), #136, .T. ) ;
#135 = ORIENTED_EDGE ( 'NONE', *, *, #166, .F. ) ;
#136 = CONICAL_SURFACE ( 'NONE', #237, 0.01563435000000000866, 0.1745329251994338915 ) ;
#137 =( NAMED_UNIT ( * ) PLANE_ANGLE_UNIT ( ) SI_UNIT ( $, .RADIAN. ) );
#138 = PRODUCT_DEFINITION_FORMATION_WITH_SPECIFIED_SOURCE ( 'ANY', '', #297, .NOT_KNOWN. ) ;
#139 = ADVANCED_FACE ( 'NONE', ( #209 ), #308, .T. ) ;
#140 = CARTESIAN_POINT ( 'NONE',  ( 0.0000000000000000000, 0.0000000000000000000, 1.500000000000000222 ) ) ;
#141 = STYLED_ITEM ( 'NONE', ( #307 ), #102 ) ;
#142 = DIRECTION ( 'NONE',  ( 0.0000000000000000000, 0.0000000000000000000, -1.000000000000000000 ) ) ;
#143 = AXIS2_PLACEMENT_3D ( 'NONE', #240, #113, #116 ) ;
#144 = DIRECTION ( 'NONE',  ( 1.224646799147353700E-16, 0.0000000000000000000, 1.000000000000000000 ) ) ;
#145 = EDGE_CURVE ( 'NONE', #203, #280, #261, .T. ) ;
#146 = FACE_OUTER_BOUND ( 'NONE', #80, .T. ) ;
#147 = UNCERTAINTY_MEASURE_WITH_UNIT (LENGTH_MEASURE( 1.000000000000000082E-05 ), #17, 'distance_accuracy_value', 'NONE');
#148 = DIRECTION ( 'NONE',  ( 0.0000000000000000000, 0.0000000000000000000, 1.000000000000000000 ) ) ;
#149 = EDGE_CURVE ( 'NONE', #280, #132, #78, .T. ) ;
#150 = DIRECTION ( 'NONE',  ( 0.0000000000000000000, 0.0000000000000000000, -1.000000000000000000 ) ) ;
#151 = LINE ( 'NONE', #123, #233 ) ;
#152 = AXIS2_PLACEMENT_3D ( 'NONE', #62, #205, #269 ) ;
#153 = DIRECTION ( 'NONE',  ( -1.224646799147353700E-16, -0.0000000000000000000, -1.000000000000000000 ) ) ;
#154 = SURFACE_STYLE_USAGE ( .BOTH. , #45 ) ;
#155 = CARTESIAN_POINT ( 'NONE',  ( 9.552245033349369302E-18, 0.0000000000000000000, 0.07800000000000009703 ) ) ;
#156 = LENGTH_MEASURE_WITH_UNIT ( LENGTH_MEASURE( 0.02539999999999999897 ), #97 );
#157 = ORIENTED_EDGE ( 'NONE', *, *, #199, .F. ) ;
#158 = ORIENTED_EDGE ( 'NONE', *, *, #305, .T. ) ;
#159 =( LENGTH_UNIT ( ) NAMED_UNIT ( * ) SI_UNIT ( $, .METRE. ) );
#160 = ORIENTED_EDGE ( 'NONE', *, *, #270, .F. ) ;
#161 = EDGE_CURVE ( 'NONE', #108, #73, #19, .T. ) ;
#162 = FACE_OUTER_BOUND ( 'NONE', #94, .T. ) ;
#163 = AXIS2_PLACEMENT_3D ( 'NONE', #238, #190, #216 ) ;
#164 = DIRECTION ( 'NONE',  ( -1.224646799147353700E-16, -0.0000000000000000000, -1.000000000000000000 ) ) ;
#165 = AXIS2_PLACEMENT_3D ( 'NONE', #222, #262, #33 ) ;
#166 = EDGE_CURVE ( 'NONE', #128, #132, #175, .T. ) ;
#167 = SURFACE_STYLE_FILL_AREA ( #239 ) ;
#168 = DIRECTION ( 'NONE',  ( 0.0000000000000000000, -1.000000000000000000, 0.0000000000000000000 ) ) ;
#169 = CARTESIAN_POINT ( 'NONE',  ( -0.04750000000000064587, 0.0000000000000000000, 1.500000000000000222 ) ) ;
#170 = AXIS2_PLACEMENT_3D ( 'NONE', #51, #185, #6 ) ;
#171 = CYLINDRICAL_SURFACE ( 'NONE', #230, 0.06250000000000002776 ) ;
#172 = EDGE_CURVE ( 'NONE', #229, #24, #56, .T. ) ;
#173 = DIRECTION ( 'NONE',  ( -1.224646799147353700E-16, -0.0000000000000000000, -1.000000000000000000 ) ) ;
#174 = DIRECTION ( 'NONE',  ( 1.224646799147353207E-16, 1.000000000000000000, -0.0000000000000000000 ) ) ;
#175 = LINE ( 'NONE', #119, #212 ) ;
#176 = EDGE_CURVE ( 'NONE', #229, #101, #288, .T. ) ;
#177 = ORIENTED_EDGE ( 'NONE', *, *, #71, .F. ) ;
#178 = ORIENTED_EDGE ( 'NONE', *, *, #98, .T. ) ;
#179 = CARTESIAN_POINT ( 'NONE',  ( 4.210192519679162135E-17, 0.0000000000000000000, 0.3437883088095654016 ) ) ;
#180 =( NAMED_UNIT ( * ) PLANE_ANGLE_UNIT ( ) SI_UNIT ( $, .RADIAN. ) );
#181 = DIRECTION ( 'NONE',  ( -1.000000000000000000, 0.0000000000000000000, 0.0000000000000000000 ) ) ;
#182 = APPLICATION_PROTOCOL_DEFINITION ( 'draft international standard', 'automotive_design', 1998, #12 ) ;
#183 = EDGE_LOOP ( 'NONE', ( #48, #76, #70, #160 ) ) ;
#184 = SPHERICAL_SURFACE ( 'NONE', #37, 0.01563435000000000172 ) ;
#185 = DIRECTION ( 'NONE',  ( 1.224646799147353700E-16, 0.0000000000000000000, 1.000000000000000000 ) ) ;
#186 = DIRECTION ( 'NONE',  ( 1.224646799147353700E-16, 0.0000000000000000000, 1.000000000000000000 ) ) ;
#187 = EDGE_LOOP ( 'NONE', ( #79, #232, #210, #158 ) ) ;
#188 = DIMENSIONAL_EXPONENTS ( 1.000000000000000000, 0.0000000000000000000, 0.0000000000000000000, 0.0000000000000000000, 0.0000000000000000000, 0.0000000000000000000, 0.0000000000000000000 ) ;
#189 = EDGE_CURVE ( 'NONE', #203, #24, #293, .T. ) ;
#190 = DIRECTION ( 'NONE',  ( -1.224646799147353700E-16, -0.0000000000000000000, -1.000000000000000000 ) ) ;
#191 = DIMENSIONAL_EXPONENTS ( 1.000000000000000000, 0.0000000000000000000, 0.0000000000000000000, 0.0000000000000000000, 0.0000000000000000000, 0.0000000000000000000, 0.0000000000000000000 ) ;
#192 = DIRECTION ( 'NONE',  ( -1.000000000000000000, 0.0000000000000000000, 0.0000000000000000000 ) ) ;
#193 = DIRECTION ( 'NONE',  ( 1.000000000000000000, 0.0000000000000000000, 0.0000000000000000000 ) ) ;
#194 = DIRECTION ( 'NONE',  ( 1.000000000000000000, 0.0000000000000000000, 0.0000000000000000000 ) ) ;
#195 = VECTOR ( 'NONE', #18, 39.37007874015748143 ) ;
#196 = DIRECTION ( 'NONE',  ( 0.0000000000000000000, 0.0000000000000000000, -1.000000000000000000 ) ) ;
#197 = DIRECTION ( 'NONE',  ( 0.1736481776669313859, 0.0000000000000000000, 0.9848077530122077983 ) ) ;
#198 =( GEOMETRIC_REPRESENTATION_CONTEXT ( 3 ) GLOBAL_UNCERTAINTY_ASSIGNED_CONTEXT ( ( #286 ) ) GLOBAL_UNIT_ASSIGNED_CONTEXT ( ( #42, #255, #63 ) ) REPRESENTATION_CONTEXT ( 'NONE', 'WORKASPACE' ) );
#199 = EDGE_CURVE ( 'NONE', #73, #108, #206, .T. ) ;
#200 = FACE_OUTER_BOUND ( 'NONE', #278, .T. ) ;
#201 = ORIENTED_EDGE ( 'NONE', *, *, #270, .T. ) ;
#202 = ORIENTED_EDGE ( 'NONE', *, *, #60, .F. ) ;
#203 = VERTEX_POINT ( 'NONE', #241 ) ;
#204 = CARTESIAN_POINT ( 'NONE',  ( 0.0000000000000000000, 0.0000000000000000000, 0.0000000000000000000 ) ) ;
#205 = DIRECTION ( 'NONE',  ( -1.224646799147353700E-16, -0.0000000000000000000, -1.000000000000000000 ) ) ;
#206 = CIRCLE ( 'NONE', #52, 0.04750000000000064587 ) ;
#207 = DIRECTION ( 'NONE',  ( 1.000000000000000000, 0.0000000000000000000, 0.0000000000000000000 ) ) ;
#208 = ORIENTED_EDGE ( 'NONE', *, *, #109, .F. ) ;
#209 = FACE_OUTER_BOUND ( 'NONE', #187, .T. ) ;
#210 = ORIENTED_EDGE ( 'NONE', *, *, #296, .T. ) ;
#211 = ORIENTED_EDGE ( 'NONE', *, *, #49, .F. ) ;
#212 = VECTOR ( 'NONE', #83, 39.37007874015748143 ) ;
#213 = ORIENTED_EDGE ( 'NONE', *, *, #145, .T. ) ;
#214 = AXIS2_PLACEMENT_3D ( 'NONE', #59, #85, #287 ) ;
#215 = DIMENSIONAL_EXPONENTS ( 1.000000000000000000, 0.0000000000000000000, 0.0000000000000000000, 0.0000000000000000000, 0.0000000000000000000, 0.0000000000000000000, 0.0000000000000000000 ) ;
#216 = DIRECTION ( 'NONE',  ( -1.000000000000000000, 0.0000000000000000000, 1.224646799147353454E-16 ) ) ;
#217 = COLOUR_RGB ( '',0.7921568627450980005, 0.8196078431372548767, 0.9333333333333333481 ) ;
#218 = CARTESIAN_POINT ( 'NONE',  ( 1.914655668424943366E-18, 0.0000000000000000000, 0.01563435000000000172 ) ) ;
#219 = SURFACE_STYLE_USAGE ( .BOTH. , #111 ) ;
#220 = DIRECTION ( 'NONE',  ( -1.224646799147353700E-16, -0.0000000000000000000, -1.000000000000000000 ) ) ;
#221 = CIRCLE ( 'NONE', #28, 0.06250000000000002776 ) ;
#222 = CARTESIAN_POINT ( 'NONE',  ( 0.0000000000000000000, 0.0000000000000000000, 1.500000000000000222 ) ) ;
#223 = VECTOR ( 'NONE', #197, 39.37007874015748143 ) ;
#224 = FACE_OUTER_BOUND ( 'NONE', #254, .T. ) ;
#225 = CARTESIAN_POINT ( 'NONE',  ( 0.06250000000000002776, 7.654042494670959086E-18, 1.485000000000000764 ) ) ;
#226 = DIRECTION ( 'NONE',  ( -0.1736481776669311916, 2.126576849575783316E-17, 0.9848077530122080203 ) ) ;
#227 = EDGE_LOOP ( 'NONE', ( #299, #96, #271, #324 ) ) ;
#228 = EDGE_CURVE ( 'NONE', #128, #281, #15, .T. ) ;
#229 = VERTEX_POINT ( 'NONE', #36 ) ;
#230 = AXIS2_PLACEMENT_3D ( 'NONE', #289, #285, #264 ) ;
#231 = SURFACE_STYLE_FILL_AREA ( #322 ) ;
#232 = ORIENTED_EDGE ( 'NONE', *, *, #283, .T. ) ;
#233 = VECTOR ( 'NONE', #276, 39.37007874015748854 ) ;
#234 = EDGE_CURVE ( 'NONE', #24, #101, #34, .T. ) ;
#235 = ORIENTED_EDGE ( 'NONE', *, *, #172, .F. ) ;
#236 = CARTESIAN_POINT ( 'NONE',  ( 9.552245033349369302E-18, 0.0000000000000000000, 0.07800000000000009703 ) ) ;
#237 = AXIS2_PLACEMENT_3D ( 'NONE', #236, #186, #107 ) ;
#238 = CARTESIAN_POINT ( 'NONE',  ( 0.0000000000000000000, 0.0000000000000000000, 0.0000000000000000000 ) ) ;
#239 = FILL_AREA_STYLE ('',( #311 ) ) ;
#240 = CARTESIAN_POINT ( 'NONE',  ( 0.0000000000000000000, 0.0000000000000000000, 1.485000000000000764 ) ) ;
#241 = CARTESIAN_POINT ( 'NONE',  ( 0.01563435000000001907, 0.0000000000000000000, 0.07800000000000009703 ) ) ;
#242 = DIRECTION ( 'NONE',  ( -0.0000000000000000000, -0.0000000000000000000, -1.000000000000000000 ) ) ;
#243 = VECTOR ( 'NONE', #263, 39.37007874015748854 ) ;
#244 = CARTESIAN_POINT ( 'NONE',  ( 0.0000000000000000000, 0.0000000000000000000, 1.485000000000000764 ) ) ;
#245 = PRODUCT_RELATED_PRODUCT_CATEGORY ( 'part', '', ( #297 ) ) ;
#246 = DIRECTION ( 'NONE',  ( 0.0000000000000000000, 0.0000000000000000000, 1.000000000000000000 ) ) ;
#247 = CARTESIAN_POINT ( 'NONE',  ( -0.01563435000000000172, 1.914655668424943366E-18, 0.07800000000000009703 ) ) ;
#248 = PRODUCT_DEFINITION_SHAPE ( 'NONE', 'NONE',  #131 ) ;
#249 = ORIENTED_EDGE ( 'NONE', *, *, #172, .T. ) ;
#250 = CARTESIAN_POINT ( 'NONE',  ( 0.06250000000000002776, 7.654042494670959086E-18, 1.500000000000000222 ) ) ;
#251 = ADVANCED_FACE ( 'NONE', ( #146 ), #22, .T. ) ;
#252 = AXIS2_PLACEMENT_3D ( 'NONE', #121, #168, #142 ) ;
#253 = AXIS2_PLACEMENT_3D ( 'NONE', #204, #304, #277 ) ;
#254 = EDGE_LOOP ( 'NONE', ( #74, #64, #202, #135 ) ) ;
#255 =( NAMED_UNIT ( * ) PLANE_ANGLE_UNIT ( ) SI_UNIT ( $, .RADIAN. ) );
#256 = VERTEX_POINT ( 'NONE', #14 ) ;
#257 = ORIENTED_EDGE ( 'NONE', *, *, #305, .F. ) ;
#258 = ORIENTED_EDGE ( 'NONE', *, *, #234, .F. ) ;
#259 = CARTESIAN_POINT ( 'NONE',  ( -0.04750000000000064587, 0.0000000000000000000, 1.500000000000000222 ) ) ;
#260 =( LENGTH_UNIT ( ) NAMED_UNIT ( * ) SI_UNIT ( $, .METRE. ) );
#261 = LINE ( 'NONE', #317, #223 ) ;
#262 = DIRECTION ( 'NONE',  ( 0.0000000000000000000, 0.0000000000000000000, 1.000000000000000000 ) ) ;
#263 = DIRECTION ( 'NONE',  ( -0.7071067811865462405, 0.0000000000000000000, -0.7071067811865486830 ) ) ;
#264 = DIRECTION ( 'NONE',  ( -1.000000000000000000, 0.0000000000000000000, 0.0000000000000000000 ) ) ;
#265 = CARTESIAN_POINT ( 'NONE',  ( 1.914655668424943366E-18, 0.0000000000000000000, 0.01563435000000000172 ) ) ;
#266 = DIRECTION ( 'NONE',  ( -1.224646799147353700E-16, -0.0000000000000000000, -1.000000000000000000 ) ) ;
#267 = VECTOR ( 'NONE', #226, 39.37007874015747433 ) ;
#268 = CARTESIAN_POINT ( 'NONE',  ( 0.0000000000000000000, 0.0000000000000000000, 1.500000000000000222 ) ) ;
#269 = DIRECTION ( 'NONE',  ( -1.000000000000000000, 0.0000000000000000000, 1.224646799147353454E-16 ) ) ;
#270 = EDGE_CURVE ( 'NONE', #281, #128, #221, .T. ) ;
#271 = ORIENTED_EDGE ( 'NONE', *, *, #60, .T. ) ;
#272 = CARTESIAN_POINT ( 'NONE',  ( 1.914655668424943366E-18, 0.0000000000000000000, 0.01563435000000000172 ) ) ;
#273 = FACE_OUTER_BOUND ( 'NONE', #67, .T. ) ;
#274 = ADVANCED_FACE ( 'NONE', ( #224 ), #314, .T. ) ;
#275 = STYLED_ITEM ( 'NONE', ( #126 ), #29 ) ;
#276 = DIRECTION ( 'NONE',  ( 0.7071067811865462405, 8.659560562354916834E-17, -0.7071067811865486830 ) ) ;
#277 = DIRECTION ( 'NONE',  ( 1.000000000000000000, 0.0000000000000000000, 0.0000000000000000000 ) ) ;
#278 = EDGE_LOOP ( 'NONE', ( #298, #306 ) ) ;
#279 = CARTESIAN_POINT ( 'NONE',  ( -0.06250000000000002776, 0.0000000000000000000, 1.485000000000000764 ) ) ;
#280 = VERTEX_POINT ( 'NONE', #318 ) ;
#281 = VERTEX_POINT ( 'NONE', #225 ) ;
#282 = ADVANCED_FACE ( 'NONE', ( #11 ), #171, .T. ) ;
#283 = EDGE_CURVE ( 'NONE', #203, #256, #117, .T. ) ;
#284 = ORIENTED_EDGE ( 'NONE', *, *, #39, .T. ) ;
#285 = DIRECTION ( 'NONE',  ( -0.0000000000000000000, -0.0000000000000000000, -1.000000000000000000 ) ) ;
#286 = UNCERTAINTY_MEASURE_WITH_UNIT (LENGTH_MEASURE( 1.000000000000000082E-05 ), #42, 'distance_accuracy_value', 'NONE');
#287 = DIRECTION ( 'NONE',  ( -1.000000000000000000, 0.0000000000000000000, 0.0000000000000000000 ) ) ;
#288 = CIRCLE ( 'NONE', #44, 0.01563435000000000172 ) ;
#289 = CARTESIAN_POINT ( 'NONE',  ( 0.0000000000000000000, 0.0000000000000000000, 1.500000000000000222 ) ) ;
#290 = ADVANCED_FACE ( 'NONE', ( #200 ), #54, .T. ) ;
#291 = CARTESIAN_POINT ( 'NONE',  ( 1.914655668424943366E-18, 0.0000000000000000000, 0.01563435000000000172 ) ) ;
#292 = CIRCLE ( 'NONE', #81, 0.01563435000000001560 ) ;
#293 = LINE ( 'NONE', #8, #87 ) ;
#294 = CYLINDRICAL_SURFACE ( 'NONE', #152, 0.01563435000000001560 ) ;
#295 = MECHANICAL_DESIGN_GEOMETRIC_PRESENTATION_REPRESENTATION (  '', ( #141 ), #120 ) ;
#296 = EDGE_CURVE ( 'NONE', #256, #101, #10, .T. ) ;
#297 = PRODUCT ( 'Micro_BEM-031-02X', 'Micro_BEM-031-02X', '', ( #47 ) ) ;
#298 = ORIENTED_EDGE ( 'NONE', *, *, #161, .T. ) ;
#299 = ORIENTED_EDGE ( 'NONE', *, *, #98, .F. ) ;
#300 = APPLICATION_PROTOCOL_DEFINITION ( 'draft international standard', 'automotive_design', 1998, #325 ) ;
#301 = CARTESIAN_POINT ( 'NONE',  ( 0.04750000000000064587, 6.735557395310483192E-18, 1.500000000000000222 ) ) ;
#302 = CONICAL_SURFACE ( 'NONE', #170, 0.01563435000000000866, 0.1745329251994338915 ) ;
#303 = EDGE_LOOP ( 'NONE', ( #178, #127, #3, #125 ) ) ;
#304 = DIRECTION ( 'NONE',  ( 0.0000000000000000000, 0.0000000000000000000, 1.000000000000000000 ) ) ;
#305 = EDGE_CURVE ( 'NONE', #101, #24, #292, .T. ) ;
#306 = ORIENTED_EDGE ( 'NONE', *, *, #199, .T. ) ;
#307 = PRESENTATION_STYLE_ASSIGNMENT (( #219 ) ) ;
#308 = CYLINDRICAL_SURFACE ( 'NONE', #163, 0.01563435000000001560 ) ;
#309 = EDGE_LOOP ( 'NONE', ( #177, #201, #30, #323 ) ) ;
#310 = UNCERTAINTY_MEASURE_WITH_UNIT (LENGTH_MEASURE( 1.000000000000000082E-05 ), #27, 'distance_accuracy_value', 'NONE');
#311 = FILL_AREA_STYLE_COLOUR ( '', #217 ) ;
#312 = AXIS2_PLACEMENT_3D ( 'NONE', #31, #319, #58 ) ;
#313 =( GEOMETRIC_REPRESENTATION_CONTEXT ( 3 ) GLOBAL_UNCERTAINTY_ASSIGNED_CONTEXT ( ( #147 ) ) GLOBAL_UNIT_ASSIGNED_CONTEXT ( ( #17, #180, #23 ) ) REPRESENTATION_CONTEXT ( 'NONE', 'WORKASPACE' ) );
#314 = CYLINDRICAL_SURFACE ( 'NONE', #66, 0.06250000000000002776 ) ;
#315 = DIRECTION ( 'NONE',  ( 0.0000000000000000000, 1.000000000000000000, 0.0000000000000000000 ) ) ;
#316 = DIRECTION ( 'NONE',  ( 1.000000000000000000, 0.0000000000000000000, 0.0000000000000000000 ) ) ;
#317 = CARTESIAN_POINT ( 'NONE',  ( 0.01563435000000001907, 0.0000000000000000000, 0.07800000000000009703 ) ) ;
#318 = CARTESIAN_POINT ( 'NONE',  ( 0.06250000000000006939, 7.654042494670963708E-18, 0.3437883088095654016 ) ) ;
#319 = DIRECTION ( 'NONE',  ( -1.224646799147353700E-16, -0.0000000000000000000, -1.000000000000000000 ) ) ;
#320 = PRESENTATION_LAYER_ASSIGNMENT (  '', '', ( #275 ) ) ;
#321 = LINE ( 'NONE', #250, #195 ) ;
#322 = FILL_AREA_STYLE ('',( #72 ) ) ;
#323 = ORIENTED_EDGE ( 'NONE', *, *, #149, .F. ) ;
#324 = ORIENTED_EDGE ( 'NONE', *, *, #145, .F. ) ;
#325 = APPLICATION_CONTEXT ( 'automotive_design' ) ;
ENDSEC;
END-ISO-10303-21;
