ISO-10303-21;
HEADER;
FILE_DESCRIPTION (( 'STEP AP214' ),
    '1' );
FILE_NAME ('59650.STEP',
    '2023-07-24T15:51:42',
    ( '' ),
    ( '' ),
    'SwSTEP 2.0',
    'SolidWorks 2023',
    '' );
FILE_SCHEMA (( 'AUTOMOTIVE_DESIGN' ));
ENDSEC;

DATA;
#1 = PRESENTATION_LAYER_ASSIGNMENT (  '', '', ( #135 ) ) ;
#2 = STYLED_ITEM ( 'NONE', ( #176 ), #151 ) ;
#3 =( NAMED_UNIT ( * ) PLANE_ANGLE_UNIT ( ) SI_UNIT ( $, .RADIAN. ) );
#4 = UNCERTAINTY_MEASURE_WITH_UNIT (LENGTH_MEASURE( 1.000000000000000082E-05 ), #116, 'distance_accuracy_value', 'NONE');
#5 =( NAMED_UNIT ( * ) PLANE_ANGLE_UNIT ( ) SI_UNIT ( $, .RADIAN. ) );
#6 = AXIS2_PLACEMENT_3D ( 'NONE', #180, #104, #50 ) ;
#7 = CARTESIAN_POINT ( 'NONE',  ( 0.000000000000000000, 12.00000000000000000, 0.000000000000000000 ) ) ;
#8 = FILL_AREA_STYLE ('',( #164 ) ) ;
#9 = DIRECTION ( 'NONE',  ( 0.000000000000000000, -0.000000000000000000, 1.000000000000000000 ) ) ;
#10 = SURFACE_STYLE_FILL_AREA ( #8 ) ;
#11 = MECHANICAL_DESIGN_GEOMETRIC_PRESENTATION_REPRESENTATION (  '', ( #135 ), #162 ) ;
#12 = EDGE_CURVE ( 'NONE', #75, #226, #156, .T. ) ;
#13 = CARTESIAN_POINT ( 'NONE',  ( 3.184081677783117402E-15, 63.00000000000000000, 0.000000000000000000 ) ) ;
#14 = FACE_OUTER_BOUND ( 'NONE', #225, .T. ) ;
#15 = LINE ( 'NONE', #254, #184 ) ;
#16 = DIRECTION ( 'NONE',  ( -1.000000000000000000, 0.000000000000000000, 0.000000000000000000 ) ) ;
#17 = EDGE_LOOP ( 'NONE', ( #155, #168 ) ) ;
#18 = SURFACE_SIDE_STYLE ('',( #80 ) ) ;
#19 = SHAPE_DEFINITION_REPRESENTATION ( #89, #140 ) ;
#20 = FILL_AREA_STYLE_COLOUR ( '', #141 ) ;
#21 = EDGE_CURVE ( 'NONE', #57, #83, #88, .T. ) ;
#22 = FILL_AREA_STYLE_COLOUR ( '', #286 ) ;
#23 = AXIS2_PLACEMENT_3D ( 'NONE', #152, #223, #267 ) ;
#24 =( NAMED_UNIT ( * ) PLANE_ANGLE_UNIT ( ) SI_UNIT ( $, .RADIAN. ) );
#25 = DIRECTION ( 'NONE',  ( -6.243297407417877041E-17, -1.000000000000000000, 0.000000000000000000 ) ) ;
#26 = EDGE_CURVE ( 'NONE', #190, #55, #268, .T. ) ;
#27 = FILL_AREA_STYLE ('',( #203 ) ) ;
#28 = DIRECTION ( 'NONE',  ( -1.000000000000000000, 0.000000000000000000, 0.000000000000000000 ) ) ;
#29 = AXIS2_PLACEMENT_3D ( 'NONE', #278, #73, #165 ) ;
#30 = DIRECTION ( 'NONE',  ( 1.000000000000000000, -6.243297407417877041E-17, 0.000000000000000000 ) ) ;
#31 = LINE ( 'NONE', #111, #170 ) ;
#32 = EDGE_CURVE ( 'NONE', #55, #190, #246, .T. ) ;
#33 = MANIFOLD_SOLID_BREP ( 'Revolve - Tool Body (Straight Shanked)', #68 ) ;
#34 = CARTESIAN_POINT ( 'NONE',  ( 0.000000000000000000, 12.00000000000000000, -3.000000000000000000 ) ) ;
#35 = STYLED_ITEM ( 'NONE', ( #242 ), #40 ) ;
#36 = DIRECTION ( 'NONE',  ( 6.243297407417877041E-17, 1.000000000000000000, -0.000000000000000000 ) ) ;
#37 = DIRECTION ( 'NONE',  ( -1.000000000000000000, 0.000000000000000000, 0.000000000000000000 ) ) ;
#38 =( GEOMETRIC_REPRESENTATION_CONTEXT ( 3 ) GLOBAL_UNCERTAINTY_ASSIGNED_CONTEXT ( ( #126 ) ) GLOBAL_UNIT_ASSIGNED_CONTEXT ( ( #196, #3, #51 ) ) REPRESENTATION_CONTEXT ( 'NONE', 'WORKASPACE' ) );
#39 = FILL_AREA_STYLE ('',( #20 ) ) ;
#40 = ADVANCED_FACE ( 'NONE', ( #84 ), #175, .T. ) ;
#41 = STYLED_ITEM ( 'NONE', ( #86 ), #54 ) ;
#42 =( LENGTH_UNIT ( ) NAMED_UNIT ( * ) SI_UNIT ( .MILLI., .METRE. ) );
#43 =( GEOMETRIC_REPRESENTATION_CONTEXT ( 3 ) GLOBAL_UNCERTAINTY_ASSIGNED_CONTEXT ( ( #4 ) ) GLOBAL_UNIT_ASSIGNED_CONTEXT ( ( #116, #143, #95 ) ) REPRESENTATION_CONTEXT ( 'NONE', 'WORKASPACE' ) );
#44 = ADVANCED_FACE ( 'NONE', ( #279 ), #227, .F. ) ;
#45 = SURFACE_SIDE_STYLE ('',( #172 ) ) ;
#46 =( NAMED_UNIT ( * ) SI_UNIT ( $, .STERADIAN. ) SOLID_ANGLE_UNIT ( ) );
#47 = PRESENTATION_LAYER_ASSIGNMENT (  '', '', ( #81 ) ) ;
#48 =( LENGTH_UNIT ( ) NAMED_UNIT ( * ) SI_UNIT ( .MILLI., .METRE. ) );
#49 =( LENGTH_UNIT ( ) NAMED_UNIT ( * ) SI_UNIT ( .MILLI., .METRE. ) );
#50 = DIRECTION ( 'NONE',  ( 0.000000000000000000, 0.000000000000000000, -1.000000000000000000 ) ) ;
#51 =( NAMED_UNIT ( * ) SI_UNIT ( $, .STERADIAN. ) SOLID_ANGLE_UNIT ( ) );
#52 = CARTESIAN_POINT ( 'NONE',  ( 3.184081677783117402E-15, 63.00000000000000000, 0.000000000000000000 ) ) ;
#53 =( NAMED_UNIT ( * ) SI_UNIT ( $, .STERADIAN. ) SOLID_ANGLE_UNIT ( ) );
#54 = ADVANCED_FACE ( 'NONE', ( #275 ), #154, .T. ) ;
#55 = VERTEX_POINT ( 'NONE', #252 ) ;
#56 = VECTOR ( 'NONE', #250, 1000.000000000000000 ) ;
#57 = VERTEX_POINT ( 'NONE', #107 ) ;
#58 = CLOSED_SHELL ( 'NONE', ( #40, #60, #54, #151 ) ) ;
#59 = AXIS2_PLACEMENT_3D ( 'NONE', #94, #36, #166 ) ;
#60 = ADVANCED_FACE ( 'NONE', ( #248 ), #136, .T. ) ;
#61 = SURFACE_STYLE_USAGE ( .BOTH. , #18 ) ;
#62 = ORIENTED_EDGE ( 'NONE', *, *, #101, .F. ) ;
#63 = DIRECTION ( 'NONE',  ( 0.000000000000000000, 0.000000000000000000, -1.000000000000000000 ) ) ;
#64 = AXIS2_PLACEMENT_3D ( 'NONE', #211, #204, #9 ) ;
#65 = SURFACE_STYLE_USAGE ( .BOTH. , #45 ) ;
#66 = EDGE_LOOP ( 'NONE', ( #253, #194, #142, #62 ) ) ;
#67 = DIRECTION ( 'NONE',  ( 0.000000000000000000, -1.000000000000000000, -0.000000000000000000 ) ) ;
#68 = CLOSED_SHELL ( 'NONE', ( #221, #230, #195, #44 ) ) ;
#69 = PRODUCT_DEFINITION ( 'UNKNOWN', '', #215, #179 ) ;
#70 = DIRECTION ( 'NONE',  ( 0.000000000000000000, 0.000000000000000000, -1.000000000000000000 ) ) ;
#71 = DIRECTION ( 'NONE',  ( 6.243297407417877041E-17, 1.000000000000000000, -0.000000000000000000 ) ) ;
#72 = EDGE_CURVE ( 'NONE', #226, #167, #15, .T. ) ;
#73 = DIRECTION ( 'NONE',  ( 0.000000000000000000, 0.000000000000000000, 1.000000000000000000 ) ) ;
#74 = APPLICATION_CONTEXT ( 'automotive_design' ) ;
#75 = VERTEX_POINT ( 'NONE', #187 ) ;
#76 = EDGE_CURVE ( 'NONE', #98, #167, #256, .T. ) ;
#77 = ORIENTED_EDGE ( 'NONE', *, *, #21, .T. ) ;
#78 =( GEOMETRIC_REPRESENTATION_CONTEXT ( 3 ) GLOBAL_UNCERTAINTY_ASSIGNED_CONTEXT ( ( #232 ) ) GLOBAL_UNIT_ASSIGNED_CONTEXT ( ( #234, #24, #103 ) ) REPRESENTATION_CONTEXT ( 'NONE', 'WORKASPACE' ) );
#79 = ORIENTED_EDGE ( 'NONE', *, *, #76, .T. ) ;
#80 = SURFACE_STYLE_FILL_AREA ( #271 ) ;
#81 = STYLED_ITEM ( 'NONE', ( #216 ), #121 ) ;
#82 = CARTESIAN_POINT ( 'NONE',  ( 0.000000000000000000, 12.00000000000000000, 0.000000000000000000 ) ) ;
#83 = VERTEX_POINT ( 'NONE', #34 ) ;
#84 = FACE_OUTER_BOUND ( 'NONE', #288, .T. ) ;
#85 = PLANE ( 'NONE',  #137 ) ;
#86 = PRESENTATION_STYLE_ASSIGNMENT (( #133 ) ) ;
#87 = DIRECTION ( 'NONE',  ( 0.000000000000000000, 0.000000000000000000, -1.000000000000000000 ) ) ;
#88 = CIRCLE ( 'NONE', #193, 3.000000000000000000 ) ;
#89 = PRODUCT_DEFINITION_SHAPE ( 'NONE', 'NONE',  #69 ) ;
#90 = DIRECTION ( 'NONE',  ( -0.000000000000000000, -1.000000000000000000, -0.000000000000000000 ) ) ;
#91 = AXIS2_PLACEMENT_3D ( 'NONE', #7, #108, #209 ) ;
#92 = MECHANICAL_DESIGN_GEOMETRIC_PRESENTATION_REPRESENTATION (  '', ( #2 ), #102 ) ;
#93 = SURFACE_STYLE_USAGE ( .BOTH. , #257 ) ;
#94 = CARTESIAN_POINT ( 'NONE',  ( 5.846814377620617787E-33, 12.00000000000000000, 0.000000000000000000 ) ) ;
#95 =( NAMED_UNIT ( * ) SI_UNIT ( $, .STERADIAN. ) SOLID_ANGLE_UNIT ( ) );
#96 = EDGE_LOOP ( 'NONE', ( #198, #244 ) ) ;
#97 = AXIS2_PLACEMENT_3D ( 'NONE', #243, #148, #122 ) ;
#98 = VERTEX_POINT ( 'NONE', #205 ) ;
#99 = FILL_AREA_STYLE_COLOUR ( '', #287 ) ;
#100 = MECHANICAL_DESIGN_GEOMETRIC_PRESENTATION_REPRESENTATION (  '', ( #41 ), #78 ) ;
#101 = EDGE_CURVE ( 'NONE', #167, #98, #280, .T. ) ;
#102 =( GEOMETRIC_REPRESENTATION_CONTEXT ( 3 ) GLOBAL_UNCERTAINTY_ASSIGNED_CONTEXT ( ( #189 ) ) GLOBAL_UNIT_ASSIGNED_CONTEXT ( ( #49, #131, #46 ) ) REPRESENTATION_CONTEXT ( 'NONE', 'WORKASPACE' ) );
#103 =( NAMED_UNIT ( * ) SI_UNIT ( $, .STERADIAN. ) SOLID_ANGLE_UNIT ( ) );
#104 = DIRECTION ( 'NONE',  ( -0.000000000000000000, -1.000000000000000000, -0.000000000000000000 ) ) ;
#105 = CARTESIAN_POINT ( 'NONE',  ( 0.000000000000000000, 0.000000000000000000, 0.000000000000000000 ) ) ;
#106 = AXIS2_PLACEMENT_3D ( 'NONE', #105, #90, #70 ) ;
#107 = CARTESIAN_POINT ( 'NONE',  ( 3.673940397442059868E-16, 12.00000000000000000, 3.000000000000000000 ) ) ;
#108 = DIRECTION ( 'NONE',  ( -0.000000000000000000, -1.000000000000000000, -0.000000000000000000 ) ) ;
#109 = CARTESIAN_POINT ( 'NONE',  ( 0.000000000000000000, 0.000000000000000000, -3.000000000000000000 ) ) ;
#110 = PRESENTATION_STYLE_ASSIGNMENT (( #182 ) ) ;
#111 = CARTESIAN_POINT ( 'NONE',  ( 3.673940397442059868E-16, 0.000000000000000000, 3.000000000000000000 ) ) ;
#112 = CYLINDRICAL_SURFACE ( 'NONE', #145, 2.999999999999998224 ) ;
#113 = FACE_OUTER_BOUND ( 'NONE', #96, .T. ) ;
#114 = LINE ( 'NONE', #239, #229 ) ;
#115 = DIRECTION ( 'NONE',  ( 6.243297407417877041E-17, 1.000000000000000000, -0.000000000000000000 ) ) ;
#116 =( LENGTH_UNIT ( ) NAMED_UNIT ( * ) SI_UNIT ( .MILLI., .METRE. ) );
#117 = EDGE_CURVE ( 'NONE', #83, #57, #228, .T. ) ;
#118 = ORIENTED_EDGE ( 'NONE', *, *, #117, .F. ) ;
#119 = AXIS2_PLACEMENT_3D ( 'NONE', #273, #25, #30 ) ;
#120 = APPLICATION_CONTEXT ( 'automotive_design' ) ;
#121 = MANIFOLD_SOLID_BREP ( 'Revolve - Cutting Edge', #58 ) ;
#122 = DIRECTION ( 'NONE',  ( 0.000000000000000000, 0.000000000000000000, -1.000000000000000000 ) ) ;
#123 = ORIENTED_EDGE ( 'NONE', *, *, #21, .F. ) ;
#124 = MECHANICAL_DESIGN_GEOMETRIC_PRESENTATION_REPRESENTATION (  '', ( #35 ), #38 ) ;
#125 =( NAMED_UNIT ( * ) PLANE_ANGLE_UNIT ( ) SI_UNIT ( $, .RADIAN. ) );
#126 = UNCERTAINTY_MEASURE_WITH_UNIT (LENGTH_MEASURE( 1.000000000000000082E-05 ), #196, 'distance_accuracy_value', 'NONE');
#127 = PRESENTATION_STYLE_ASSIGNMENT (( #65 ) ) ;
#128 =( NAMED_UNIT ( * ) PLANE_ANGLE_UNIT ( ) SI_UNIT ( $, .RADIAN. ) );
#129 = CARTESIAN_POINT ( 'NONE',  ( -2.999999999999995115, 63.00000000000000000, 0.000000000000000000 ) ) ;
#130 =( NAMED_UNIT ( * ) SI_UNIT ( $, .STERADIAN. ) SOLID_ANGLE_UNIT ( ) );
#131 =( NAMED_UNIT ( * ) PLANE_ANGLE_UNIT ( ) SI_UNIT ( $, .RADIAN. ) );
#132 = FILL_AREA_STYLE_COLOUR ( '', #285 ) ;
#133 = SURFACE_STYLE_USAGE ( .BOTH. , #276 ) ;
#134 = DIRECTION ( 'NONE',  ( 6.243297407417877041E-17, 1.000000000000000000, -0.000000000000000000 ) ) ;
#135 = STYLED_ITEM ( 'NONE', ( #127 ), #33 ) ;
#136 = PLANE ( 'NONE',  #64 ) ;
#137 = AXIS2_PLACEMENT_3D ( 'NONE', #160, #67, #87 ) ;
#138 = UNCERTAINTY_MEASURE_WITH_UNIT (LENGTH_MEASURE( 1.000000000000000082E-05 ), #42, 'distance_accuracy_value', 'NONE');
#139 = DIRECTION ( 'NONE',  ( -1.000000000000000000, 0.000000000000000000, 0.000000000000000000 ) ) ;
#140 = ADVANCED_BREP_SHAPE_REPRESENTATION ( '59650', ( #121, #33, #29 ), #43 ) ;
#141 = COLOUR_RGB ( '',0.7921568627450980005, 0.8196078431372548767, 0.9333333333333333481 ) ;
#142 = ORIENTED_EDGE ( 'NONE', *, *, #173, .T. ) ;
#143 =( NAMED_UNIT ( * ) PLANE_ANGLE_UNIT ( ) SI_UNIT ( $, .RADIAN. ) );
#144 = AXIS2_PLACEMENT_3D ( 'NONE', #214, #235, #28 ) ;
#145 = AXIS2_PLACEMENT_3D ( 'NONE', #13, #115, #16 ) ;
#146 = ORIENTED_EDGE ( 'NONE', *, *, #217, .F. ) ;
#147 = EDGE_LOOP ( 'NONE', ( #118, #123 ) ) ;
#148 = DIRECTION ( 'NONE',  ( -0.000000000000000000, -1.000000000000000000, -0.000000000000000000 ) ) ;
#149 = PRESENTATION_LAYER_ASSIGNMENT (  '', '', ( #2 ) ) ;
#150 = ORIENTED_EDGE ( 'NONE', *, *, #72, .T. ) ;
#151 = ADVANCED_FACE ( 'NONE', ( #113 ), #85, .T. ) ;
#152 = CARTESIAN_POINT ( 'NONE',  ( 0.000000000000000000, 11.99999999999999645, 0.000000000000000000 ) ) ;
#153 = CARTESIAN_POINT ( 'NONE',  ( 3.000000000000000000, 63.00000000000000000, 3.673940397442058882E-16 ) ) ;
#154 = CYLINDRICAL_SURFACE ( 'NONE', #106, 3.000000000000000000 ) ;
#155 = ORIENTED_EDGE ( 'NONE', *, *, #12, .F. ) ;
#156 = CIRCLE ( 'NONE', #23, 3.000000000000000000 ) ;
#157 = LINE ( 'NONE', #129, #56 ) ;
#158 = FILL_AREA_STYLE ('',( #132 ) ) ;
#159 = ORIENTED_EDGE ( 'NONE', *, *, #217, .T. ) ;
#160 = CARTESIAN_POINT ( 'NONE',  ( 0.000000000000000000, 0.000000000000000000, 0.000000000000000000 ) ) ;
#161 = PRODUCT_RELATED_PRODUCT_CATEGORY ( 'part', '', ( #178 ) ) ;
#162 =( GEOMETRIC_REPRESENTATION_CONTEXT ( 3 ) GLOBAL_UNCERTAINTY_ASSIGNED_CONTEXT ( ( #207 ) ) GLOBAL_UNIT_ASSIGNED_CONTEXT ( ( #245, #125, #201 ) ) REPRESENTATION_CONTEXT ( 'NONE', 'WORKASPACE' ) );
#163 = CARTESIAN_POINT ( 'NONE',  ( 3.000000000000000000, 11.99999999999999645, 3.673940397442058882E-16 ) ) ;
#164 = FILL_AREA_STYLE_COLOUR ( '', #169 ) ;
#165 = DIRECTION ( 'NONE',  ( 1.000000000000000000, 0.000000000000000000, 0.000000000000000000 ) ) ;
#166 = DIRECTION ( 'NONE',  ( -1.000000000000000000, 6.243297407417877041E-17, 0.000000000000000000 ) ) ;
#167 = VERTEX_POINT ( 'NONE', #153 ) ;
#168 = ORIENTED_EDGE ( 'NONE', *, *, #200, .F. ) ;
#169 = COLOUR_RGB ( '',0.7921568627450980005, 0.8196078431372548767, 0.9333333333333333481 ) ;
#170 = VECTOR ( 'NONE', #261, 1000.000000000000000 ) ;
#171 = APPLICATION_PROTOCOL_DEFINITION ( 'draft international standard', 'automotive_design', 1998, #74 ) ;
#172 = SURFACE_STYLE_FILL_AREA ( #39 ) ;
#173 = EDGE_CURVE ( 'NONE', #75, #98, #157, .T. ) ;
#174 = PRESENTATION_LAYER_ASSIGNMENT (  '', '', ( #264 ) ) ;
#175 = CYLINDRICAL_SURFACE ( 'NONE', #6, 3.000000000000000000 ) ;
#176 = PRESENTATION_STYLE_ASSIGNMENT (( #272 ) ) ;
#177 = SURFACE_SIDE_STYLE ('',( #208 ) ) ;
#178 = PRODUCT ( '59650', '59650', '', ( #181 ) ) ;
#179 = PRODUCT_DEFINITION_CONTEXT ( 'detailed design', #74, 'design' ) ;
#180 = CARTESIAN_POINT ( 'NONE',  ( 0.000000000000000000, 0.000000000000000000, 0.000000000000000000 ) ) ;
#181 = PRODUCT_CONTEXT ( 'NONE', #120, 'mechanical' ) ;
#182 = SURFACE_STYLE_USAGE ( .BOTH. , #177 ) ;
#183 = DIRECTION ( 'NONE',  ( 6.243297407417877041E-17, 1.000000000000000000, -0.000000000000000000 ) ) ;
#184 = VECTOR ( 'NONE', #183, 1000.000000000000000 ) ;
#185 = AXIS2_PLACEMENT_3D ( 'NONE', #274, #71, #188 ) ;
#186 = ORIENTED_EDGE ( 'NONE', *, *, #32, .F. ) ;
#187 = CARTESIAN_POINT ( 'NONE',  ( -3.000000000000000000, 11.99999999999999645, 0.000000000000000000 ) ) ;
#188 = DIRECTION ( 'NONE',  ( -1.000000000000000000, 0.000000000000000000, 0.000000000000000000 ) ) ;
#189 = UNCERTAINTY_MEASURE_WITH_UNIT (LENGTH_MEASURE( 1.000000000000000082E-05 ), #49, 'distance_accuracy_value', 'NONE');
#190 = VERTEX_POINT ( 'NONE', #109 ) ;
#191 = DIRECTION ( 'NONE',  ( -0.000000000000000000, -1.000000000000000000, -0.000000000000000000 ) ) ;
#192 = FACE_OUTER_BOUND ( 'NONE', #17, .T. ) ;
#193 = AXIS2_PLACEMENT_3D ( 'NONE', #82, #265, #63 ) ;
#194 = ORIENTED_EDGE ( 'NONE', *, *, #200, .T. ) ;
#195 = ADVANCED_FACE ( 'NONE', ( #247 ), #231, .T. ) ;
#196 =( LENGTH_UNIT ( ) NAMED_UNIT ( * ) SI_UNIT ( .MILLI., .METRE. ) );
#197 = PRESENTATION_LAYER_ASSIGNMENT (  '', '', ( #41 ) ) ;
#198 = ORIENTED_EDGE ( 'NONE', *, *, #26, .T. ) ;
#199 = CARTESIAN_POINT ( 'NONE',  ( 0.000000000000000000, 0.000000000000000000, 0.000000000000000000 ) ) ;
#200 = EDGE_CURVE ( 'NONE', #226, #75, #281, .T. ) ;
#201 =( NAMED_UNIT ( * ) SI_UNIT ( $, .STERADIAN. ) SOLID_ANGLE_UNIT ( ) );
#202 = MECHANICAL_DESIGN_GEOMETRIC_PRESENTATION_REPRESENTATION (  '', ( #264 ), #255 ) ;
#203 = FILL_AREA_STYLE_COLOUR ( '', #236 ) ;
#204 = DIRECTION ( 'NONE',  ( 0.000000000000000000, 1.000000000000000000, 0.000000000000000000 ) ) ;
#205 = CARTESIAN_POINT ( 'NONE',  ( -2.999999999999993783, 63.00000000000000000, 0.000000000000000000 ) ) ;
#206 =( GEOMETRIC_REPRESENTATION_CONTEXT ( 3 ) GLOBAL_UNCERTAINTY_ASSIGNED_CONTEXT ( ( #138 ) ) GLOBAL_UNIT_ASSIGNED_CONTEXT ( ( #42, #128, #53 ) ) REPRESENTATION_CONTEXT ( 'NONE', 'WORKASPACE' ) );
#207 = UNCERTAINTY_MEASURE_WITH_UNIT (LENGTH_MEASURE( 1.000000000000000082E-05 ), #245, 'distance_accuracy_value', 'NONE');
#208 = SURFACE_STYLE_FILL_AREA ( #158 ) ;
#209 = DIRECTION ( 'NONE',  ( 0.000000000000000000, 0.000000000000000000, -1.000000000000000000 ) ) ;
#210 = FILL_AREA_STYLE ('',( #22 ) ) ;
#211 = CARTESIAN_POINT ( 'NONE',  ( 0.000000000000000000, 12.00000000000000000, 0.000000000000000000 ) ) ;
#212 = PLANE ( 'NONE',  #59 ) ;
#213 = ORIENTED_EDGE ( 'NONE', *, *, #173, .F. ) ;
#214 = CARTESIAN_POINT ( 'NONE',  ( 3.184081677783117402E-15, 63.00000000000000000, 0.000000000000000000 ) ) ;
#215 = PRODUCT_DEFINITION_FORMATION_WITH_SPECIFIED_SOURCE ( 'ANY', '', #178, .NOT_KNOWN. ) ;
#216 = PRESENTATION_STYLE_ASSIGNMENT (( #93 ) ) ;
#217 = EDGE_CURVE ( 'NONE', #57, #55, #31, .T. ) ;
#218 = EDGE_LOOP ( 'NONE', ( #79, #241 ) ) ;
#219 = ORIENTED_EDGE ( 'NONE', *, *, #237, .T. ) ;
#220 = DIRECTION ( 'NONE',  ( -0.000000000000000000, -1.000000000000000000, -0.000000000000000000 ) ) ;
#221 = ADVANCED_FACE ( 'NONE', ( #14 ), #112, .T. ) ;
#222 = ORIENTED_EDGE ( 'NONE', *, *, #26, .F. ) ;
#223 = DIRECTION ( 'NONE',  ( 6.243297407417877041E-17, 1.000000000000000000, -0.000000000000000000 ) ) ;
#224 = AXIS2_PLACEMENT_3D ( 'NONE', #199, #220, #266 ) ;
#225 = EDGE_LOOP ( 'NONE', ( #259, #150, #282, #213 ) ) ;
#226 = VERTEX_POINT ( 'NONE', #163 ) ;
#227 = PLANE ( 'NONE',  #119 ) ;
#228 = CIRCLE ( 'NONE', #91, 3.000000000000000000 ) ;
#229 = VECTOR ( 'NONE', #191, 1000.000000000000000 ) ;
#230 = ADVANCED_FACE ( 'NONE', ( #192 ), #212, .F. ) ;
#231 = CYLINDRICAL_SURFACE ( 'NONE', #185, 2.999999999999998224 ) ;
#232 = UNCERTAINTY_MEASURE_WITH_UNIT (LENGTH_MEASURE( 1.000000000000000082E-05 ), #234, 'distance_accuracy_value', 'NONE');
#233 = SURFACE_SIDE_STYLE ('',( #269 ) ) ;
#234 =( LENGTH_UNIT ( ) NAMED_UNIT ( * ) SI_UNIT ( .MILLI., .METRE. ) );
#235 = DIRECTION ( 'NONE',  ( 6.243297407417877041E-17, 1.000000000000000000, -0.000000000000000000 ) ) ;
#236 = COLOUR_RGB ( '',1.000000000000000000, 0.000000000000000000, 0.000000000000000000 ) ;
#237 = EDGE_CURVE ( 'NONE', #83, #190, #114, .T. ) ;
#238 = CARTESIAN_POINT ( 'NONE',  ( 0.000000000000000000, 11.99999999999999645, 0.000000000000000000 ) ) ;
#239 = CARTESIAN_POINT ( 'NONE',  ( 0.000000000000000000, 0.000000000000000000, -3.000000000000000000 ) ) ;
#240 = AXIS2_PLACEMENT_3D ( 'NONE', #52, #134, #139 ) ;
#241 = ORIENTED_EDGE ( 'NONE', *, *, #101, .T. ) ;
#242 = PRESENTATION_STYLE_ASSIGNMENT (( #61 ) ) ;
#243 = CARTESIAN_POINT ( 'NONE',  ( 0.000000000000000000, 0.000000000000000000, 0.000000000000000000 ) ) ;
#244 = ORIENTED_EDGE ( 'NONE', *, *, #32, .T. ) ;
#245 =( LENGTH_UNIT ( ) NAMED_UNIT ( * ) SI_UNIT ( .MILLI., .METRE. ) );
#246 = CIRCLE ( 'NONE', #97, 3.000000000000000000 ) ;
#247 = FACE_OUTER_BOUND ( 'NONE', #66, .T. ) ;
#248 = FACE_OUTER_BOUND ( 'NONE', #147, .T. ) ;
#249 = MECHANICAL_DESIGN_GEOMETRIC_PRESENTATION_REPRESENTATION (  '', ( #81 ), #206 ) ;
#250 = DIRECTION ( 'NONE',  ( 6.243297407417877041E-17, 1.000000000000000000, -0.000000000000000000 ) ) ;
#251 = SURFACE_STYLE_FILL_AREA ( #27 ) ;
#252 = CARTESIAN_POINT ( 'NONE',  ( 3.673940397442059868E-16, 0.000000000000000000, 3.000000000000000000 ) ) ;
#253 = ORIENTED_EDGE ( 'NONE', *, *, #72, .F. ) ;
#254 = CARTESIAN_POINT ( 'NONE',  ( 3.000000000000001332, 63.00000000000000000, 3.673940397442057896E-16 ) ) ;
#255 =( GEOMETRIC_REPRESENTATION_CONTEXT ( 3 ) GLOBAL_UNCERTAINTY_ASSIGNED_CONTEXT ( ( #270 ) ) GLOBAL_UNIT_ASSIGNED_CONTEXT ( ( #48, #5, #130 ) ) REPRESENTATION_CONTEXT ( 'NONE', 'WORKASPACE' ) );
#256 = CIRCLE ( 'NONE', #240, 2.999999999999996891 ) ;
#257 = SURFACE_SIDE_STYLE ('',( #10 ) ) ;
#258 = APPLICATION_PROTOCOL_DEFINITION ( 'draft international standard', 'automotive_design', 1998, #120 ) ;
#259 = ORIENTED_EDGE ( 'NONE', *, *, #12, .T. ) ;
#260 = PRESENTATION_LAYER_ASSIGNMENT (  '', '', ( #35 ) ) ;
#261 = DIRECTION ( 'NONE',  ( -0.000000000000000000, -1.000000000000000000, -0.000000000000000000 ) ) ;
#262 = AXIS2_PLACEMENT_3D ( 'NONE', #238, #283, #37 ) ;
#263 = ORIENTED_EDGE ( 'NONE', *, *, #237, .F. ) ;
#264 = STYLED_ITEM ( 'NONE', ( #110 ), #60 ) ;
#265 = DIRECTION ( 'NONE',  ( -0.000000000000000000, -1.000000000000000000, -0.000000000000000000 ) ) ;
#266 = DIRECTION ( 'NONE',  ( 0.000000000000000000, 0.000000000000000000, -1.000000000000000000 ) ) ;
#267 = DIRECTION ( 'NONE',  ( -1.000000000000000000, 0.000000000000000000, 0.000000000000000000 ) ) ;
#268 = CIRCLE ( 'NONE', #224, 3.000000000000000000 ) ;
#269 = SURFACE_STYLE_FILL_AREA ( #210 ) ;
#270 = UNCERTAINTY_MEASURE_WITH_UNIT (LENGTH_MEASURE( 1.000000000000000082E-05 ), #48, 'distance_accuracy_value', 'NONE');
#271 = FILL_AREA_STYLE ('',( #99 ) ) ;
#272 = SURFACE_STYLE_USAGE ( .BOTH. , #233 ) ;
#273 = CARTESIAN_POINT ( 'NONE',  ( 3.000000000000000000, 63.00000000000000000, 0.000000000000000000 ) ) ;
#274 = CARTESIAN_POINT ( 'NONE',  ( 3.184081677783117402E-15, 63.00000000000000000, 0.000000000000000000 ) ) ;
#275 = FACE_OUTER_BOUND ( 'NONE', #284, .T. ) ;
#276 = SURFACE_SIDE_STYLE ('',( #251 ) ) ;
#277 = ORIENTED_EDGE ( 'NONE', *, *, #117, .T. ) ;
#278 = CARTESIAN_POINT ( 'NONE',  ( 0.000000000000000000, 0.000000000000000000, 0.000000000000000000 ) ) ;
#279 = FACE_OUTER_BOUND ( 'NONE', #218, .T. ) ;
#280 = CIRCLE ( 'NONE', #144, 2.999999999999996891 ) ;
#281 = CIRCLE ( 'NONE', #262, 3.000000000000000000 ) ;
#282 = ORIENTED_EDGE ( 'NONE', *, *, #76, .F. ) ;
#283 = DIRECTION ( 'NONE',  ( 6.243297407417877041E-17, 1.000000000000000000, -0.000000000000000000 ) ) ;
#284 = EDGE_LOOP ( 'NONE', ( #146, #77, #219, #186 ) ) ;
#285 = COLOUR_RGB ( '',1.000000000000000000, 0.000000000000000000, 0.000000000000000000 ) ;
#286 = COLOUR_RGB ( '',1.000000000000000000, 0.000000000000000000, 0.000000000000000000 ) ;
#287 = COLOUR_RGB ( '',1.000000000000000000, 0.000000000000000000, 0.000000000000000000 ) ;
#288 = EDGE_LOOP ( 'NONE', ( #277, #159, #222, #263 ) ) ;
ENDSEC;
END-ISO-10303-21;
