ISO-10303-21;
HEADER;
FILE_DESCRIPTION (( 'STEP AP214' ),
    '1' );
FILE_NAME ('59465.STEP',
    '2023-07-24T15:07:01',
    ( '' ),
    ( '' ),
    'SwSTEP 2.0',
    'SolidWorks 2023',
    '' );
FILE_SCHEMA (( 'AUTOMOTIVE_DESIGN' ));
ENDSEC;

DATA;
#1 = CARTESIAN_POINT ( 'NONE',  ( 0.000000000000000000, 0.000000000000000000, 0.000000000000000000 ) ) ;
#2 = DIRECTION ( 'NONE',  ( -1.000000000000000000, -3.469446951953618133E-16, 0.000000000000000000 ) ) ;
#3 =( NAMED_UNIT ( * ) PLANE_ANGLE_UNIT ( ) SI_UNIT ( $, .RADIAN. ) );
#4 = CIRCLE ( 'NONE', #269, 0.4999999999999995559 ) ;
#5 = MECHANICAL_DESIGN_GEOMETRIC_PRESENTATION_REPRESENTATION (  '', ( #21 ), #308 ) ;
#6 = EDGE_LOOP ( 'NONE', ( #315, #334, #195, #54 ) ) ;
#7 =( NAMED_UNIT ( * ) SI_UNIT ( $, .STERADIAN. ) SOLID_ANGLE_UNIT ( ) );
#8 =( LENGTH_UNIT ( ) NAMED_UNIT ( * ) SI_UNIT ( .MILLI., .METRE. ) );
#9 =( NAMED_UNIT ( * ) SI_UNIT ( $, .STERADIAN. ) SOLID_ANGLE_UNIT ( ) );
#10 = DIRECTION ( 'NONE',  ( 0.000000000000000000, 0.000000000000000000, -1.000000000000000000 ) ) ;
#11 = STYLED_ITEM ( 'NONE', ( #42 ), #191 ) ;
#12 = AXIS2_PLACEMENT_3D ( 'NONE', #277, #68, #159 ) ;
#13 =( NAMED_UNIT ( * ) PLANE_ANGLE_UNIT ( ) SI_UNIT ( $, .RADIAN. ) );
#14 = DIRECTION ( 'NONE',  ( -0.000000000000000000, -1.000000000000000000, -0.000000000000000000 ) ) ;
#15 =( LENGTH_UNIT ( ) NAMED_UNIT ( * ) SI_UNIT ( .MILLI., .METRE. ) );
#16 = CARTESIAN_POINT ( 'NONE',  ( 0.000000000000000000, 0.000000000000000000, -5.000000000000000000 ) ) ;
#17 = AXIS2_PLACEMENT_3D ( 'NONE', #242, #235, #358 ) ;
#18 = ADVANCED_FACE ( 'NONE', ( #283 ), #220, .F. ) ;
#19 = EDGE_LOOP ( 'NONE', ( #272, #205, #192, #84 ) ) ;
#20 = PRESENTATION_LAYER_ASSIGNMENT (  '', '', ( #193 ) ) ;
#21 = STYLED_ITEM ( 'NONE', ( #155 ), #306 ) ;
#22 = ORIENTED_EDGE ( 'NONE', *, *, #102, .F. ) ;
#23 = VERTEX_POINT ( 'NONE', #103 ) ;
#24 = ADVANCED_BREP_SHAPE_REPRESENTATION ( '59465', ( #31, #142, #12 ), #276 ) ;
#25 = FACE_OUTER_BOUND ( 'NONE', #359, .T. ) ;
#26 = ORIENTED_EDGE ( 'NONE', *, *, #118, .T. ) ;
#27 = ADVANCED_FACE ( 'NONE', ( #25 ), #251, .T. ) ;
#28 = MECHANICAL_DESIGN_GEOMETRIC_PRESENTATION_REPRESENTATION (  '', ( #193 ), #296 ) ;
#29 = CARTESIAN_POINT ( 'NONE',  ( -7.470345474798853504E-15, 63.00000000000000000, 0.000000000000000000 ) ) ;
#30 = PRODUCT_CONTEXT ( 'NONE', #265, 'mechanical' ) ;
#31 = MANIFOLD_SOLID_BREP ( 'Revolve - Cutting Edge', #82 ) ;
#32 = EDGE_CURVE ( 'NONE', #157, #23, #4, .T. ) ;
#33 =( LENGTH_UNIT ( ) NAMED_UNIT ( * ) SI_UNIT ( .MILLI., .METRE. ) );
#34 = DIRECTION ( 'NONE',  ( 0.000000000000000000, 0.000000000000000000, -1.000000000000000000 ) ) ;
#35 = COLOUR_RGB ( '',1.000000000000000000, 0.000000000000000000, 0.000000000000000000 ) ;
#36 = CIRCLE ( 'NONE', #336, 4.500000000000000888 ) ;
#37 = SURFACE_STYLE_USAGE ( .BOTH. , #292 ) ;
#38 = FILL_AREA_STYLE ('',( #169 ) ) ;
#39 = ORIENTED_EDGE ( 'NONE', *, *, #67, .T. ) ;
#40 = LINE ( 'NONE', #183, #369 ) ;
#41 = ORIENTED_EDGE ( 'NONE', *, *, #102, .T. ) ;
#42 = PRESENTATION_STYLE_ASSIGNMENT (( #37 ) ) ;
#43 = SURFACE_STYLE_USAGE ( .BOTH. , #238 ) ;
#44 = AXIS2_PLACEMENT_3D ( 'NONE', #360, #189, #305 ) ;
#45 = ORIENTED_EDGE ( 'NONE', *, *, #202, .F. ) ;
#46 = PRESENTATION_LAYER_ASSIGNMENT (  '', '', ( #11 ) ) ;
#47 =( NAMED_UNIT ( * ) SI_UNIT ( $, .STERADIAN. ) SOLID_ANGLE_UNIT ( ) );
#48 = DIRECTION ( 'NONE',  ( 2.776049417962620302E-16, -1.000000000000000000, 0.000000000000000000 ) ) ;
#49 = ORIENTED_EDGE ( 'NONE', *, *, #202, .T. ) ;
#50 = AXIS2_PLACEMENT_3D ( 'NONE', #253, #259, #34 ) ;
#51 = EDGE_LOOP ( 'NONE', ( #76, #278 ) ) ;
#52 = ORIENTED_EDGE ( 'NONE', *, *, #218, .T. ) ;
#53 = EDGE_CURVE ( 'NONE', #85, #367, #333, .T. ) ;
#54 = ORIENTED_EDGE ( 'NONE', *, *, #290, .F. ) ;
#55 = PRODUCT_DEFINITION_CONTEXT ( 'detailed design', #344, 'design' ) ;
#56 = UNCERTAINTY_MEASURE_WITH_UNIT (LENGTH_MEASURE( 1.000000000000000082E-05 ), #8, 'distance_accuracy_value', 'NONE');
#57 = CARTESIAN_POINT ( 'NONE',  ( 6.123233995736766282E-16, 15.00000000000000000, 5.000000000000000000 ) ) ;
#58 = VERTEX_POINT ( 'NONE', #144 ) ;
#59 = PRESENTATION_LAYER_ASSIGNMENT (  '', '', ( #163 ) ) ;
#60 = TOROIDAL_SURFACE ( 'NONE', #152, 4.500000000000000888, 0.4999999999999997780 ) ;
#61 = CARTESIAN_POINT ( 'NONE',  ( 0.000000000000000000, 0.5000000000000000000, 0.000000000000000000 ) ) ;
#62 = SURFACE_STYLE_USAGE ( .BOTH. , #343 ) ;
#63 = AXIS2_PLACEMENT_3D ( 'NONE', #370, #120, #2 ) ;
#64 = COLOUR_RGB ( '',0.7921568627450980005, 0.8196078431372548767, 0.9333333333333333481 ) ;
#65 = AXIS2_PLACEMENT_3D ( 'NONE', #348, #208, #73 ) ;
#66 =( LENGTH_UNIT ( ) NAMED_UNIT ( * ) SI_UNIT ( .MILLI., .METRE. ) );
#67 = EDGE_CURVE ( 'NONE', #214, #70, #268, .T. ) ;
#68 = DIRECTION ( 'NONE',  ( 0.000000000000000000, 0.000000000000000000, 1.000000000000000000 ) ) ;
#69 = DIRECTION ( 'NONE',  ( -0.000000000000000000, -1.000000000000000000, -0.000000000000000000 ) ) ;
#70 = VERTEX_POINT ( 'NONE', #319 ) ;
#71 = FILL_AREA_STYLE_COLOUR ( '', #271 ) ;
#72 = FILL_AREA_STYLE ('',( #353 ) ) ;
#73 = DIRECTION ( 'NONE',  ( 0.000000000000000000, 0.000000000000000000, -1.000000000000000000 ) ) ;
#74 = CIRCLE ( 'NONE', #284, 0.4999999999999995559 ) ;
#75 = DIRECTION ( 'NONE',  ( -2.776049417962620302E-16, 1.000000000000000000, -0.000000000000000000 ) ) ;
#76 = ORIENTED_EDGE ( 'NONE', *, *, #91, .F. ) ;
#77 = CYLINDRICAL_SURFACE ( 'NONE', #65, 5.000000000000000000 ) ;
#78 = SURFACE_SIDE_STYLE ('',( #141 ) ) ;
#79 =( NAMED_UNIT ( * ) PLANE_ANGLE_UNIT ( ) SI_UNIT ( $, .RADIAN. ) );
#80 = DIRECTION ( 'NONE',  ( -2.776049417962620302E-16, 1.000000000000000000, -0.000000000000000000 ) ) ;
#81 = CARTESIAN_POINT ( 'NONE',  ( -7.470345474798853504E-15, 63.00000000000000000, 0.000000000000000000 ) ) ;
#82 = CLOSED_SHELL ( 'NONE', ( #191, #306, #273, #171, #111, #295 ) ) ;
#83 = CARTESIAN_POINT ( 'NONE',  ( -7.470345474798853504E-15, 63.00000000000000000, 0.000000000000000000 ) ) ;
#84 = ORIENTED_EDGE ( 'NONE', *, *, #218, .F. ) ;
#85 = VERTEX_POINT ( 'NONE', #291 ) ;
#86 = PRESENTATION_STYLE_ASSIGNMENT (( #62 ) ) ;
#87 = COLOUR_RGB ( '',1.000000000000000000, 0.000000000000000000, 0.000000000000000000 ) ;
#88 =( GEOMETRIC_REPRESENTATION_CONTEXT ( 3 ) GLOBAL_UNCERTAINTY_ASSIGNED_CONTEXT ( ( #130 ) ) GLOBAL_UNIT_ASSIGNED_CONTEXT ( ( #356, #79, #329 ) ) REPRESENTATION_CONTEXT ( 'NONE', 'WORKASPACE' ) );
#89 = ORIENTED_EDGE ( 'NONE', *, *, #32, .F. ) ;
#90 = CARTESIAN_POINT ( 'NONE',  ( 6.123233995736766282E-16, 0.5000000000000000000, 5.000000000000000000 ) ) ;
#91 = EDGE_CURVE ( 'NONE', #367, #85, #281, .T. ) ;
#92 = SURFACE_SIDE_STYLE ('',( #263 ) ) ;
#93 = AXIS2_PLACEMENT_3D ( 'NONE', #201, #138, #285 ) ;
#94 = CARTESIAN_POINT ( 'NONE',  ( 0.000000000000000000, 0.000000000000000000, 0.000000000000000000 ) ) ;
#95 = MECHANICAL_DESIGN_GEOMETRIC_PRESENTATION_REPRESENTATION (  '', ( #199 ), #342 ) ;
#96 = FILL_AREA_STYLE_COLOUR ( '', #87 ) ;
#97 =( LENGTH_UNIT ( ) NAMED_UNIT ( * ) SI_UNIT ( .MILLI., .METRE. ) );
#98 = FACE_OUTER_BOUND ( 'NONE', #256, .T. ) ;
#99 = CIRCLE ( 'NONE', #302, 5.000000000000000000 ) ;
#100 = ORIENTED_EDGE ( 'NONE', *, *, #118, .F. ) ;
#101 = PLANE ( 'NONE',  #260 ) ;
#102 = EDGE_CURVE ( 'NONE', #23, #58, #215, .T. ) ;
#103 = CARTESIAN_POINT ( 'NONE',  ( 0.000000000000000000, 0.000000000000000000, -4.500000000000000888 ) ) ;
#104 = AXIS2_PLACEMENT_3D ( 'NONE', #261, #116, #146 ) ;
#105 = UNCERTAINTY_MEASURE_WITH_UNIT (LENGTH_MEASURE( 1.000000000000000082E-05 ), #33, 'distance_accuracy_value', 'NONE');
#106 = VECTOR ( 'NONE', #14, 1000.000000000000000 ) ;
#107 = UNCERTAINTY_MEASURE_WITH_UNIT (LENGTH_MEASURE( 1.000000000000000082E-05 ), #165, 'distance_accuracy_value', 'NONE');
#108 = PRODUCT_DEFINITION ( 'UNKNOWN', '', #110, #55 ) ;
#109 = AXIS2_PLACEMENT_3D ( 'NONE', #83, #363, #221 ) ;
#110 = PRODUCT_DEFINITION_FORMATION_WITH_SPECIFIED_SOURCE ( 'ANY', '', #368, .NOT_KNOWN. ) ;
#111 = ADVANCED_FACE ( 'NONE', ( #98 ), #112, .T. ) ;
#112 = CYLINDRICAL_SURFACE ( 'NONE', #93, 5.000000000000000000 ) ;
#113 = STYLED_ITEM ( 'NONE', ( #351 ), #111 ) ;
#114 = FACE_OUTER_BOUND ( 'NONE', #128, .T. ) ;
#115 = AXIS2_PLACEMENT_3D ( 'NONE', #1, #310, #227 ) ;
#116 = DIRECTION ( 'NONE',  ( -2.776049417962620302E-16, 1.000000000000000000, -0.000000000000000000 ) ) ;
#117 =( NAMED_UNIT ( * ) SI_UNIT ( $, .STERADIAN. ) SOLID_ANGLE_UNIT ( ) );
#118 = EDGE_CURVE ( 'NONE', #85, #214, #226, .T. ) ;
#119 =( NAMED_UNIT ( * ) SI_UNIT ( $, .STERADIAN. ) SOLID_ANGLE_UNIT ( ) );
#120 = DIRECTION ( 'NONE',  ( -2.776049417962620302E-16, 1.000000000000000000, -0.000000000000000000 ) ) ;
#121 = DIRECTION ( 'NONE',  ( 0.000000000000000000, 0.000000000000000000, -1.000000000000000000 ) ) ;
#122 = CARTESIAN_POINT ( 'NONE',  ( -4.999999999999988454, 14.99999999999999822, 0.000000000000000000 ) ) ;
#123 = ORIENTED_EDGE ( 'NONE', *, *, #325, .F. ) ;
#124 =( LENGTH_UNIT ( ) NAMED_UNIT ( * ) SI_UNIT ( .MILLI., .METRE. ) );
#125 = DIRECTION ( 'NONE',  ( 0.000000000000000000, 0.000000000000000000, -1.000000000000000000 ) ) ;
#126 = DIRECTION ( 'NONE',  ( -2.776049417962620302E-16, 1.000000000000000000, -0.000000000000000000 ) ) ;
#127 = FILL_AREA_STYLE_COLOUR ( '', #321 ) ;
#128 = EDGE_LOOP ( 'NONE', ( #354, #45 ) ) ;
#129 = VECTOR ( 'NONE', #228, 1000.000000000000000 ) ;
#130 = UNCERTAINTY_MEASURE_WITH_UNIT (LENGTH_MEASURE( 1.000000000000000082E-05 ), #356, 'distance_accuracy_value', 'NONE');
#131 = MECHANICAL_DESIGN_GEOMETRIC_PRESENTATION_REPRESENTATION (  '', ( #164 ), #88 ) ;
#132 = UNCERTAINTY_MEASURE_WITH_UNIT (LENGTH_MEASURE( 1.000000000000000082E-05 ), #66, 'distance_accuracy_value', 'NONE');
#133 = EDGE_LOOP ( 'NONE', ( #219, #39 ) ) ;
#134 = PLANE ( 'NONE',  #115 ) ;
#135 = FILL_AREA_STYLE_COLOUR ( '', #64 ) ;
#136 = COLOUR_RGB ( '',1.000000000000000000, 0.000000000000000000, 0.000000000000000000 ) ;
#137 = SURFACE_STYLE_USAGE ( .BOTH. , #145 ) ;
#138 = DIRECTION ( 'NONE',  ( -0.000000000000000000, -1.000000000000000000, -0.000000000000000000 ) ) ;
#139 = SURFACE_STYLE_FILL_AREA ( #177 ) ;
#140 = ORIENTED_EDGE ( 'NONE', *, *, #91, .T. ) ;
#141 = SURFACE_STYLE_FILL_AREA ( #313 ) ;
#142 = MANIFOLD_SOLID_BREP ( 'Revolve - Tool Body (Straight Shanked)', #186 ) ;
#143 = PRESENTATION_LAYER_ASSIGNMENT (  '', '', ( #164 ) ) ;
#144 = CARTESIAN_POINT ( 'NONE',  ( 5.817072295949928412E-16, 0.000000000000000000, 4.500000000000000888 ) ) ;
#145 = SURFACE_SIDE_STYLE ('',( #317 ) ) ;
#146 = DIRECTION ( 'NONE',  ( -1.000000000000000000, 0.000000000000000000, 0.000000000000000000 ) ) ;
#147 = DIRECTION ( 'NONE',  ( -0.000000000000000000, -1.000000000000000000, -0.000000000000000000 ) ) ;
#148 = DIRECTION ( 'NONE',  ( -0.000000000000000000, -1.000000000000000000, -0.000000000000000000 ) ) ;
#149 = DIRECTION ( 'NONE',  ( -0.000000000000000000, -1.000000000000000000, -0.000000000000000000 ) ) ;
#150 = EDGE_CURVE ( 'NONE', #160, #249, #241, .T. ) ;
#151 = AXIS2_PLACEMENT_3D ( 'NONE', #231, #75, #170 ) ;
#152 = AXIS2_PLACEMENT_3D ( 'NONE', #349, #147, #121 ) ;
#153 = FILL_AREA_STYLE ('',( #127 ) ) ;
#154 = CARTESIAN_POINT ( 'NONE',  ( 5.000000000000000000, 63.00000000000000000, 0.000000000000000000 ) ) ;
#155 = PRESENTATION_STYLE_ASSIGNMENT (( #210 ) ) ;
#156 = AXIS2_PLACEMENT_3D ( 'NONE', #81, #80, #217 ) ;
#157 = VERTEX_POINT ( 'NONE', #203 ) ;
#158 = ORIENTED_EDGE ( 'NONE', *, *, #67, .F. ) ;
#159 = DIRECTION ( 'NONE',  ( 1.000000000000000000, 0.000000000000000000, 0.000000000000000000 ) ) ;
#160 = VERTEX_POINT ( 'NONE', #326 ) ;
#161 = FACE_OUTER_BOUND ( 'NONE', #173, .T. ) ;
#162 = DIRECTION ( 'NONE',  ( -2.776049417962620302E-16, 1.000000000000000000, -0.000000000000000000 ) ) ;
#163 = STYLED_ITEM ( 'NONE', ( #172 ), #142 ) ;
#164 = STYLED_ITEM ( 'NONE', ( #330 ), #295 ) ;
#165 =( LENGTH_UNIT ( ) NAMED_UNIT ( * ) SI_UNIT ( .MILLI., .METRE. ) );
#166 = VECTOR ( 'NONE', #126, 1000.000000000000000 ) ;
#167 = CARTESIAN_POINT ( 'NONE',  ( 4.999999999999992895, 63.00000000000000000, 6.123233995736767268E-16 ) ) ;
#168 = APPLICATION_PROTOCOL_DEFINITION ( 'draft international standard', 'automotive_design', 1998, #265 ) ;
#169 = FILL_AREA_STYLE_COLOUR ( '', #194 ) ;
#170 = DIRECTION ( 'NONE',  ( -1.000000000000000000, -3.469446951953618133E-16, 0.000000000000000000 ) ) ;
#171 = ADVANCED_FACE ( 'NONE', ( #352 ), #60, .T. ) ;
#172 = PRESENTATION_STYLE_ASSIGNMENT (( #204 ) ) ;
#173 = EDGE_LOOP ( 'NONE', ( #41, #340 ) ) ;
#174 = FILL_AREA_STYLE ('',( #71 ) ) ;
#175 = PRESENTATION_LAYER_ASSIGNMENT (  '', '', ( #288 ) ) ;
#176 = PRESENTATION_LAYER_ASSIGNMENT (  '', '', ( #199 ) ) ;
#177 = FILL_AREA_STYLE ('',( #207 ) ) ;
#178 = DIRECTION ( 'NONE',  ( 0.000000000000000000, 0.000000000000000000, -1.000000000000000000 ) ) ;
#179 = EDGE_CURVE ( 'NONE', #243, #58, #74, .T. ) ;
#180 = SURFACE_STYLE_FILL_AREA ( #174 ) ;
#181 = FILL_AREA_STYLE_COLOUR ( '', #136 ) ;
#182 = PLANE ( 'NONE',  #17 ) ;
#183 = CARTESIAN_POINT ( 'NONE',  ( 6.123233995736766282E-16, 0.000000000000000000, 5.000000000000000000 ) ) ;
#184 = CARTESIAN_POINT ( 'NONE',  ( 5.000000000000000000, 63.00000000000000000, 6.123233995736771213E-16 ) ) ;
#185 = SURFACE_SIDE_STYLE ('',( #240 ) ) ;
#186 = CLOSED_SHELL ( 'NONE', ( #27, #18, #244, #216 ) ) ;
#187 = CIRCLE ( 'NONE', #312, 5.000000000000000000 ) ;
#188 = ORIENTED_EDGE ( 'NONE', *, *, #53, .T. ) ;
#189 = DIRECTION ( 'NONE',  ( -2.776049417962620302E-16, 1.000000000000000000, 0.000000000000000000 ) ) ;
#190 = EDGE_LOOP ( 'NONE', ( #100, #188, #233, #158 ) ) ;
#191 = ADVANCED_FACE ( 'NONE', ( #212 ), #77, .T. ) ;
#192 = ORIENTED_EDGE ( 'NONE', *, *, #239, .F. ) ;
#193 = STYLED_ITEM ( 'NONE', ( #86 ), #31 ) ;
#194 = COLOUR_RGB ( '',1.000000000000000000, 0.000000000000000000, 0.000000000000000000 ) ;
#195 = ORIENTED_EDGE ( 'NONE', *, *, #32, .T. ) ;
#196 = DIRECTION ( 'NONE',  ( -0.000000000000000000, -1.000000000000000000, -0.000000000000000000 ) ) ;
#197 =( NAMED_UNIT ( * ) SI_UNIT ( $, .STERADIAN. ) SOLID_ANGLE_UNIT ( ) );
#198 = MECHANICAL_DESIGN_GEOMETRIC_PRESENTATION_REPRESENTATION (  '', ( #113 ), #247 ) ;
#199 = STYLED_ITEM ( 'NONE', ( #262 ), #273 ) ;
#200 = DIRECTION ( 'NONE',  ( -0.000000000000000000, -1.000000000000000000, -0.000000000000000000 ) ) ;
#201 = CARTESIAN_POINT ( 'NONE',  ( 0.000000000000000000, 0.000000000000000000, 0.000000000000000000 ) ) ;
#202 = EDGE_CURVE ( 'NONE', #249, #160, #187, .T. ) ;
#203 = CARTESIAN_POINT ( 'NONE',  ( 0.000000000000000000, 0.5000000000000000000, -5.000000000000000000 ) ) ;
#204 = SURFACE_STYLE_USAGE ( .BOTH. , #232 ) ;
#205 = ORIENTED_EDGE ( 'NONE', *, *, #332, .T. ) ;
#206 = PRESENTATION_STYLE_ASSIGNMENT (( #294 ) ) ;
#207 = FILL_AREA_STYLE_COLOUR ( '', #347 ) ;
#208 = DIRECTION ( 'NONE',  ( -0.000000000000000000, -1.000000000000000000, -0.000000000000000000 ) ) ;
#209 = ORIENTED_EDGE ( 'NONE', *, *, #239, .T. ) ;
#210 = SURFACE_STYLE_USAGE ( .BOTH. , #185 ) ;
#211 =( NAMED_UNIT ( * ) PLANE_ANGLE_UNIT ( ) SI_UNIT ( $, .RADIAN. ) );
#212 = FACE_OUTER_BOUND ( 'NONE', #19, .T. ) ;
#213 = DIRECTION ( 'NONE',  ( 1.000000000000000000, 2.776049417962620302E-16, 0.000000000000000000 ) ) ;
#214 = VERTEX_POINT ( 'NONE', #184 ) ;
#215 = CIRCLE ( 'NONE', #361, 4.500000000000000888 ) ;
#216 = ADVANCED_FACE ( 'NONE', ( #267 ), #101, .F. ) ;
#217 = DIRECTION ( 'NONE',  ( -1.000000000000000000, 0.000000000000000000, 0.000000000000000000 ) ) ;
#218 = EDGE_CURVE ( 'NONE', #160, #157, #331, .T. ) ;
#219 = ORIENTED_EDGE ( 'NONE', *, *, #325, .T. ) ;
#220 = PLANE ( 'NONE',  #44 ) ;
#221 = DIRECTION ( 'NONE',  ( -1.000000000000000000, 0.000000000000000000, 0.000000000000000000 ) ) ;
#222 = UNCERTAINTY_MEASURE_WITH_UNIT (LENGTH_MEASURE( 1.000000000000000082E-05 ), #254, 'distance_accuracy_value', 'NONE');
#223 = MECHANICAL_DESIGN_GEOMETRIC_PRESENTATION_REPRESENTATION (  '', ( #288 ), #230 ) ;
#224 = CIRCLE ( 'NONE', #156, 5.000000000000007994 ) ;
#225 = EDGE_CURVE ( 'NONE', #367, #70, #236, .T. ) ;
#226 = LINE ( 'NONE', #167, #129 ) ;
#227 = DIRECTION ( 'NONE',  ( 0.000000000000000000, 0.000000000000000000, -1.000000000000000000 ) ) ;
#228 = DIRECTION ( 'NONE',  ( -2.776049417962620302E-16, 1.000000000000000000, -0.000000000000000000 ) ) ;
#229 = AXIS2_PLACEMENT_3D ( 'NONE', #29, #162, #309 ) ;
#230 =( GEOMETRIC_REPRESENTATION_CONTEXT ( 3 ) GLOBAL_UNCERTAINTY_ASSIGNED_CONTEXT ( ( #366 ) ) GLOBAL_UNIT_ASSIGNED_CONTEXT ( ( #97, #264, #9 ) ) REPRESENTATION_CONTEXT ( 'NONE', 'WORKASPACE' ) );
#231 = CARTESIAN_POINT ( 'NONE',  ( 5.854691731421723944E-15, 15.00000000000000000, 0.000000000000000000 ) ) ;
#232 = SURFACE_SIDE_STYLE ('',( #139 ) ) ;
#233 = ORIENTED_EDGE ( 'NONE', *, *, #225, .T. ) ;
#234 = CARTESIAN_POINT ( 'NONE',  ( 0.000000000000000000, 15.00000000000000000, 0.000000000000000000 ) ) ;
#235 = DIRECTION ( 'NONE',  ( 0.000000000000000000, 1.000000000000000000, 0.000000000000000000 ) ) ;
#236 = LINE ( 'NONE', #327, #166 ) ;
#237 = ORIENTED_EDGE ( 'NONE', *, *, #225, .F. ) ;
#238 = SURFACE_SIDE_STYLE ('',( #322 ) ) ;
#239 = EDGE_CURVE ( 'NONE', #157, #243, #248, .T. ) ;
#240 = SURFACE_STYLE_FILL_AREA ( #293 ) ;
#241 = CIRCLE ( 'NONE', #50, 5.000000000000000000 ) ;
#242 = CARTESIAN_POINT ( 'NONE',  ( 0.000000000000000000, 15.00000000000000000, 0.000000000000000000 ) ) ;
#243 = VERTEX_POINT ( 'NONE', #90 ) ;
#244 = ADVANCED_FACE ( 'NONE', ( #280 ), #335, .T. ) ;
#245 =( NAMED_UNIT ( * ) PLANE_ANGLE_UNIT ( ) SI_UNIT ( $, .RADIAN. ) );
#246 = DIRECTION ( 'NONE',  ( 0.000000000000000000, 0.000000000000000000, -1.000000000000000000 ) ) ;
#247 =( GEOMETRIC_REPRESENTATION_CONTEXT ( 3 ) GLOBAL_UNCERTAINTY_ASSIGNED_CONTEXT ( ( #132 ) ) GLOBAL_UNIT_ASSIGNED_CONTEXT ( ( #66, #211, #7 ) ) REPRESENTATION_CONTEXT ( 'NONE', 'WORKASPACE' ) );
#248 = CIRCLE ( 'NONE', #311, 5.000000000000000000 ) ;
#249 = VERTEX_POINT ( 'NONE', #57 ) ;
#250 = ORIENTED_EDGE ( 'NONE', *, *, #179, .T. ) ;
#251 = CYLINDRICAL_SURFACE ( 'NONE', #229, 5.000000000000000888 ) ;
#252 = FILL_AREA_STYLE ('',( #135 ) ) ;
#253 = CARTESIAN_POINT ( 'NONE',  ( 0.000000000000000000, 15.00000000000000000, 0.000000000000000000 ) ) ;
#254 =( LENGTH_UNIT ( ) NAMED_UNIT ( * ) SI_UNIT ( .MILLI., .METRE. ) );
#255 = SURFACE_STYLE_USAGE ( .BOTH. , #92 ) ;
#256 = EDGE_LOOP ( 'NONE', ( #301, #49, #52, #304 ) ) ;
#257 = APPLICATION_PROTOCOL_DEFINITION ( 'draft international standard', 'automotive_design', 1998, #344 ) ;
#258 = DIRECTION ( 'NONE',  ( 0.000000000000000000, 0.000000000000000000, -1.000000000000000000 ) ) ;
#259 = DIRECTION ( 'NONE',  ( -0.000000000000000000, -1.000000000000000000, -0.000000000000000000 ) ) ;
#260 = AXIS2_PLACEMENT_3D ( 'NONE', #154, #48, #213 ) ;
#261 = CARTESIAN_POINT ( 'NONE',  ( -7.470345474798853504E-15, 63.00000000000000000, 0.000000000000000000 ) ) ;
#262 = PRESENTATION_STYLE_ASSIGNMENT (( #137 ) ) ;
#263 = SURFACE_STYLE_FILL_AREA ( #72 ) ;
#264 =( NAMED_UNIT ( * ) PLANE_ANGLE_UNIT ( ) SI_UNIT ( $, .RADIAN. ) );
#265 = APPLICATION_CONTEXT ( 'automotive_design' ) ;
#266 = CARTESIAN_POINT ( 'NONE',  ( 0.000000000000000000, 0.5000000000000000000, 0.000000000000000000 ) ) ;
#267 = FACE_OUTER_BOUND ( 'NONE', #133, .T. ) ;
#268 = CIRCLE ( 'NONE', #104, 5.000000000000007994 ) ;
#269 = AXIS2_PLACEMENT_3D ( 'NONE', #279, #314, #323 ) ;
#270 = CARTESIAN_POINT ( 'NONE',  ( 0.000000000000000000, 0.5000000000000000000, 0.000000000000000000 ) ) ;
#271 = COLOUR_RGB ( '',1.000000000000000000, 0.000000000000000000, 0.000000000000000000 ) ;
#272 = ORIENTED_EDGE ( 'NONE', *, *, #150, .T. ) ;
#273 = ADVANCED_FACE ( 'NONE', ( #161 ), #134, .T. ) ;
#274 = DIRECTION ( 'NONE',  ( -0.000000000000000000, -1.000000000000000000, -0.000000000000000000 ) ) ;
#275 = MECHANICAL_DESIGN_GEOMETRIC_PRESENTATION_REPRESENTATION (  '', ( #11 ), #297 ) ;
#276 =( GEOMETRIC_REPRESENTATION_CONTEXT ( 3 ) GLOBAL_UNCERTAINTY_ASSIGNED_CONTEXT ( ( #365 ) ) GLOBAL_UNIT_ASSIGNED_CONTEXT ( ( #15, #13, #337 ) ) REPRESENTATION_CONTEXT ( 'NONE', 'WORKASPACE' ) );
#277 = CARTESIAN_POINT ( 'NONE',  ( 0.000000000000000000, 0.000000000000000000, 0.000000000000000000 ) ) ;
#278 = ORIENTED_EDGE ( 'NONE', *, *, #53, .F. ) ;
#279 = CARTESIAN_POINT ( 'NONE',  ( 0.000000000000000000, 0.5000000000000000000, -4.500000000000000888 ) ) ;
#280 = FACE_OUTER_BOUND ( 'NONE', #190, .T. ) ;
#281 = CIRCLE ( 'NONE', #151, 4.999999999999994671 ) ;
#282 = PRESENTATION_LAYER_ASSIGNMENT (  '', '', ( #21 ) ) ;
#283 = FACE_OUTER_BOUND ( 'NONE', #51, .T. ) ;
#284 = AXIS2_PLACEMENT_3D ( 'NONE', #320, #316, #287 ) ;
#285 = DIRECTION ( 'NONE',  ( 0.000000000000000000, 0.000000000000000000, -1.000000000000000000 ) ) ;
#286 = CARTESIAN_POINT ( 'NONE',  ( 0.000000000000000000, 0.000000000000000000, 0.000000000000000000 ) ) ;
#287 = DIRECTION ( 'NONE',  ( -1.224646799147353454E-16, 0.000000000000000000, -1.000000000000000000 ) ) ;
#288 = STYLED_ITEM ( 'NONE', ( #206 ), #171 ) ;
#289 = AXIS2_PLACEMENT_3D ( 'NONE', #270, #274, #324 ) ;
#290 = EDGE_CURVE ( 'NONE', #58, #23, #36, .T. ) ;
#291 = CARTESIAN_POINT ( 'NONE',  ( 5.000000000000000888, 15.00000000000000178, 6.123233995736771213E-16 ) ) ;
#292 = SURFACE_SIDE_STYLE ('',( #180 ) ) ;
#293 = FILL_AREA_STYLE ('',( #181 ) ) ;
#294 = SURFACE_STYLE_USAGE ( .BOTH. , #78 ) ;
#295 = ADVANCED_FACE ( 'NONE', ( #114 ), #182, .T. ) ;
#296 =( GEOMETRIC_REPRESENTATION_CONTEXT ( 3 ) GLOBAL_UNCERTAINTY_ASSIGNED_CONTEXT ( ( #107 ) ) GLOBAL_UNIT_ASSIGNED_CONTEXT ( ( #165, #245, #338 ) ) REPRESENTATION_CONTEXT ( 'NONE', 'WORKASPACE' ) );
#297 =( GEOMETRIC_REPRESENTATION_CONTEXT ( 3 ) GLOBAL_UNCERTAINTY_ASSIGNED_CONTEXT ( ( #222 ) ) GLOBAL_UNIT_ASSIGNED_CONTEXT ( ( #254, #3, #197 ) ) REPRESENTATION_CONTEXT ( 'NONE', 'WORKASPACE' ) );
#298 =( NAMED_UNIT ( * ) PLANE_ANGLE_UNIT ( ) SI_UNIT ( $, .RADIAN. ) );
#299 = DIRECTION ( 'NONE',  ( -0.000000000000000000, -1.000000000000000000, -0.000000000000000000 ) ) ;
#300 = FACE_OUTER_BOUND ( 'NONE', #362, .T. ) ;
#301 = ORIENTED_EDGE ( 'NONE', *, *, #332, .F. ) ;
#302 = AXIS2_PLACEMENT_3D ( 'NONE', #266, #299, #10 ) ;
#303 = UNCERTAINTY_MEASURE_WITH_UNIT (LENGTH_MEASURE( 1.000000000000000082E-05 ), #124, 'distance_accuracy_value', 'NONE');
#304 = ORIENTED_EDGE ( 'NONE', *, *, #339, .F. ) ;
#305 = DIRECTION ( 'NONE',  ( -1.000000000000000000, -2.776049417962620302E-16, 0.000000000000000000 ) ) ;
#306 = ADVANCED_FACE ( 'NONE', ( #300 ), #357, .T. ) ;
#307 =( GEOMETRIC_REPRESENTATION_CONTEXT ( 3 ) GLOBAL_UNCERTAINTY_ASSIGNED_CONTEXT ( ( #56 ) ) GLOBAL_UNIT_ASSIGNED_CONTEXT ( ( #8, #346, #117 ) ) REPRESENTATION_CONTEXT ( 'NONE', 'WORKASPACE' ) );
#308 =( GEOMETRIC_REPRESENTATION_CONTEXT ( 3 ) GLOBAL_UNCERTAINTY_ASSIGNED_CONTEXT ( ( #303 ) ) GLOBAL_UNIT_ASSIGNED_CONTEXT ( ( #124, #298, #47 ) ) REPRESENTATION_CONTEXT ( 'NONE', 'WORKASPACE' ) );
#309 = DIRECTION ( 'NONE',  ( -1.000000000000000000, 0.000000000000000000, 0.000000000000000000 ) ) ;
#310 = DIRECTION ( 'NONE',  ( 0.000000000000000000, -1.000000000000000000, -0.000000000000000000 ) ) ;
#311 = AXIS2_PLACEMENT_3D ( 'NONE', #61, #196, #246 ) ;
#312 = AXIS2_PLACEMENT_3D ( 'NONE', #234, #149, #125 ) ;
#313 = FILL_AREA_STYLE ('',( #96 ) ) ;
#314 = DIRECTION ( 'NONE',  ( -1.000000000000000000, 0.000000000000000000, 0.000000000000000000 ) ) ;
#315 = ORIENTED_EDGE ( 'NONE', *, *, #179, .F. ) ;
#316 = DIRECTION ( 'NONE',  ( 1.000000000000000000, 0.000000000000000000, -1.224646799147353207E-16 ) ) ;
#317 = SURFACE_STYLE_FILL_AREA ( #38 ) ;
#318 = PRODUCT_RELATED_PRODUCT_CATEGORY ( 'part', '', ( #368 ) ) ;
#319 = CARTESIAN_POINT ( 'NONE',  ( -5.000000000000015987, 63.00000000000000000, 0.000000000000000000 ) ) ;
#320 = CARTESIAN_POINT ( 'NONE',  ( 5.510910596163089556E-16, 0.5000000000000000000, 4.500000000000000888 ) ) ;
#321 = COLOUR_RGB ( '',1.000000000000000000, 0.000000000000000000, 0.000000000000000000 ) ;
#322 = SURFACE_STYLE_FILL_AREA ( #153 ) ;
#323 = DIRECTION ( 'NONE',  ( 0.000000000000000000, 0.000000000000000000, 1.000000000000000000 ) ) ;
#324 = DIRECTION ( 'NONE',  ( 0.000000000000000000, 0.000000000000000000, -1.000000000000000000 ) ) ;
#325 = EDGE_CURVE ( 'NONE', #70, #214, #224, .T. ) ;
#326 = CARTESIAN_POINT ( 'NONE',  ( 0.000000000000000000, 15.00000000000000000, -5.000000000000000000 ) ) ;
#327 = CARTESIAN_POINT ( 'NONE',  ( -5.000000000000008882, 63.00000000000000000, 0.000000000000000000 ) ) ;
#328 = PRESENTATION_LAYER_ASSIGNMENT (  '', '', ( #113 ) ) ;
#329 =( NAMED_UNIT ( * ) SI_UNIT ( $, .STERADIAN. ) SOLID_ANGLE_UNIT ( ) );
#330 = PRESENTATION_STYLE_ASSIGNMENT (( #43 ) ) ;
#331 = LINE ( 'NONE', #16, #106 ) ;
#332 = EDGE_CURVE ( 'NONE', #249, #243, #40, .T. ) ;
#333 = CIRCLE ( 'NONE', #63, 4.999999999999994671 ) ;
#334 = ORIENTED_EDGE ( 'NONE', *, *, #339, .T. ) ;
#335 = CYLINDRICAL_SURFACE ( 'NONE', #109, 5.000000000000000888 ) ;
#336 = AXIS2_PLACEMENT_3D ( 'NONE', #94, #200, #258 ) ;
#337 =( NAMED_UNIT ( * ) SI_UNIT ( $, .STERADIAN. ) SOLID_ANGLE_UNIT ( ) );
#338 =( NAMED_UNIT ( * ) SI_UNIT ( $, .STERADIAN. ) SOLID_ANGLE_UNIT ( ) );
#339 = EDGE_CURVE ( 'NONE', #243, #157, #99, .T. ) ;
#340 = ORIENTED_EDGE ( 'NONE', *, *, #290, .T. ) ;
#341 = MECHANICAL_DESIGN_GEOMETRIC_PRESENTATION_REPRESENTATION (  '', ( #163 ), #307 ) ;
#342 =( GEOMETRIC_REPRESENTATION_CONTEXT ( 3 ) GLOBAL_UNCERTAINTY_ASSIGNED_CONTEXT ( ( #105 ) ) GLOBAL_UNIT_ASSIGNED_CONTEXT ( ( #33, #350, #119 ) ) REPRESENTATION_CONTEXT ( 'NONE', 'WORKASPACE' ) );
#343 = SURFACE_SIDE_STYLE ('',( #364 ) ) ;
#344 = APPLICATION_CONTEXT ( 'automotive_design' ) ;
#345 = SHAPE_DEFINITION_REPRESENTATION ( #355, #24 ) ;
#346 =( NAMED_UNIT ( * ) PLANE_ANGLE_UNIT ( ) SI_UNIT ( $, .RADIAN. ) );
#347 = COLOUR_RGB ( '',0.7921568627450980005, 0.8196078431372548767, 0.9333333333333333481 ) ;
#348 = CARTESIAN_POINT ( 'NONE',  ( 0.000000000000000000, 0.000000000000000000, 0.000000000000000000 ) ) ;
#349 = CARTESIAN_POINT ( 'NONE',  ( 0.000000000000000000, 0.5000000000000000000, 0.000000000000000000 ) ) ;
#350 =( NAMED_UNIT ( * ) PLANE_ANGLE_UNIT ( ) SI_UNIT ( $, .RADIAN. ) );
#351 = PRESENTATION_STYLE_ASSIGNMENT (( #255 ) ) ;
#352 = FACE_OUTER_BOUND ( 'NONE', #6, .T. ) ;
#353 = FILL_AREA_STYLE_COLOUR ( '', #35 ) ;
#354 = ORIENTED_EDGE ( 'NONE', *, *, #150, .F. ) ;
#355 = PRODUCT_DEFINITION_SHAPE ( 'NONE', 'NONE',  #108 ) ;
#356 =( LENGTH_UNIT ( ) NAMED_UNIT ( * ) SI_UNIT ( .MILLI., .METRE. ) );
#357 = TOROIDAL_SURFACE ( 'NONE', #289, 4.500000000000000888, 0.4999999999999997780 ) ;
#358 = DIRECTION ( 'NONE',  ( 0.000000000000000000, -0.000000000000000000, 1.000000000000000000 ) ) ;
#359 = EDGE_LOOP ( 'NONE', ( #140, #26, #123, #237 ) ) ;
#360 = CARTESIAN_POINT ( 'NONE',  ( 5.854691731421723944E-15, 15.00000000000000000, 0.000000000000000000 ) ) ;
#361 = AXIS2_PLACEMENT_3D ( 'NONE', #286, #69, #178 ) ;
#362 = EDGE_LOOP ( 'NONE', ( #209, #250, #22, #89 ) ) ;
#363 = DIRECTION ( 'NONE',  ( -2.776049417962620302E-16, 1.000000000000000000, -0.000000000000000000 ) ) ;
#364 = SURFACE_STYLE_FILL_AREA ( #252 ) ;
#365 = UNCERTAINTY_MEASURE_WITH_UNIT (LENGTH_MEASURE( 1.000000000000000082E-05 ), #15, 'distance_accuracy_value', 'NONE');
#366 = UNCERTAINTY_MEASURE_WITH_UNIT (LENGTH_MEASURE( 1.000000000000000082E-05 ), #97, 'distance_accuracy_value', 'NONE');
#367 = VERTEX_POINT ( 'NONE', #122 ) ;
#368 = PRODUCT ( '59465', '59465', '', ( #30 ) ) ;
#369 = VECTOR ( 'NONE', #148, 1000.000000000000000 ) ;
#370 = CARTESIAN_POINT ( 'NONE',  ( 5.854691731421723944E-15, 15.00000000000000000, 0.000000000000000000 ) ) ;
ENDSEC;
END-ISO-10303-21;
