ISO-10303-21;
HEADER;
FILE_DESCRIPTION (( 'STEP AP214' ),
    '1' );
FILE_NAME ('06345.STEP',
    '2023-07-05T16:01:52',
    ( '' ),
    ( '' ),
    'SwSTEP 2.0',
    'SolidWorks 2023',
    '' );
FILE_SCHEMA (( 'AUTOMOTIVE_DESIGN' ));
ENDSEC;

DATA;
#1 = AXIS2_PLACEMENT_3D ( 'NONE', #64, #224, #192 ) ;
#2 = SURFACE_STYLE_FILL_AREA ( #139 ) ;
#3 = FACE_OUTER_BOUND ( 'NONE', #165, .T. ) ;
#4 = SURFACE_STYLE_FILL_AREA ( #59 ) ;
#5 = EDGE_LOOP ( 'NONE', ( #23, #207 ) ) ;
#6 = LINE ( 'NONE', #122, #255 ) ;
#7 = ORIENTED_EDGE ( 'NONE', *, *, #257, .T. ) ;
#8 = SURFACE_STYLE_USAGE ( .BOTH. , #44 ) ;
#9 =( GEOMETRIC_REPRESENTATION_CONTEXT ( 3 ) GLOBAL_UNCERTAINTY_ASSIGNED_CONTEXT ( ( #66 ) ) GLOBAL_UNIT_ASSIGNED_CONTEXT ( ( #191, #129, #28 ) ) REPRESENTATION_CONTEXT ( 'NONE', 'WORKASPACE' ) );
#10 = CARTESIAN_POINT ( 'NONE',  ( -6.123233995736766036E-17, 2.500000000000000000, 0.000000000000000000 ) ) ;
#11 =( NAMED_UNIT ( * ) SI_UNIT ( $, .STERADIAN. ) SOLID_ANGLE_UNIT ( ) );
#12 = CARTESIAN_POINT ( 'NONE',  ( 0.000000000000000000, 0.000000000000000000, 0.000000000000000000 ) ) ;
#13 = VECTOR ( 'NONE', #80, 39.37007874015748143 ) ;
#14 = VERTEX_POINT ( 'NONE', #238 ) ;
#15 = CONICAL_SURFACE ( 'NONE', #199, 22.73032555864674364, 0.5235987755983000369 ) ;
#16 = ADVANCED_FACE ( 'NONE', ( #30 ), #218, .T. ) ;
#17 = PRODUCT_DEFINITION_FORMATION_WITH_SPECIFIED_SOURCE ( 'ANY', '', #225, .NOT_KNOWN. ) ;
#18 = SURFACE_SIDE_STYLE ('',( #29 ) ) ;
#19 = PRESENTATION_STYLE_ASSIGNMENT (( #38 ) ) ;
#20 = PRODUCT_DEFINITION_SHAPE ( 'NONE', 'NONE',  #156 ) ;
#21 = VECTOR ( 'NONE', #41, 39.37007874015748143 ) ;
#22 = FILL_AREA_STYLE_COLOUR ( '', #226 ) ;
#23 = ORIENTED_EDGE ( 'NONE', *, *, #40, .T. ) ;
#24 = SURFACE_STYLE_FILL_AREA ( #166 ) ;
#25 = ORIENTED_EDGE ( 'NONE', *, *, #206, .F. ) ;
#26 = AXIS2_PLACEMENT_3D ( 'NONE', #140, #232, #125 ) ;
#27 = EDGE_LOOP ( 'NONE', ( #25, #123, #7, #215 ) ) ;
#28 =( NAMED_UNIT ( * ) SI_UNIT ( $, .STERADIAN. ) SOLID_ANGLE_UNIT ( ) );
#29 = SURFACE_STYLE_FILL_AREA ( #127 ) ;
#30 = FACE_OUTER_BOUND ( 'NONE', #27, .T. ) ;
#31 =( LENGTH_UNIT ( ) NAMED_UNIT ( * ) SI_UNIT ( $, .METRE. ) );
#32 = CARTESIAN_POINT ( 'NONE',  ( 0.000000000000000000, 0.2165063509461090385, 0.000000000000000000 ) ) ;
#33 = FACE_OUTER_BOUND ( 'NONE', #5, .T. ) ;
#34 =( CONVERSION_BASED_UNIT ( 'INCH', #227 ) LENGTH_UNIT ( ) NAMED_UNIT ( #260 ) );
#35 = MECHANICAL_DESIGN_GEOMETRIC_PRESENTATION_REPRESENTATION (  '', ( #39 ), #205 ) ;
#36 =( NAMED_UNIT ( * ) PLANE_ANGLE_UNIT ( ) SI_UNIT ( $, .RADIAN. ) );
#37 = DIRECTION ( 'NONE',  ( -0.000000000000000000, -1.000000000000000000, -0.000000000000000000 ) ) ;
#38 = SURFACE_STYLE_USAGE ( .BOTH. , #113 ) ;
#39 = STYLED_ITEM ( 'NONE', ( #231 ), #190 ) ;
#40 = EDGE_CURVE ( 'NONE', #101, #169, #247, .T. ) ;
#41 = DIRECTION ( 'NONE',  ( -1.221490049109858028E-16, 1.000000000000000000, -0.000000000000000000 ) ) ;
#42 = DIRECTION ( 'NONE',  ( 0.000000000000000000, 0.000000000000000000, 1.000000000000000000 ) ) ;
#43 = STYLED_ITEM ( 'NONE', ( #19 ), #133 ) ;
#44 = SURFACE_SIDE_STYLE ('',( #4 ) ) ;
#45 = EDGE_CURVE ( 'NONE', #14, #104, #65, .T. ) ;
#46 = VERTEX_POINT ( 'NONE', #259 ) ;
#47 = DIRECTION ( 'NONE',  ( 1.000000000000000000, 1.221490049109858028E-16, 0.000000000000000000 ) ) ;
#48 = ADVANCED_FACE ( 'NONE', ( #33 ), #152, .F. ) ;
#49 = DIRECTION ( 'NONE',  ( -1.221490049109858028E-16, 1.000000000000000000, -0.000000000000000000 ) ) ;
#50 = UNCERTAINTY_MEASURE_WITH_UNIT (LENGTH_MEASURE( 1.000000000000000082E-05 ), #170, 'distance_accuracy_value', 'NONE');
#51 = AXIS2_PLACEMENT_3D ( 'NONE', #94, #179, #228 ) ;
#52 = PRESENTATION_STYLE_ASSIGNMENT (( #180 ) ) ;
#53 = AXIS2_PLACEMENT_3D ( 'NONE', #32, #150, #197 ) ;
#54 = COLOUR_RGB ( '',0.7921568627450980005, 0.8196078431372548767, 0.9333333333333333481 ) ;
#55 = FACE_OUTER_BOUND ( 'NONE', #253, .T. ) ;
#56 = CARTESIAN_POINT ( 'NONE',  ( 0.000000000000000000, 0.2165063509461090385, 0.1249999999999999861 ) ) ;
#57 = VECTOR ( 'NONE', #89, 39.37007874015748143 ) ;
#58 = ADVANCED_BREP_SHAPE_REPRESENTATION ( '06345', ( #74, #265, #141 ), #9 ) ;
#59 = FILL_AREA_STYLE ('',( #243 ) ) ;
#60 = DIRECTION ( 'NONE',  ( -1.000000000000000000, 0.000000000000000000, 0.000000000000000000 ) ) ;
#61 =( LENGTH_UNIT ( ) NAMED_UNIT ( * ) SI_UNIT ( $, .METRE. ) );
#62 = AXIS2_PLACEMENT_3D ( 'NONE', #220, #91, #47 ) ;
#63 = AXIS2_PLACEMENT_3D ( 'NONE', #154, #163, #42 ) ;
#64 = CARTESIAN_POINT ( 'NONE',  ( 2.176941369951209721E-16, 0.2165063509461089553, 0.000000000000000000 ) ) ;
#65 = CIRCLE ( 'NONE', #1, 0.1249999999999997780 ) ;
#66 = UNCERTAINTY_MEASURE_WITH_UNIT (LENGTH_MEASURE( 1.000000000000000082E-05 ), #191, 'distance_accuracy_value', 'NONE');
#67 = PRESENTATION_STYLE_ASSIGNMENT (( #69 ) ) ;
#68 = EDGE_CURVE ( 'NONE', #214, #176, #90, .T. ) ;
#69 = SURFACE_STYLE_USAGE ( .BOTH. , #263 ) ;
#70 = PRESENTATION_LAYER_ASSIGNMENT (  '', '', ( #124 ) ) ;
#71 = DIRECTION ( 'NONE',  ( 0.000000000000000000, 0.000000000000000000, 1.000000000000000000 ) ) ;
#72 = CARTESIAN_POINT ( 'NONE',  ( 0.000000000000000000, 0.2165063509461090385, 0.000000000000000000 ) ) ;
#73 =( GEOMETRIC_REPRESENTATION_CONTEXT ( 3 ) GLOBAL_UNCERTAINTY_ASSIGNED_CONTEXT ( ( #153 ) ) GLOBAL_UNIT_ASSIGNED_CONTEXT ( ( #34, #36, #93 ) ) REPRESENTATION_CONTEXT ( 'NONE', 'WORKASPACE' ) );
#74 = MANIFOLD_SOLID_BREP ( 'Revolve - Cutting Edge', #172 ) ;
#75 = CYLINDRICAL_SURFACE ( 'NONE', #26, 0.1249999999999999029 ) ;
#76 = EDGE_CURVE ( 'NONE', #46, #214, #194, .T. ) ;
#77 =( NAMED_UNIT ( * ) SI_UNIT ( $, .STERADIAN. ) SOLID_ANGLE_UNIT ( ) );
#78 = AXIS2_PLACEMENT_3D ( 'NONE', #245, #117, #118 ) ;
#79 = CIRCLE ( 'NONE', #188, 0.1249999999999997780 ) ;
#80 = DIRECTION ( 'NONE',  ( -1.221490049109858028E-16, 1.000000000000000000, -0.000000000000000000 ) ) ;
#81 = ORIENTED_EDGE ( 'NONE', *, *, #110, .T. ) ;
#82 = DIRECTION ( 'NONE',  ( 6.123233995736778362E-17, 0.8660254037844380415, -0.5000000000000009992 ) ) ;
#83 = ORIENTED_EDGE ( 'NONE', *, *, #110, .F. ) ;
#84 = FILL_AREA_STYLE_COLOUR ( '', #54 ) ;
#85 = MECHANICAL_DESIGN_GEOMETRIC_PRESENTATION_REPRESENTATION (  '', ( #96 ), #187 ) ;
#86 =( GEOMETRIC_REPRESENTATION_CONTEXT ( 3 ) GLOBAL_UNCERTAINTY_ASSIGNED_CONTEXT ( ( #106 ) ) GLOBAL_UNIT_ASSIGNED_CONTEXT ( ( #162, #120, #77 ) ) REPRESENTATION_CONTEXT ( 'NONE', 'WORKASPACE' ) );
#87 = LENGTH_MEASURE_WITH_UNIT ( LENGTH_MEASURE( 0.02539999999999999897 ), #131 );
#88 = ORIENTED_EDGE ( 'NONE', *, *, #68, .T. ) ;
#89 = DIRECTION ( 'NONE',  ( 0.000000000000000000, 0.8660254037844380415, 0.5000000000000009992 ) ) ;
#90 = CIRCLE ( 'NONE', #53, 0.1249999999999999861 ) ;
#91 = DIRECTION ( 'NONE',  ( 1.221490049109858028E-16, -1.000000000000000000, 0.000000000000000000 ) ) ;
#92 = DIRECTION ( 'NONE',  ( -1.000000000000000000, 0.000000000000000000, 0.000000000000000000 ) ) ;
#93 =( NAMED_UNIT ( * ) SI_UNIT ( $, .STERADIAN. ) SOLID_ANGLE_UNIT ( ) );
#94 = CARTESIAN_POINT ( 'NONE',  ( -6.123233995736766036E-17, 2.500000000000000000, 0.000000000000000000 ) ) ;
#95 =( CONVERSION_BASED_UNIT ( 'INCH', #158 ) LENGTH_UNIT ( ) NAMED_UNIT ( #107 ) );
#96 = STYLED_ITEM ( 'NONE', ( #67 ), #74 ) ;
#97 = CARTESIAN_POINT ( 'NONE',  ( 0.1249999999999998335, 2.500000000000000000, 1.530808498934190276E-17 ) ) ;
#98 = LINE ( 'NONE', #182, #13 ) ;
#99 = MECHANICAL_DESIGN_GEOMETRIC_PRESENTATION_REPRESENTATION (  '', ( #43 ), #115 ) ;
#100 = CARTESIAN_POINT ( 'NONE',  ( 2.176941369951209721E-16, 0.2165063509461089553, 0.000000000000000000 ) ) ;
#101 = VERTEX_POINT ( 'NONE', #173 ) ;
#102 =( NAMED_UNIT ( * ) PLANE_ANGLE_UNIT ( ) SI_UNIT ( $, .RADIAN. ) );
#103 = ORIENTED_EDGE ( 'NONE', *, *, #216, .F. ) ;
#104 = VERTEX_POINT ( 'NONE', #261 ) ;
#105 = ADVANCED_FACE ( 'NONE', ( #151 ), #15, .T. ) ;
#106 = UNCERTAINTY_MEASURE_WITH_UNIT (LENGTH_MEASURE( 1.000000000000000082E-05 ), #162, 'distance_accuracy_value', 'NONE');
#107 = DIMENSIONAL_EXPONENTS ( 1.000000000000000000, 0.000000000000000000, 0.000000000000000000, 0.000000000000000000, 0.000000000000000000, 0.000000000000000000, 0.000000000000000000 ) ;
#108 = SHAPE_DEFINITION_REPRESENTATION ( #20, #58 ) ;
#109 = FILL_AREA_STYLE ('',( #189 ) ) ;
#110 = EDGE_CURVE ( 'NONE', #176, #214, #130, .T. ) ;
#111 = PRESENTATION_LAYER_ASSIGNMENT (  '', '', ( #39 ) ) ;
#112 = ORIENTED_EDGE ( 'NONE', *, *, #68, .F. ) ;
#113 = SURFACE_SIDE_STYLE ('',( #2 ) ) ;
#114 = PRODUCT_RELATED_PRODUCT_CATEGORY ( 'part', '', ( #225 ) ) ;
#115 =( GEOMETRIC_REPRESENTATION_CONTEXT ( 3 ) GLOBAL_UNCERTAINTY_ASSIGNED_CONTEXT ( ( #196 ) ) GLOBAL_UNIT_ASSIGNED_CONTEXT ( ( #95, #200, #229 ) ) REPRESENTATION_CONTEXT ( 'NONE', 'WORKASPACE' ) );
#116 =( LENGTH_UNIT ( ) NAMED_UNIT ( * ) SI_UNIT ( $, .METRE. ) );
#117 = DIRECTION ( 'NONE',  ( -1.221490049109858028E-16, 1.000000000000000000, 0.000000000000000000 ) ) ;
#118 = DIRECTION ( 'NONE',  ( -1.000000000000000000, -1.221490049109858028E-16, 0.000000000000000000 ) ) ;
#119 = STYLED_ITEM ( 'NONE', ( #213 ), #265 ) ;
#120 =( NAMED_UNIT ( * ) PLANE_ANGLE_UNIT ( ) SI_UNIT ( $, .RADIAN. ) );
#121 = FACE_OUTER_BOUND ( 'NONE', #258, .T. ) ;
#122 = CARTESIAN_POINT ( 'NONE',  ( 0.000000000000000000, 0.000000000000000000, 0.000000000000000000 ) ) ;
#123 = ORIENTED_EDGE ( 'NONE', *, *, #216, .T. ) ;
#124 = STYLED_ITEM ( 'NONE', ( #52 ), #105 ) ;
#125 = DIRECTION ( 'NONE',  ( -1.000000000000000000, 0.000000000000000000, 0.000000000000000000 ) ) ;
#126 = ORIENTED_EDGE ( 'NONE', *, *, #264, .T. ) ;
#127 = FILL_AREA_STYLE ('',( #242 ) ) ;
#128 = ADVANCED_FACE ( 'NONE', ( #155 ), #244, .F. ) ;
#129 =( NAMED_UNIT ( * ) PLANE_ANGLE_UNIT ( ) SI_UNIT ( $, .RADIAN. ) );
#130 = CIRCLE ( 'NONE', #159, 0.1249999999999999861 ) ;
#131 =( LENGTH_UNIT ( ) NAMED_UNIT ( * ) SI_UNIT ( $, .METRE. ) );
#132 = ORIENTED_EDGE ( 'NONE', *, *, #76, .F. ) ;
#133 = ADVANCED_FACE ( 'NONE', ( #3 ), #198, .T. ) ;
#134 = DIRECTION ( 'NONE',  ( -1.000000000000000000, 0.000000000000000000, 0.000000000000000000 ) ) ;
#135 = DIMENSIONAL_EXPONENTS ( 1.000000000000000000, 0.000000000000000000, 0.000000000000000000, 0.000000000000000000, 0.000000000000000000, 0.000000000000000000, 0.000000000000000000 ) ;
#136 = DIRECTION ( 'NONE',  ( -1.221490049109858028E-16, 1.000000000000000000, -0.000000000000000000 ) ) ;
#137 = MECHANICAL_DESIGN_GEOMETRIC_PRESENTATION_REPRESENTATION (  '', ( #119 ), #86 ) ;
#138 = CARTESIAN_POINT ( 'NONE',  ( 0.000000000000000000, 0.2165063509461090385, 0.000000000000000000 ) ) ;
#139 = FILL_AREA_STYLE ('',( #22 ) ) ;
#140 = CARTESIAN_POINT ( 'NONE',  ( -6.123233995736766036E-17, 2.500000000000000000, 0.000000000000000000 ) ) ;
#141 = AXIS2_PLACEMENT_3D ( 'NONE', #222, #147, #237 ) ;
#142 = LENGTH_MEASURE_WITH_UNIT ( LENGTH_MEASURE( 0.02539999999999999897 ), #61 );
#143 = EDGE_CURVE ( 'NONE', #169, #101, #160, .T. ) ;
#144 = PRESENTATION_LAYER_ASSIGNMENT (  '', '', ( #43 ) ) ;
#145 = ORIENTED_EDGE ( 'NONE', *, *, #45, .T. ) ;
#146 = APPLICATION_CONTEXT ( 'automotive_design' ) ;
#147 = DIRECTION ( 'NONE',  ( 0.000000000000000000, 0.000000000000000000, 1.000000000000000000 ) ) ;
#148 = CARTESIAN_POINT ( 'NONE',  ( -6.123233995736766036E-17, 2.500000000000000000, 0.000000000000000000 ) ) ;
#149 = APPLICATION_PROTOCOL_DEFINITION ( 'draft international standard', 'automotive_design', 1998, #146 ) ;
#150 = DIRECTION ( 'NONE',  ( -0.000000000000000000, -1.000000000000000000, -0.000000000000000000 ) ) ;
#151 = FACE_OUTER_BOUND ( 'NONE', #209, .T. ) ;
#152 = PLANE ( 'NONE',  #62 ) ;
#153 = UNCERTAINTY_MEASURE_WITH_UNIT (LENGTH_MEASURE( 1.000000000000000082E-05 ), #34, 'distance_accuracy_value', 'NONE');
#154 = CARTESIAN_POINT ( 'NONE',  ( 0.000000000000000000, 39.37007874015748143, 0.000000000000000000 ) ) ;
#155 = FACE_OUTER_BOUND ( 'NONE', #167, .T. ) ;
#156 = PRODUCT_DEFINITION ( 'UNKNOWN', '', #17, #174 ) ;
#157 = DIRECTION ( 'NONE',  ( 0.000000000000000000, 1.000000000000000000, 0.000000000000000000 ) ) ;
#158 = LENGTH_MEASURE_WITH_UNIT ( LENGTH_MEASURE( 0.02539999999999999897 ), #116 );
#159 = AXIS2_PLACEMENT_3D ( 'NONE', #138, #37, #203 ) ;
#160 = CIRCLE ( 'NONE', #51, 0.1250000000000000278 ) ;
#161 = CARTESIAN_POINT ( 'NONE',  ( 0.1249999999999999445, 2.500000000000000000, 1.530808498934190893E-17 ) ) ;
#162 =( CONVERSION_BASED_UNIT ( 'INCH', #252 ) LENGTH_UNIT ( ) NAMED_UNIT ( #171 ) );
#163 = DIRECTION ( 'NONE',  ( 0.000000000000000000, 1.000000000000000000, 0.000000000000000000 ) ) ;
#164 =( LENGTH_UNIT ( ) NAMED_UNIT ( * ) SI_UNIT ( $, .METRE. ) );
#165 = EDGE_LOOP ( 'NONE', ( #112, #83 ) ) ;
#166 = FILL_AREA_STYLE ('',( #84 ) ) ;
#167 = EDGE_LOOP ( 'NONE', ( #184, #103 ) ) ;
#168 = PRESENTATION_LAYER_ASSIGNMENT (  '', '', ( #96 ) ) ;
#169 = VERTEX_POINT ( 'NONE', #161 ) ;
#170 =( CONVERSION_BASED_UNIT ( 'INCH', #87 ) LENGTH_UNIT ( ) NAMED_UNIT ( #249 ) );
#171 = DIMENSIONAL_EXPONENTS ( 1.000000000000000000, 0.000000000000000000, 0.000000000000000000, 0.000000000000000000, 0.000000000000000000, 0.000000000000000000, 0.000000000000000000 ) ;
#172 = CLOSED_SHELL ( 'NONE', ( #105, #133, #190 ) ) ;
#173 = CARTESIAN_POINT ( 'NONE',  ( -0.1250000000000001110, 2.500000000000000000, 0.000000000000000000 ) ) ;
#174 = PRODUCT_DEFINITION_CONTEXT ( 'detailed design', #146, 'design' ) ;
#175 = CARTESIAN_POINT ( 'NONE',  ( 0.000000000000000000, 39.37007874015748143, 0.000000000000000000 ) ) ;
#176 = VERTEX_POINT ( 'NONE', #248 ) ;
#177 = AXIS2_PLACEMENT_3D ( 'NONE', #148, #136, #134 ) ;
#178 = DIRECTION ( 'NONE',  ( 0.000000000000000000, 1.000000000000000000, 0.000000000000000000 ) ) ;
#179 = DIRECTION ( 'NONE',  ( -1.221490049109858028E-16, 1.000000000000000000, -0.000000000000000000 ) ) ;
#180 = SURFACE_STYLE_USAGE ( .BOTH. , #18 ) ;
#181 = CLOSED_SHELL ( 'NONE', ( #251, #128, #16, #48 ) ) ;
#182 = CARTESIAN_POINT ( 'NONE',  ( -0.1249999999999999584, 2.500000000000000000, 0.000000000000000000 ) ) ;
#183 = AXIS2_PLACEMENT_3D ( 'NONE', #10, #49, #92 ) ;
#184 = ORIENTED_EDGE ( 'NONE', *, *, #45, .F. ) ;
#185 =( NAMED_UNIT ( * ) SI_UNIT ( $, .STERADIAN. ) SOLID_ANGLE_UNIT ( ) );
#186 = SURFACE_SIDE_STYLE ('',( #24 ) ) ;
#187 =( GEOMETRIC_REPRESENTATION_CONTEXT ( 3 ) GLOBAL_UNCERTAINTY_ASSIGNED_CONTEXT ( ( #50 ) ) GLOBAL_UNIT_ASSIGNED_CONTEXT ( ( #170, #236, #11 ) ) REPRESENTATION_CONTEXT ( 'NONE', 'WORKASPACE' ) );
#188 = AXIS2_PLACEMENT_3D ( 'NONE', #100, #208, #60 ) ;
#189 = FILL_AREA_STYLE_COLOUR ( '', #221 ) ;
#190 = ADVANCED_FACE ( 'NONE', ( #55 ), #211, .T. ) ;
#191 =( CONVERSION_BASED_UNIT ( 'INCH', #256 ) LENGTH_UNIT ( ) NAMED_UNIT ( #193 ) );
#192 = DIRECTION ( 'NONE',  ( -1.000000000000000000, 0.000000000000000000, 0.000000000000000000 ) ) ;
#193 = DIMENSIONAL_EXPONENTS ( 1.000000000000000000, 0.000000000000000000, 0.000000000000000000, 0.000000000000000000, 0.000000000000000000, 0.000000000000000000, 0.000000000000000000 ) ;
#194 = LINE ( 'NONE', #12, #57 ) ;
#195 = PRODUCT_CONTEXT ( 'NONE', #246, 'mechanical' ) ;
#196 = UNCERTAINTY_MEASURE_WITH_UNIT (LENGTH_MEASURE( 1.000000000000000082E-05 ), #95, 'distance_accuracy_value', 'NONE');
#197 = DIRECTION ( 'NONE',  ( 0.000000000000000000, 0.000000000000000000, -1.000000000000000000 ) ) ;
#198 = PLANE ( 'NONE',  #230 ) ;
#199 = AXIS2_PLACEMENT_3D ( 'NONE', #175, #178, #71 ) ;
#200 =( NAMED_UNIT ( * ) PLANE_ANGLE_UNIT ( ) SI_UNIT ( $, .RADIAN. ) );
#201 = PRESENTATION_LAYER_ASSIGNMENT (  '', '', ( #119 ) ) ;
#202 = DIRECTION ( 'NONE',  ( 0.000000000000000000, -0.000000000000000000, 1.000000000000000000 ) ) ;
#203 = DIRECTION ( 'NONE',  ( 0.000000000000000000, 0.000000000000000000, -1.000000000000000000 ) ) ;
#204 =( LENGTH_UNIT ( ) NAMED_UNIT ( * ) SI_UNIT ( $, .METRE. ) );
#205 =( GEOMETRIC_REPRESENTATION_CONTEXT ( 3 ) GLOBAL_UNCERTAINTY_ASSIGNED_CONTEXT ( ( #219 ) ) GLOBAL_UNIT_ASSIGNED_CONTEXT ( ( #250, #102, #185 ) ) REPRESENTATION_CONTEXT ( 'NONE', 'WORKASPACE' ) );
#206 = EDGE_CURVE ( 'NONE', #104, #169, #234, .T. ) ;
#207 = ORIENTED_EDGE ( 'NONE', *, *, #143, .T. ) ;
#208 = DIRECTION ( 'NONE',  ( -1.221490049109858028E-16, 1.000000000000000000, -0.000000000000000000 ) ) ;
#209 = EDGE_LOOP ( 'NONE', ( #132, #126, #81 ) ) ;
#210 = COLOUR_RGB ( '',1.000000000000000000, 0.000000000000000000, 0.000000000000000000 ) ;
#211 = CONICAL_SURFACE ( 'NONE', #63, 22.73032555864674364, 0.5235987755983000369 ) ;
#212 = ORIENTED_EDGE ( 'NONE', *, *, #76, .T. ) ;
#213 = PRESENTATION_STYLE_ASSIGNMENT (( #254 ) ) ;
#214 = VERTEX_POINT ( 'NONE', #56 ) ;
#215 = ORIENTED_EDGE ( 'NONE', *, *, #143, .F. ) ;
#216 = EDGE_CURVE ( 'NONE', #104, #14, #79, .T. ) ;
#217 = MECHANICAL_DESIGN_GEOMETRIC_PRESENTATION_REPRESENTATION (  '', ( #124 ), #73 ) ;
#218 = CYLINDRICAL_SURFACE ( 'NONE', #183, 0.1249999999999999029 ) ;
#219 = UNCERTAINTY_MEASURE_WITH_UNIT (LENGTH_MEASURE( 1.000000000000000082E-05 ), #250, 'distance_accuracy_value', 'NONE');
#220 = CARTESIAN_POINT ( 'NONE',  ( 0.1249999999999999584, 2.500000000000000000, 0.000000000000000000 ) ) ;
#221 = COLOUR_RGB ( '',0.7921568627450980005, 0.8196078431372548767, 0.9333333333333333481 ) ;
#222 = CARTESIAN_POINT ( 'NONE',  ( 0.000000000000000000, 0.000000000000000000, 0.000000000000000000 ) ) ;
#223 = COLOUR_RGB ( '',1.000000000000000000, 0.000000000000000000, 0.000000000000000000 ) ;
#224 = DIRECTION ( 'NONE',  ( -1.221490049109858028E-16, 1.000000000000000000, -0.000000000000000000 ) ) ;
#225 = PRODUCT ( '06345', '06345', '', ( #195 ) ) ;
#226 = COLOUR_RGB ( '',1.000000000000000000, 0.000000000000000000, 0.000000000000000000 ) ;
#227 = LENGTH_MEASURE_WITH_UNIT ( LENGTH_MEASURE( 0.02539999999999999897 ), #204 );
#228 = DIRECTION ( 'NONE',  ( -1.000000000000000000, 0.000000000000000000, 0.000000000000000000 ) ) ;
#229 =( NAMED_UNIT ( * ) SI_UNIT ( $, .STERADIAN. ) SOLID_ANGLE_UNIT ( ) );
#230 = AXIS2_PLACEMENT_3D ( 'NONE', #72, #157, #202 ) ;
#231 = PRESENTATION_STYLE_ASSIGNMENT (( #8 ) ) ;
#232 = DIRECTION ( 'NONE',  ( -1.221490049109858028E-16, 1.000000000000000000, -0.000000000000000000 ) ) ;
#233 = ORIENTED_EDGE ( 'NONE', *, *, #206, .T. ) ;
#234 = LINE ( 'NONE', #97, #21 ) ;
#235 = ORIENTED_EDGE ( 'NONE', *, *, #257, .F. ) ;
#236 =( NAMED_UNIT ( * ) PLANE_ANGLE_UNIT ( ) SI_UNIT ( $, .RADIAN. ) );
#237 = DIRECTION ( 'NONE',  ( 1.000000000000000000, 0.000000000000000000, 0.000000000000000000 ) ) ;
#238 = CARTESIAN_POINT ( 'NONE',  ( -0.1249999999999995559, 0.2165063509461089553, 0.000000000000000000 ) ) ;
#239 = SURFACE_STYLE_FILL_AREA ( #109 ) ;
#240 = ORIENTED_EDGE ( 'NONE', *, *, #264, .F. ) ;
#241 = APPLICATION_PROTOCOL_DEFINITION ( 'draft international standard', 'automotive_design', 1998, #246 ) ;
#242 = FILL_AREA_STYLE_COLOUR ( '', #210 ) ;
#243 = FILL_AREA_STYLE_COLOUR ( '', #223 ) ;
#244 = PLANE ( 'NONE',  #78 ) ;
#245 = CARTESIAN_POINT ( 'NONE',  ( 2.176941369951209721E-16, 0.2165063509461090385, 0.000000000000000000 ) ) ;
#246 = APPLICATION_CONTEXT ( 'automotive_design' ) ;
#247 = CIRCLE ( 'NONE', #177, 0.1250000000000000278 ) ;
#248 = CARTESIAN_POINT ( 'NONE',  ( 1.530808498934191201E-17, 0.2165063509461090385, -0.1249999999999999861 ) ) ;
#249 = DIMENSIONAL_EXPONENTS ( 1.000000000000000000, 0.000000000000000000, 0.000000000000000000, 0.000000000000000000, 0.000000000000000000, 0.000000000000000000, 0.000000000000000000 ) ;
#250 =( CONVERSION_BASED_UNIT ( 'INCH', #142 ) LENGTH_UNIT ( ) NAMED_UNIT ( #135 ) );
#251 = ADVANCED_FACE ( 'NONE', ( #121 ), #75, .T. ) ;
#252 = LENGTH_MEASURE_WITH_UNIT ( LENGTH_MEASURE( 0.02539999999999999897 ), #164 );
#253 = EDGE_LOOP ( 'NONE', ( #240, #212, #88 ) ) ;
#254 = SURFACE_STYLE_USAGE ( .BOTH. , #186 ) ;
#255 = VECTOR ( 'NONE', #82, 39.37007874015748143 ) ;
#256 = LENGTH_MEASURE_WITH_UNIT ( LENGTH_MEASURE( 0.02539999999999999897 ), #31 );
#257 = EDGE_CURVE ( 'NONE', #14, #101, #98, .T. ) ;
#258 = EDGE_LOOP ( 'NONE', ( #145, #233, #262, #235 ) ) ;
#259 = CARTESIAN_POINT ( 'NONE',  ( 0.000000000000000000, 0.000000000000000000, 0.000000000000000000 ) ) ;
#260 = DIMENSIONAL_EXPONENTS ( 1.000000000000000000, 0.000000000000000000, 0.000000000000000000, 0.000000000000000000, 0.000000000000000000, 0.000000000000000000, 0.000000000000000000 ) ;
#261 = CARTESIAN_POINT ( 'NONE',  ( 0.1250000000000000000, 0.2165063509461089553, 1.530808498934191201E-17 ) ) ;
#262 = ORIENTED_EDGE ( 'NONE', *, *, #40, .F. ) ;
#263 = SURFACE_SIDE_STYLE ('',( #239 ) ) ;
#264 = EDGE_CURVE ( 'NONE', #46, #176, #6, .T. ) ;
#265 = MANIFOLD_SOLID_BREP ( 'Revolve - Tool Body (Pointed)', #181 ) ;
ENDSEC;
END-ISO-10303-21;
