ISO-10303-21;
HEADER;
FILE_DESCRIPTION (( 'STEP AP214' ),
    '1' );
FILE_NAME ('Micro_RTCM-060-1.STEP',
    '2021-09-03T18:23:23',
    ( '' ),
    ( '' ),
    'SwSTEP 2.0',
    'SolidWorks 2020',
    '' );
FILE_SCHEMA (( 'AUTOMOTIVE_DESIGN' ));
ENDSEC;

DATA;
#1 = LINE ( 'NONE', #75, #247 ) ;
#2 = CARTESIAN_POINT ( 'NONE',  ( 0.003936999999999995191, 0.0000000000000000000, 0.0000000000000000000 ) ) ;
#3 = ORIENTED_EDGE ( 'NONE', *, *, #102, .T. ) ;
#4 = AXIS2_PLACEMENT_3D ( 'NONE', #112, #20, #24 ) ;
#5 = CARTESIAN_POINT ( 'NONE',  ( -0.1031100000000002570, 0.0000000000000000000, 2.244094000000000033 ) ) ;
#6 = DIMENSIONAL_EXPONENTS ( 1.000000000000000000, 0.0000000000000000000, 0.0000000000000000000, 0.0000000000000000000, 0.0000000000000000000, 0.0000000000000000000, 0.0000000000000000000 ) ;
#7 =( LENGTH_UNIT ( ) NAMED_UNIT ( * ) SI_UNIT ( $, .METRE. ) );
#8 =( NAMED_UNIT ( * ) SI_UNIT ( $, .STERADIAN. ) SOLID_ANGLE_UNIT ( ) );
#9 = DIRECTION ( 'NONE',  ( 1.000000000000000000, 0.0000000000000000000, -0.0000000000000000000 ) ) ;
#10 = CONICAL_SURFACE ( 'NONE', #38, 0.1031100000000002570, 0.7853981633974318477 ) ;
#11 = ADVANCED_FACE ( 'NONE', ( #249 ), #208, .T. ) ;
#12 = VERTEX_POINT ( 'NONE', #44 ) ;
#13 = CARTESIAN_POINT ( 'NONE',  ( 0.003936999999999995191, 0.0000000000000000000, 0.0000000000000000000 ) ) ;
#14 = AXIS2_PLACEMENT_3D ( 'NONE', #200, #56, #187 ) ;
#15 = EDGE_LOOP ( 'NONE', ( #57, #141, #85, #164 ) ) ;
#16 = EDGE_CURVE ( 'NONE', #12, #89, #134, .T. ) ;
#17 = CARTESIAN_POINT ( 'NONE',  ( 0.0000000000000000000, 0.0000000000000000000, 2.244094000000000033 ) ) ;
#18 = ORIENTED_EDGE ( 'NONE', *, *, #235, .F. ) ;
#19 = DIRECTION ( 'NONE',  ( 1.000000000000000000, 0.0000000000000000000, -0.0000000000000000000 ) ) ;
#20 = DIRECTION ( 'NONE',  ( 0.0000000000000000000, 0.0000000000000000000, 1.000000000000000000 ) ) ;
#21 = DIRECTION ( 'NONE',  ( -1.000000000000000000, 0.0000000000000000000, 0.0000000000000000000 ) ) ;
#22 = PRESENTATION_LAYER_ASSIGNMENT (  '', '', ( #113 ) ) ;
#23 = DIRECTION ( 'NONE',  ( 1.000000000000000000, 0.0000000000000000000, 0.0000000000000000000 ) ) ;
#24 = DIRECTION ( 'NONE',  ( 1.000000000000000000, 0.0000000000000000000, 0.0000000000000000000 ) ) ;
#25 = MECHANICAL_DESIGN_GEOMETRIC_PRESENTATION_REPRESENTATION (  '', ( #240 ), #170 ) ;
#26 = SURFACE_STYLE_FILL_AREA ( #173 ) ;
#27 = CARTESIAN_POINT ( 'NONE',  ( 0.1181100000000000066, 1.446430334472939084E-17, 0.4260994368525598541 ) ) ;
#28 = DIMENSIONAL_EXPONENTS ( 1.000000000000000000, 0.0000000000000000000, 0.0000000000000000000, 0.0000000000000000000, 0.0000000000000000000, 0.0000000000000000000, 0.0000000000000000000 ) ;
#29 =( CONVERSION_BASED_UNIT ( 'INCH', #197 ) LENGTH_UNIT ( ) NAMED_UNIT ( #28 ) );
#30 =( CONVERSION_BASED_UNIT ( 'INCH', #97 ) LENGTH_UNIT ( ) NAMED_UNIT ( #6 ) );
#31 = ADVANCED_FACE ( 'NONE', ( #193 ), #199, .T. ) ;
#32 = AXIS2_PLACEMENT_3D ( 'NONE', #46, #94, #192 ) ;
#33 = PRODUCT_DEFINITION_SHAPE ( 'NONE', 'NONE',  #218 ) ;
#34 = ORIENTED_EDGE ( 'NONE', *, *, #235, .T. ) ;
#35 = EDGE_LOOP ( 'NONE', ( #184, #227, #246, #41 ) ) ;
#36 = DIRECTION ( 'NONE',  ( 0.7071067811865358044, 8.659560562354788645E-17, -0.7071067811865590080 ) ) ;
#37 = EDGE_CURVE ( 'NONE', #89, #107, #216, .T. ) ;
#38 = AXIS2_PLACEMENT_3D ( 'NONE', #171, #151, #78 ) ;
#39 = ORIENTED_EDGE ( 'NONE', *, *, #62, .T. ) ;
#40 = PRODUCT_DEFINITION_FORMATION_WITH_SPECIFIED_SOURCE ( 'ANY', '', #105, .NOT_KNOWN. ) ;
#41 = ORIENTED_EDGE ( 'NONE', *, *, #37, .T. ) ;
#42 = APPLICATION_CONTEXT ( 'automotive_design' ) ;
#43 = LINE ( 'NONE', #190, #175 ) ;
#44 = CARTESIAN_POINT ( 'NONE',  ( 0.1181100000000000066, 1.446430334472939084E-17, 2.229093999999999465 ) ) ;
#45 = CIRCLE ( 'NONE', #179, 0.1181100000000000066 ) ;
#46 = CARTESIAN_POINT ( 'NONE',  ( 0.0000000000000000000, 0.0000000000000000000, 0.0000000000000000000 ) ) ;
#47 = CARTESIAN_POINT ( 'NONE',  ( 0.0000000000000000000, 0.0000000000000000000, 0.0000000000000000000 ) ) ;
#48 =( NAMED_UNIT ( * ) PLANE_ANGLE_UNIT ( ) SI_UNIT ( $, .RADIAN. ) );
#49 = AXIS2_PLACEMENT_3D ( 'NONE', #229, #233, #73 ) ;
#50 = ADVANCED_FACE ( 'NONE', ( #59 ), #10, .T. ) ;
#51 = ADVANCED_FACE ( 'NONE', ( #115 ), #125, .T. ) ;
#52 = PRESENTATION_STYLE_ASSIGNMENT (( #130 ) ) ;
#53 =( LENGTH_UNIT ( ) NAMED_UNIT ( * ) SI_UNIT ( $, .METRE. ) );
#54 = AXIS2_PLACEMENT_3D ( 'NONE', #146, #87, #23 ) ;
#55 = SURFACE_SIDE_STYLE ('',( #248 ) ) ;
#56 = DIRECTION ( 'NONE',  ( -0.0000000000000000000, -0.0000000000000000000, -1.000000000000000000 ) ) ;
#57 = ORIENTED_EDGE ( 'NONE', *, *, #114, .F. ) ;
#58 = FACE_OUTER_BOUND ( 'NONE', #221, .T. ) ;
#59 = FACE_OUTER_BOUND ( 'NONE', #66, .T. ) ;
#60 = ORIENTED_EDGE ( 'NONE', *, *, #37, .F. ) ;
#61 = AXIS2_PLACEMENT_3D ( 'NONE', #67, #148, #19 ) ;
#62 = EDGE_CURVE ( 'NONE', #126, #155, #142, .T. ) ;
#63 = ORIENTED_EDGE ( 'NONE', *, *, #65, .T. ) ;
#64 = DIRECTION ( 'NONE',  ( 1.000000000000000000, 0.0000000000000000000, 0.0000000000000000000 ) ) ;
#65 = EDGE_CURVE ( 'NONE', #126, #107, #212, .T. ) ;
#66 = EDGE_LOOP ( 'NONE', ( #161, #174, #88, #18 ) ) ;
#67 = CARTESIAN_POINT ( 'NONE',  ( 0.0000000000000000000, 0.0000000000000000000, 2.244094000000000033 ) ) ;
#68 = PLANE ( 'NONE',  #159 ) ;
#69 = EDGE_LOOP ( 'NONE', ( #241, #108, #209, #144 ) ) ;
#70 = CYLINDRICAL_SURFACE ( 'NONE', #123, 0.1181100000000000066 ) ;
#71 = CLOSED_SHELL ( 'NONE', ( #31, #51, #245, #156, #158, #50, #11, #220 ) ) ;
#72 = DIRECTION ( 'NONE',  ( -1.000000000000000000, 0.0000000000000000000, 0.0000000000000000000 ) ) ;
#73 = DIRECTION ( 'NONE',  ( -1.000000000000000000, 0.0000000000000000000, 0.0000000000000000000 ) ) ;
#74 =( NAMED_UNIT ( * ) SI_UNIT ( $, .STERADIAN. ) SOLID_ANGLE_UNIT ( ) );
#75 = CARTESIAN_POINT ( 'NONE',  ( -0.1031100000000002570, 0.0000000000000000000, 2.244094000000000033 ) ) ;
#76 = EDGE_CURVE ( 'NONE', #166, #188, #1, .T. ) ;
#77 = SURFACE_SIDE_STYLE ('',( #26 ) ) ;
#78 = DIRECTION ( 'NONE',  ( -1.000000000000000000, 0.0000000000000000000, 0.0000000000000000000 ) ) ;
#79 = PRESENTATION_LAYER_ASSIGNMENT (  '', '', ( #240 ) ) ;
#80 = DIRECTION ( 'NONE',  ( 0.0000000000000000000, 0.0000000000000000000, 1.000000000000000000 ) ) ;
#81 = MANIFOLD_SOLID_BREP ( 'Cut-Revolve1', #71 ) ;
#82 = APPLICATION_CONTEXT ( 'automotive_design' ) ;
#83 = ORIENTED_EDGE ( 'NONE', *, *, #138, .T. ) ;
#84 =( NAMED_UNIT ( * ) SI_UNIT ( $, .STERADIAN. ) SOLID_ANGLE_UNIT ( ) );
#85 = ORIENTED_EDGE ( 'NONE', *, *, #110, .F. ) ;
#86 = DIRECTION ( 'NONE',  ( -0.0000000000000000000, -0.0000000000000000000, -1.000000000000000000 ) ) ;
#87 = DIRECTION ( 'NONE',  ( 0.0000000000000000000, 0.0000000000000000000, 1.000000000000000000 ) ) ;
#88 = ORIENTED_EDGE ( 'NONE', *, *, #76, .T. ) ;
#89 = VERTEX_POINT ( 'NONE', #27 ) ;
#90 = LINE ( 'NONE', #2, #139 ) ;
#91 = CARTESIAN_POINT ( 'NONE',  ( -0.003936999999999995191, 4.821434448243123477E-19, 0.0000000000000000000 ) ) ;
#92 = VECTOR ( 'NONE', #111, 39.37007874015748143 ) ;
#93 = DIRECTION ( 'NONE',  ( -0.0000000000000000000, -0.0000000000000000000, -1.000000000000000000 ) ) ;
#94 = DIRECTION ( 'NONE',  ( 0.0000000000000000000, 0.0000000000000000000, 1.000000000000000000 ) ) ;
#95 = CARTESIAN_POINT ( 'NONE',  ( 0.1031100000000002570, 1.354581824536888722E-17, 2.244094000000000033 ) ) ;
#96 = DIRECTION ( 'NONE',  ( -0.0000000000000000000, -0.0000000000000000000, -1.000000000000000000 ) ) ;
#97 = LENGTH_MEASURE_WITH_UNIT ( LENGTH_MEASURE( 0.02539999999999999897 ), #217 );
#98 = FILL_AREA_STYLE_COLOUR ( '', #239 ) ;
#99 = CIRCLE ( 'NONE', #54, 0.1031100000000002570 ) ;
#100 = SURFACE_STYLE_USAGE ( .BOTH. , #77 ) ;
#101 =( GEOMETRIC_REPRESENTATION_CONTEXT ( 3 ) GLOBAL_UNCERTAINTY_ASSIGNED_CONTEXT ( ( #178 ) ) GLOBAL_UNIT_ASSIGNED_CONTEXT ( ( #30, #48, #74 ) ) REPRESENTATION_CONTEXT ( 'NONE', 'WORKASPACE' ) );
#102 = EDGE_CURVE ( 'NONE', #155, #126, #169, .T. ) ;
#103 = DIRECTION ( 'NONE',  ( 1.000000000000000000, 0.0000000000000000000, 0.0000000000000000000 ) ) ;
#104 = SHAPE_DEFINITION_REPRESENTATION ( #33, #203 ) ;
#105 = PRODUCT ( 'Micro_RTCM-060-1', 'Micro_RTCM-060-1', '', ( #238 ) ) ;
#106 = AXIS2_PLACEMENT_3D ( 'NONE', #211, #96, #72 ) ;
#107 = VERTEX_POINT ( 'NONE', #242 ) ;
#108 = ORIENTED_EDGE ( 'NONE', *, *, #16, .T. ) ;
#109 = AXIS2_PLACEMENT_3D ( 'NONE', #162, #93, #21 ) ;
#110 = EDGE_CURVE ( 'NONE', #188, #12, #45, .T. ) ;
#111 = DIRECTION ( 'NONE',  ( -0.0000000000000000000, -0.0000000000000000000, -1.000000000000000000 ) ) ;
#112 = CARTESIAN_POINT ( 'NONE',  ( 0.0000000000000000000, 0.0000000000000000000, 0.0000000000000000000 ) ) ;
#113 = STYLED_ITEM ( 'NONE', ( #52 ), #81 ) ;
#114 = EDGE_CURVE ( 'NONE', #202, #166, #128, .T. ) ;
#115 = FACE_OUTER_BOUND ( 'NONE', #15, .T. ) ;
#116 = FILL_AREA_STYLE_COLOUR ( '', #135 ) ;
#117 = DIRECTION ( 'NONE',  ( -0.0000000000000000000, -0.0000000000000000000, -1.000000000000000000 ) ) ;
#118 = APPLICATION_PROTOCOL_DEFINITION ( 'draft international standard', 'automotive_design', 1998, #42 ) ;
#119 =( NAMED_UNIT ( * ) PLANE_ANGLE_UNIT ( ) SI_UNIT ( $, .RADIAN. ) );
#120 = AXIS2_PLACEMENT_3D ( 'NONE', #177, #176, #103 ) ;
#121 = AXIS2_PLACEMENT_3D ( 'NONE', #230, #232, #195 ) ;
#122 = CARTESIAN_POINT ( 'NONE',  ( 0.0000000000000000000, 0.0000000000000000000, 0.0000000000000000000 ) ) ;
#123 = AXIS2_PLACEMENT_3D ( 'NONE', #17, #86, #163 ) ;
#124 = DIMENSIONAL_EXPONENTS ( 1.000000000000000000, 0.0000000000000000000, 0.0000000000000000000, 0.0000000000000000000, 0.0000000000000000000, 0.0000000000000000000, 0.0000000000000000000 ) ;
#125 = CONICAL_SURFACE ( 'NONE', #49, 0.1031100000000002570, 0.7853981633974318477 ) ;
#126 = VERTEX_POINT ( 'NONE', #205 ) ;
#127 = DIRECTION ( 'NONE',  ( 0.0000000000000000000, 0.0000000000000000000, 1.000000000000000000 ) ) ;
#128 = CIRCLE ( 'NONE', #201, 0.1031100000000002570 ) ;
#129 = ORIENTED_EDGE ( 'NONE', *, *, #185, .T. ) ;
#130 = SURFACE_STYLE_USAGE ( .BOTH. , #55 ) ;
#131 = CARTESIAN_POINT ( 'NONE',  ( -0.1181100000000000066, 0.0000000000000000000, 2.229093999999999465 ) ) ;
#132 = ORIENTED_EDGE ( 'NONE', *, *, #160, .F. ) ;
#133 = DIRECTION ( 'NONE',  ( -0.0000000000000000000, -0.0000000000000000000, -1.000000000000000000 ) ) ;
#134 = LINE ( 'NONE', #228, #136 ) ;
#135 = COLOUR_RGB ( '',0.7921568627450980005, 0.8196078431372548767, 0.9333333333333333481 ) ;
#136 = VECTOR ( 'NONE', #117, 39.37007874015748143 ) ;
#137 = CARTESIAN_POINT ( 'NONE',  ( 0.0000000000000000000, 0.0000000000000000000, 0.0000000000000000000 ) ) ;
#138 = EDGE_CURVE ( 'NONE', #188, #107, #226, .T. ) ;
#139 = VECTOR ( 'NONE', #153, 39.37007874015748143 ) ;
#140 = ORIENTED_EDGE ( 'NONE', *, *, #62, .F. ) ;
#141 = ORIENTED_EDGE ( 'NONE', *, *, #189, .T. ) ;
#142 = CIRCLE ( 'NONE', #236, 0.003936999999999995191 ) ;
#143 = CARTESIAN_POINT ( 'NONE',  ( 0.0000000000000000000, 0.0000000000000000000, 2.229093999999999465 ) ) ;
#144 = ORIENTED_EDGE ( 'NONE', *, *, #138, .F. ) ;
#145 = PLANE ( 'NONE',  #61 ) ;
#146 = CARTESIAN_POINT ( 'NONE',  ( 0.0000000000000000000, 0.0000000000000000000, 2.244094000000000033 ) ) ;
#147 = ORIENTED_EDGE ( 'NONE', *, *, #194, .T. ) ;
#148 = DIRECTION ( 'NONE',  ( 0.0000000000000000000, 0.0000000000000000000, 1.000000000000000000 ) ) ;
#149 = MECHANICAL_DESIGN_GEOMETRIC_PRESENTATION_REPRESENTATION (  '', ( #113 ), #191 ) ;
#150 = ORIENTED_EDGE ( 'NONE', *, *, #114, .T. ) ;
#151 = DIRECTION ( 'NONE',  ( 0.0000000000000000000, 0.0000000000000000000, -1.000000000000000000 ) ) ;
#152 = EDGE_LOOP ( 'NONE', ( #207, #34, #83, #60 ) ) ;
#153 = DIRECTION ( 'NONE',  ( 0.2588190451025216832, 0.0000000000000000000, 0.9659258262890679791 ) ) ;
#154 = PRESENTATION_STYLE_ASSIGNMENT (( #100 ) ) ;
#155 = VERTEX_POINT ( 'NONE', #13 ) ;
#156 = ADVANCED_FACE ( 'NONE', ( #167 ), #70, .T. ) ;
#157 = FACE_OUTER_BOUND ( 'NONE', #69, .T. ) ;
#158 = ADVANCED_FACE ( 'NONE', ( #244 ), #145, .T. ) ;
#159 = AXIS2_PLACEMENT_3D ( 'NONE', #137, #214, #9 ) ;
#160 = EDGE_CURVE ( 'NONE', #155, #89, #90, .T. ) ;
#161 = ORIENTED_EDGE ( 'NONE', *, *, #189, .F. ) ;
#162 = CARTESIAN_POINT ( 'NONE',  ( 0.0000000000000000000, 0.0000000000000000000, 0.0000000000000000000 ) ) ;
#163 = DIRECTION ( 'NONE',  ( -1.000000000000000000, 0.0000000000000000000, 0.0000000000000000000 ) ) ;
#164 = ORIENTED_EDGE ( 'NONE', *, *, #76, .F. ) ;
#165 = DIRECTION ( 'NONE',  ( 0.0000000000000000000, 0.0000000000000000000, -1.000000000000000000 ) ) ;
#166 = VERTEX_POINT ( 'NONE', #5 ) ;
#167 = FACE_OUTER_BOUND ( 'NONE', #152, .T. ) ;
#168 = FILL_AREA_STYLE ('',( #98 ) ) ;
#169 = CIRCLE ( 'NONE', #109, 0.003936999999999995191 ) ;
#170 =( GEOMETRIC_REPRESENTATION_CONTEXT ( 3 ) GLOBAL_UNCERTAINTY_ASSIGNED_CONTEXT ( ( #237 ) ) GLOBAL_UNIT_ASSIGNED_CONTEXT ( ( #29, #119, #8 ) ) REPRESENTATION_CONTEXT ( 'NONE', 'WORKASPACE' ) );
#171 = CARTESIAN_POINT ( 'NONE',  ( 0.0000000000000000000, 0.0000000000000000000, 2.244094000000000033 ) ) ;
#172 = DIRECTION ( 'NONE',  ( -0.2588190451025216832, 3.169619151431776035E-17, 0.9659258262890679791 ) ) ;
#173 = FILL_AREA_STYLE ('',( #116 ) ) ;
#174 = ORIENTED_EDGE ( 'NONE', *, *, #194, .F. ) ;
#175 = VECTOR ( 'NONE', #36, 39.37007874015748854 ) ;
#176 = DIRECTION ( 'NONE',  ( 0.0000000000000000000, 0.0000000000000000000, -1.000000000000000000 ) ) ;
#177 = CARTESIAN_POINT ( 'NONE',  ( 0.0000000000000000000, 0.0000000000000000000, 2.229093999999999465 ) ) ;
#178 = UNCERTAINTY_MEASURE_WITH_UNIT (LENGTH_MEASURE( 1.000000000000000082E-05 ), #30, 'distance_accuracy_value', 'NONE');
#179 = AXIS2_PLACEMENT_3D ( 'NONE', #143, #165, #186 ) ;
#180 = UNCERTAINTY_MEASURE_WITH_UNIT (LENGTH_MEASURE( 1.000000000000000082E-05 ), #183, 'distance_accuracy_value', 'NONE');
#181 = APPLICATION_PROTOCOL_DEFINITION ( 'draft international standard', 'automotive_design', 1998, #82 ) ;
#182 = DIRECTION ( 'NONE',  ( 1.000000000000000000, 0.0000000000000000000, 0.0000000000000000000 ) ) ;
#183 =( CONVERSION_BASED_UNIT ( 'INCH', #210 ) LENGTH_UNIT ( ) NAMED_UNIT ( #124 ) );
#184 = ORIENTED_EDGE ( 'NONE', *, *, #65, .F. ) ;
#185 = EDGE_CURVE ( 'NONE', #107, #89, #213, .T. ) ;
#186 = DIRECTION ( 'NONE',  ( 1.000000000000000000, 0.0000000000000000000, 0.0000000000000000000 ) ) ;
#187 = DIRECTION ( 'NONE',  ( -1.000000000000000000, 0.0000000000000000000, 0.0000000000000000000 ) ) ;
#188 = VERTEX_POINT ( 'NONE', #131 ) ;
#189 = EDGE_CURVE ( 'NONE', #202, #12, #43, .T. ) ;
#190 = CARTESIAN_POINT ( 'NONE',  ( 0.1031100000000002570, 1.262733314600838667E-17, 2.244094000000000033 ) ) ;
#191 =( GEOMETRIC_REPRESENTATION_CONTEXT ( 3 ) GLOBAL_UNCERTAINTY_ASSIGNED_CONTEXT ( ( #180 ) ) GLOBAL_UNIT_ASSIGNED_CONTEXT ( ( #183, #206, #84 ) ) REPRESENTATION_CONTEXT ( 'NONE', 'WORKASPACE' ) );
#192 = DIRECTION ( 'NONE',  ( 1.000000000000000000, 0.0000000000000000000, 0.0000000000000000000 ) ) ;
#193 = FACE_OUTER_BOUND ( 'NONE', #204, .T. ) ;
#194 = EDGE_CURVE ( 'NONE', #166, #202, #99, .T. ) ;
#195 = DIRECTION ( 'NONE',  ( -1.000000000000000000, 0.0000000000000000000, 0.0000000000000000000 ) ) ;
#196 = CIRCLE ( 'NONE', #120, 0.1181100000000000066 ) ;
#197 = LENGTH_MEASURE_WITH_UNIT ( LENGTH_MEASURE( 0.02539999999999999897 ), #7 );
#198 = PRODUCT_DEFINITION_CONTEXT ( 'detailed design', #82, 'design' ) ;
#199 = CONICAL_SURFACE ( 'NONE', #32, 0.003936999999999995191, 0.2617993877991502960 ) ;
#200 = CARTESIAN_POINT ( 'NONE',  ( 0.0000000000000000000, 0.0000000000000000000, 0.4260994368525598541 ) ) ;
#201 = AXIS2_PLACEMENT_3D ( 'NONE', #224, #127, #64 ) ;
#202 = VERTEX_POINT ( 'NONE', #95 ) ;
#203 = ADVANCED_BREP_SHAPE_REPRESENTATION ( 'Micro_RTCM-060-1', ( #81, #222 ), #101 ) ;
#204 = EDGE_LOOP ( 'NONE', ( #140, #63, #129, #132 ) ) ;
#205 = CARTESIAN_POINT ( 'NONE',  ( -0.003936999999999995191, 7.473223394776851115E-18, 0.0000000000000000000 ) ) ;
#206 =( NAMED_UNIT ( * ) PLANE_ANGLE_UNIT ( ) SI_UNIT ( $, .RADIAN. ) );
#207 = ORIENTED_EDGE ( 'NONE', *, *, #16, .F. ) ;
#208 = CONICAL_SURFACE ( 'NONE', #4, 0.003936999999999995191, 0.2617993877991502960 ) ;
#209 = ORIENTED_EDGE ( 'NONE', *, *, #185, .F. ) ;
#210 = LENGTH_MEASURE_WITH_UNIT ( LENGTH_MEASURE( 0.02539999999999999897 ), #53 );
#211 = CARTESIAN_POINT ( 'NONE',  ( 0.0000000000000000000, 0.0000000000000000000, 0.4260994368525598541 ) ) ;
#212 = LINE ( 'NONE', #91, #219 ) ;
#213 = CIRCLE ( 'NONE', #14, 0.1181100000000000066 ) ;
#214 = DIRECTION ( 'NONE',  ( 0.0000000000000000000, 0.0000000000000000000, 1.000000000000000000 ) ) ;
#215 = DIRECTION ( 'NONE',  ( -1.000000000000000000, 0.0000000000000000000, 0.0000000000000000000 ) ) ;
#216 = CIRCLE ( 'NONE', #106, 0.1181100000000000066 ) ;
#217 =( LENGTH_UNIT ( ) NAMED_UNIT ( * ) SI_UNIT ( $, .METRE. ) );
#218 = PRODUCT_DEFINITION ( 'UNKNOWN', '', #40, #198 ) ;
#219 = VECTOR ( 'NONE', #172, 39.37007874015748143 ) ;
#220 = ADVANCED_FACE ( 'NONE', ( #58 ), #68, .F. ) ;
#221 = EDGE_LOOP ( 'NONE', ( #3, #39 ) ) ;
#222 = AXIS2_PLACEMENT_3D ( 'NONE', #122, #80, #182 ) ;
#223 = PRODUCT_RELATED_PRODUCT_CATEGORY ( 'part', '', ( #105 ) ) ;
#224 = CARTESIAN_POINT ( 'NONE',  ( 0.0000000000000000000, 0.0000000000000000000, 2.244094000000000033 ) ) ;
#225 = CARTESIAN_POINT ( 'NONE',  ( -0.1181100000000000066, 0.0000000000000000000, 2.244094000000000033 ) ) ;
#226 = LINE ( 'NONE', #225, #92 ) ;
#227 = ORIENTED_EDGE ( 'NONE', *, *, #102, .F. ) ;
#228 = CARTESIAN_POINT ( 'NONE',  ( 0.1181100000000000066, 1.446430334472939084E-17, 2.244094000000000033 ) ) ;
#229 = CARTESIAN_POINT ( 'NONE',  ( 0.0000000000000000000, 0.0000000000000000000, 2.244094000000000033 ) ) ;
#230 = CARTESIAN_POINT ( 'NONE',  ( 0.0000000000000000000, 0.0000000000000000000, 2.244094000000000033 ) ) ;
#231 = DIRECTION ( 'NONE',  ( -0.7071067811865358044, 0.0000000000000000000, -0.7071067811865590080 ) ) ;
#232 = DIRECTION ( 'NONE',  ( -0.0000000000000000000, -0.0000000000000000000, -1.000000000000000000 ) ) ;
#233 = DIRECTION ( 'NONE',  ( 0.0000000000000000000, 0.0000000000000000000, -1.000000000000000000 ) ) ;
#234 = CYLINDRICAL_SURFACE ( 'NONE', #121, 0.1181100000000000066 ) ;
#235 = EDGE_CURVE ( 'NONE', #12, #188, #196, .T. ) ;
#236 = AXIS2_PLACEMENT_3D ( 'NONE', #47, #133, #215 ) ;
#237 = UNCERTAINTY_MEASURE_WITH_UNIT (LENGTH_MEASURE( 1.000000000000000082E-05 ), #29, 'distance_accuracy_value', 'NONE');
#238 = PRODUCT_CONTEXT ( 'NONE', #42, 'mechanical' ) ;
#239 = COLOUR_RGB ( '',0.7921568627450980005, 0.8196078431372548767, 0.9333333333333333481 ) ;
#240 = STYLED_ITEM ( 'NONE', ( #154 ), #203 ) ;
#241 = ORIENTED_EDGE ( 'NONE', *, *, #110, .T. ) ;
#242 = CARTESIAN_POINT ( 'NONE',  ( -0.1181100000000000066, 0.0000000000000000000, 0.4260994368525598541 ) ) ;
#243 = EDGE_LOOP ( 'NONE', ( #147, #150 ) ) ;
#244 = FACE_OUTER_BOUND ( 'NONE', #243, .T. ) ;
#245 = ADVANCED_FACE ( 'NONE', ( #157 ), #234, .T. ) ;
#246 = ORIENTED_EDGE ( 'NONE', *, *, #160, .T. ) ;
#247 = VECTOR ( 'NONE', #231, 39.37007874015748854 ) ;
#248 = SURFACE_STYLE_FILL_AREA ( #168 ) ;
#249 = FACE_OUTER_BOUND ( 'NONE', #35, .T. ) ;
ENDSEC;
END-ISO-10303-21;
