ISO-10303-21;
HEADER;
FILE_DESCRIPTION (( 'STEP AP214' ),
    '1' );
FILE_NAME ('Micro_GEC-187-4-030X.STEP',
    '2021-09-03T17:12:28',
    ( '' ),
    ( '' ),
    'SwSTEP 2.0',
    'SolidWorks 2020',
    '' );
FILE_SCHEMA (( 'AUTOMOTIVE_DESIGN' ));
ENDSEC;

DATA;
#1 = DIRECTION ( 'NONE',  ( -1.224646799147353207E-16, -0.0000000000000000000, -1.000000000000000000 ) ) ;
#2 = UNCERTAINTY_MEASURE_WITH_UNIT (LENGTH_MEASURE( 1.000000000000000082E-05 ), #154, 'distance_accuracy_value', 'NONE');
#3 = ORIENTED_EDGE ( 'NONE', *, *, #78, .F. ) ;
#4 = EDGE_CURVE ( 'NONE', #119, #191, #209, .T. ) ;
#5 = SURFACE_SIDE_STYLE ('',( #246 ) ) ;
#6 = CIRCLE ( 'NONE', #61, 0.09375000000000001388 ) ;
#7 = DIRECTION ( 'NONE',  ( 1.000000000000000000, 0.0000000000000000000, 0.0000000000000000000 ) ) ;
#8 = DIRECTION ( 'NONE',  ( 1.224646799147353207E-16, 0.0000000000000000000, 1.000000000000000000 ) ) ;
#9 = DIRECTION ( 'NONE',  ( -0.0000000000000000000, -0.0000000000000000000, -1.000000000000000000 ) ) ;
#10 = CARTESIAN_POINT ( 'NONE',  ( -0.06365624999999998368, 7.795642280822368790E-18, 0.02999999999999999889 ) ) ;
#11 = CONICAL_SURFACE ( 'NONE', #197, 0.07874999999999980627, 0.7853981633974466137 ) ;
#12 = VECTOR ( 'NONE', #165, 39.37007874015748143 ) ;
#13 = FACE_OUTER_BOUND ( 'NONE', #220, .T. ) ;
#14 = DIRECTION ( 'NONE',  ( -1.224646799147353207E-16, -0.0000000000000000000, -1.000000000000000000 ) ) ;
#15 = ORIENTED_EDGE ( 'NONE', *, *, #4, .F. ) ;
#16 = EDGE_LOOP ( 'NONE', ( #36, #194 ) ) ;
#17 = DIRECTION ( 'NONE',  ( 1.000000000000000000, 0.0000000000000000000, 0.0000000000000000000 ) ) ;
#18 = EDGE_CURVE ( 'NONE', #216, #253, #215, .T. ) ;
#19 = PRESENTATION_STYLE_ASSIGNMENT (( #53 ) ) ;
#20 = VECTOR ( 'NONE', #67, 39.37007874015748143 ) ;
#21 = EDGE_LOOP ( 'NONE', ( #175, #116, #321, #33 ) ) ;
#22 = CIRCLE ( 'NONE', #205, 0.09365624999999999645 ) ;
#23 = ORIENTED_EDGE ( 'NONE', *, *, #210, .F. ) ;
#24 = DIRECTION ( 'NONE',  ( 1.000000000000000000, 0.0000000000000000000, 0.0000000000000000000 ) ) ;
#25 = ORIENTED_EDGE ( 'NONE', *, *, #94, .F. ) ;
#26 = APPLICATION_CONTEXT ( 'automotive_design' ) ;
#27 = EDGE_CURVE ( 'NONE', #259, #59, #30, .T. ) ;
#28 = EDGE_CURVE ( 'NONE', #119, #133, #261, .T. ) ;
#29 = AXIS2_PLACEMENT_3D ( 'NONE', #284, #88, #45 ) ;
#30 = LINE ( 'NONE', #237, #95 ) ;
#31 = VECTOR ( 'NONE', #1, 39.37007874015748143 ) ;
#32 = AXIS2_PLACEMENT_3D ( 'NONE', #160, #302, #281 ) ;
#33 = ORIENTED_EDGE ( 'NONE', *, *, #18, .F. ) ;
#34 = LINE ( 'NONE', #351, #262 ) ;
#35 = ORIENTED_EDGE ( 'NONE', *, *, #320, .F. ) ;
#36 = ORIENTED_EDGE ( 'NONE', *, *, #267, .T. ) ;
#37 = DIRECTION ( 'NONE',  ( 0.1736481776669313304, 0.0000000000000000000, 0.9848077530122077983 ) ) ;
#38 = PLANE ( 'NONE',  #248 ) ;
#39 = ORIENTED_EDGE ( 'NONE', *, *, #324, .F. ) ;
#40 =( LENGTH_UNIT ( ) NAMED_UNIT ( * ) SI_UNIT ( $, .METRE. ) );
#41 = DIRECTION ( 'NONE',  ( 0.0000000000000000000, 0.0000000000000000000, -1.000000000000000000 ) ) ;
#42 = DIRECTION ( 'NONE',  ( -1.224646799147353207E-16, -0.0000000000000000000, -1.000000000000000000 ) ) ;
#43 = ADVANCED_FACE ( 'NONE', ( #277 ), #214, .T. ) ;
#44 = DIRECTION ( 'NONE',  ( 0.0000000000000000000, 0.0000000000000000000, 1.000000000000000000 ) ) ;
#45 = DIRECTION ( 'NONE',  ( 1.000000000000000000, 0.0000000000000000000, 0.0000000000000000000 ) ) ;
#46 = DIRECTION ( 'NONE',  ( 1.000000000000000000, 0.0000000000000000000, 0.0000000000000000000 ) ) ;
#47 = DIRECTION ( 'NONE',  ( 1.224646799147353207E-16, 0.0000000000000000000, 1.000000000000000000 ) ) ;
#48 = CIRCLE ( 'NONE', #121, 0.09365624999999999645 ) ;
#49 =( GEOMETRIC_REPRESENTATION_CONTEXT ( 3 ) GLOBAL_UNCERTAINTY_ASSIGNED_CONTEXT ( ( #338 ) ) GLOBAL_UNIT_ASSIGNED_CONTEXT ( ( #330, #93, #96 ) ) REPRESENTATION_CONTEXT ( 'NONE', 'WORKASPACE' ) );
#50 = FACE_OUTER_BOUND ( 'NONE', #89, .T. ) ;
#51 = EDGE_CURVE ( 'NONE', #60, #191, #195, .T. ) ;
#52 = SURFACE_STYLE_FILL_AREA ( #106 ) ;
#53 = SURFACE_STYLE_USAGE ( .BOTH. , #156 ) ;
#54 = ORIENTED_EDGE ( 'NONE', *, *, #212, .T. ) ;
#55 = AXIS2_PLACEMENT_3D ( 'NONE', #316, #14, #82 ) ;
#56 = ORIENTED_EDGE ( 'NONE', *, *, #292, .T. ) ;
#57 =( NAMED_UNIT ( * ) PLANE_ANGLE_UNIT ( ) SI_UNIT ( $, .RADIAN. ) );
#58 = VECTOR ( 'NONE', #266, 39.37007874015748143 ) ;
#59 = VERTEX_POINT ( 'NONE', #333 ) ;
#60 = VERTEX_POINT ( 'NONE', #247 ) ;
#61 = AXIS2_PLACEMENT_3D ( 'NONE', #176, #283, #142 ) ;
#62 = AXIS2_PLACEMENT_3D ( 'NONE', #344, #348, #76 ) ;
#63 = ORIENTED_EDGE ( 'NONE', *, *, #221, .T. ) ;
#64 = PRESENTATION_STYLE_ASSIGNMENT (( #298 ) ) ;
#65 = DIRECTION ( 'NONE',  ( 0.0000000000000000000, 0.0000000000000000000, 1.000000000000000000 ) ) ;
#66 = LENGTH_MEASURE_WITH_UNIT ( LENGTH_MEASURE( 0.02539999999999999897 ), #40 );
#67 = DIRECTION ( 'NONE',  ( -1.224646799147353207E-16, -0.0000000000000000000, -1.000000000000000000 ) ) ;
#68 = LINE ( 'NONE', #245, #98 ) ;
#69 = FILL_AREA_STYLE ('',( #198 ) ) ;
#70 = DIRECTION ( 'NONE',  ( 0.0000000000000000000, 0.0000000000000000000, 1.000000000000000000 ) ) ;
#71 = ADVANCED_FACE ( 'NONE', ( #339 ), #11, .T. ) ;
#72 = CARTESIAN_POINT ( 'NONE',  ( -0.07874999999999980627, 0.0000000000000000000, 2.000000000000000000 ) ) ;
#73 = CIRCLE ( 'NONE', #234, 0.09375000000000001388 ) ;
#74 = EDGE_CURVE ( 'NONE', #187, #170, #145, .T. ) ;
#75 = DIRECTION ( 'NONE',  ( 0.0000000000000000000, 0.0000000000000000000, -1.000000000000000000 ) ) ;
#76 = DIRECTION ( 'NONE',  ( 1.000000000000000000, 0.0000000000000000000, 0.0000000000000000000 ) ) ;
#77 = AXIS2_PLACEMENT_3D ( 'NONE', #239, #172, #306 ) ;
#78 = EDGE_CURVE ( 'NONE', #60, #186, #48, .T. ) ;
#79 = PRESENTATION_LAYER_ASSIGNMENT (  '', '', ( #199 ) ) ;
#80 = CARTESIAN_POINT ( 'NONE',  ( 7.654042494670957853E-17, 0.0000000000000000000, 0.6250000000000000000 ) ) ;
#81 = DIRECTION ( 'NONE',  ( 0.0000000000000000000, 0.0000000000000000000, 1.000000000000000000 ) ) ;
#82 = DIRECTION ( 'NONE',  ( 1.000000000000000000, 0.0000000000000000000, 0.0000000000000000000 ) ) ;
#83 = CIRCLE ( 'NONE', #137, 0.06365624999999998368 ) ;
#84 = CARTESIAN_POINT ( 'NONE',  ( 7.660553729477949085E-17, 0.0000000000000000000, 0.6255316826705892286 ) ) ;
#85 = EDGE_LOOP ( 'NONE', ( #23, #158, #159, #92 ) ) ;
#86 = ADVANCED_FACE ( 'NONE', ( #139 ), #230, .T. ) ;
#87 = CARTESIAN_POINT ( 'NONE',  ( 0.0000000000000000000, 0.0000000000000000000, 0.0000000000000000000 ) ) ;
#88 = DIRECTION ( 'NONE',  ( -0.0000000000000000000, -0.0000000000000000000, -1.000000000000000000 ) ) ;
#89 = EDGE_LOOP ( 'NONE', ( #340, #327, #190, #328 ) ) ;
#90 = CARTESIAN_POINT ( 'NONE',  ( -0.09365624999999999645, 0.0000000000000000000, 0.03000000000000000583 ) ) ;
#91 = LINE ( 'NONE', #117, #20 ) ;
#92 = ORIENTED_EDGE ( 'NONE', *, *, #294, .F. ) ;
#93 =( NAMED_UNIT ( * ) PLANE_ANGLE_UNIT ( ) SI_UNIT ( $, .RADIAN. ) );
#94 = EDGE_CURVE ( 'NONE', #186, #346, #91, .T. ) ;
#95 = VECTOR ( 'NONE', #151, 39.37007874015748143 ) ;
#96 =( NAMED_UNIT ( * ) SI_UNIT ( $, .STERADIAN. ) SOLID_ANGLE_UNIT ( ) );
#97 = CIRCLE ( 'NONE', #268, 0.09365624999999999645 ) ;
#98 = VECTOR ( 'NONE', #37, 39.37007874015748143 ) ;
#99 = CARTESIAN_POINT ( 'NONE',  ( 0.06365624999999998368, 0.0000000000000000000, 0.0000000000000000000 ) ) ;
#100 = DIRECTION ( 'NONE',  ( 1.000000000000000000, 0.0000000000000000000, 0.0000000000000000000 ) ) ;
#101 = LENGTH_MEASURE_WITH_UNIT ( LENGTH_MEASURE( 0.02539999999999999897 ), #178 );
#102 = DIRECTION ( 'NONE',  ( 1.000000000000000000, 0.0000000000000000000, 0.0000000000000000000 ) ) ;
#103 = ADVANCED_FACE ( 'NONE', ( #331 ), #168, .T. ) ;
#104 = EDGE_CURVE ( 'NONE', #191, #346, #97, .T. ) ;
#105 = CARTESIAN_POINT ( 'NONE',  ( 3.673940397442059190E-18, 0.0000000000000000000, 0.0000000000000000000 ) ) ;
#106 = FILL_AREA_STYLE ('',( #343 ) ) ;
#107 = AXIS2_PLACEMENT_3D ( 'NONE', #301, #125, #7 ) ;
#108 = PRODUCT_DEFINITION_FORMATION_WITH_SPECIFIED_SOURCE ( 'ANY', '', #285, .NOT_KNOWN. ) ;
#109 = ORIENTED_EDGE ( 'NONE', *, *, #104, .T. ) ;
#110 = ADVANCED_FACE ( 'NONE', ( #153 ), #314, .T. ) ;
#111 = CYLINDRICAL_SURFACE ( 'NONE', #181, 0.09365624999999999645 ) ;
#112 = DIRECTION ( 'NONE',  ( 0.0000000000000000000, 0.0000000000000000000, -1.000000000000000000 ) ) ;
#113 = DIRECTION ( 'NONE',  ( 1.000000000000000000, 0.0000000000000000000, 0.0000000000000000000 ) ) ;
#114 = DIRECTION ( 'NONE',  ( -1.224646799147353207E-16, -0.0000000000000000000, -1.000000000000000000 ) ) ;
#115 = ORIENTED_EDGE ( 'NONE', *, *, #324, .T. ) ;
#116 = ORIENTED_EDGE ( 'NONE', *, *, #27, .T. ) ;
#117 = CARTESIAN_POINT ( 'NONE',  ( -0.09365624999999999645, 0.0000000000000000000, 1.146958267826442798E-17 ) ) ;
#118 = AXIS2_PLACEMENT_3D ( 'NONE', #184, #81, #17 ) ;
#119 = VERTEX_POINT ( 'NONE', #99 ) ;
#120 = EDGE_CURVE ( 'NONE', #216, #259, #6, .T. ) ;
#121 = AXIS2_PLACEMENT_3D ( 'NONE', #255, #114, #242 ) ;
#122 = DIRECTION ( 'NONE',  ( 1.000000000000000000, 0.0000000000000000000, 0.0000000000000000000 ) ) ;
#123 = APPLICATION_PROTOCOL_DEFINITION ( 'draft international standard', 'automotive_design', 1998, #26 ) ;
#124 = ADVANCED_BREP_SHAPE_REPRESENTATION ( 'Micro_GEC-187-4-030X', ( #288, #163 ), #49 ) ;
#125 = DIRECTION ( 'NONE',  ( 0.0000000000000000000, 0.0000000000000000000, 1.000000000000000000 ) ) ;
#126 = FACE_OUTER_BOUND ( 'NONE', #296, .T. ) ;
#127 = CARTESIAN_POINT ( 'NONE',  ( -0.06365624999999998368, 9.632612479543399156E-18, 0.0000000000000000000 ) ) ;
#128 = VECTOR ( 'NONE', #179, 39.37007874015747433 ) ;
#129 = CARTESIAN_POINT ( 'NONE',  ( -0.09375000000000001388, 0.0000000000000000000, 1.984999999999999654 ) ) ;
#130 = CARTESIAN_POINT ( 'NONE',  ( 3.673940397442059190E-18, 0.0000000000000000000, 0.02999999999999999889 ) ) ;
#131 = CARTESIAN_POINT ( 'NONE',  ( 0.0000000000000000000, 0.0000000000000000000, 2.000000000000000000 ) ) ;
#132 = DIRECTION ( 'NONE',  ( -0.7071067811865463515, 0.0000000000000000000, -0.7071067811865486830 ) ) ;
#133 = VERTEX_POINT ( 'NONE', #127 ) ;
#134 = ORIENTED_EDGE ( 'NONE', *, *, #51, .F. ) ;
#135 = ADVANCED_FACE ( 'NONE', ( #275 ), #38, .T. ) ;
#136 = ORIENTED_EDGE ( 'NONE', *, *, #18, .T. ) ;
#137 = AXIS2_PLACEMENT_3D ( 'NONE', #105, #287, #345 ) ;
#138 = EDGE_LOOP ( 'NONE', ( #325, #54, #63, #35 ) ) ;
#139 = FACE_OUTER_BOUND ( 'NONE', #21, .T. ) ;
#140 = APPLICATION_CONTEXT ( 'automotive_design' ) ;
#141 = DIRECTION ( 'NONE',  ( 1.000000000000000000, 0.0000000000000000000, 0.0000000000000000000 ) ) ;
#142 = DIRECTION ( 'NONE',  ( 1.000000000000000000, 0.0000000000000000000, 0.0000000000000000000 ) ) ;
#143 = ORIENTED_EDGE ( 'NONE', *, *, #272, .F. ) ;
#144 = DIRECTION ( 'NONE',  ( -1.000000000000000000, 0.0000000000000000000, 1.224646799147352961E-16 ) ) ;
#145 = CIRCLE ( 'NONE', #107, 0.07874999999999980627 ) ;
#146 = CIRCLE ( 'NONE', #231, 0.09375000000000001388 ) ;
#147 = PRODUCT_CONTEXT ( 'NONE', #140, 'mechanical' ) ;
#148 = EDGE_LOOP ( 'NONE', ( #303, #223, #206, #332 ) ) ;
#149 = CYLINDRICAL_SURFACE ( 'NONE', #227, 0.09365624999999999645 ) ;
#150 = PRODUCT_RELATED_PRODUCT_CATEGORY ( 'part', '', ( #285 ) ) ;
#151 = DIRECTION ( 'NONE',  ( -0.0000000000000000000, -0.0000000000000000000, -1.000000000000000000 ) ) ;
#152 = CARTESIAN_POINT ( 'NONE',  ( -0.09365624999999992706, 1.147532321013543253E-17, 0.6250000000000000000 ) ) ;
#153 = FACE_OUTER_BOUND ( 'NONE', #85, .T. ) ;
#154 =( CONVERSION_BASED_UNIT ( 'INCH', #101 ) LENGTH_UNIT ( ) NAMED_UNIT ( #252 ) );
#155 = PRESENTATION_LAYER_ASSIGNMENT (  '', '', ( #304 ) ) ;
#156 = SURFACE_SIDE_STYLE ('',( #52 ) ) ;
#157 = MECHANICAL_DESIGN_GEOMETRIC_PRESENTATION_REPRESENTATION (  '', ( #199 ), #189 ) ;
#158 = ORIENTED_EDGE ( 'NONE', *, *, #28, .F. ) ;
#159 = ORIENTED_EDGE ( 'NONE', *, *, #4, .T. ) ;
#160 = CARTESIAN_POINT ( 'NONE',  ( 0.0000000000000000000, 0.0000000000000000000, 0.0000000000000000000 ) ) ;
#161 = EDGE_LOOP ( 'NONE', ( #166, #334, #109, #25 ) ) ;
#162 = AXIS2_PLACEMENT_3D ( 'NONE', #228, #70, #177 ) ;
#163 = AXIS2_PLACEMENT_3D ( 'NONE', #238, #274, #113 ) ;
#164 = LENGTH_MEASURE_WITH_UNIT ( LENGTH_MEASURE( 0.02539999999999999897 ), #225 );
#165 = DIRECTION ( 'NONE',  ( 0.7071067811865463515, 8.659560562354916834E-17, -0.7071067811865486830 ) ) ;
#166 = ORIENTED_EDGE ( 'NONE', *, *, #264, .T. ) ;
#167 =( NAMED_UNIT ( * ) PLANE_ANGLE_UNIT ( ) SI_UNIT ( $, .RADIAN. ) );
#168 = CYLINDRICAL_SURFACE ( 'NONE', #77, 0.09375000000000001388 ) ;
#169 = PLANE ( 'NONE',  #32 ) ;
#170 = VERTEX_POINT ( 'NONE', #72 ) ;
#171 =( NAMED_UNIT ( * ) SI_UNIT ( $, .STERADIAN. ) SOLID_ANGLE_UNIT ( ) );
#172 = DIRECTION ( 'NONE',  ( -0.0000000000000000000, -0.0000000000000000000, -1.000000000000000000 ) ) ;
#173 = PRODUCT_DEFINITION_SHAPE ( 'NONE', 'NONE',  #217 ) ;
#174 =( GEOMETRIC_REPRESENTATION_CONTEXT ( 3 ) GLOBAL_UNCERTAINTY_ASSIGNED_CONTEXT ( ( #2 ) ) GLOBAL_UNIT_ASSIGNED_CONTEXT ( ( #154, #57, #256 ) ) REPRESENTATION_CONTEXT ( 'NONE', 'WORKASPACE' ) );
#175 = ORIENTED_EDGE ( 'NONE', *, *, #120, .T. ) ;
#176 = CARTESIAN_POINT ( 'NONE',  ( 0.0000000000000000000, 0.0000000000000000000, 1.984999999999999654 ) ) ;
#177 = DIRECTION ( 'NONE',  ( 1.000000000000000000, 0.0000000000000000000, 0.0000000000000000000 ) ) ;
#178 =( LENGTH_UNIT ( ) NAMED_UNIT ( * ) SI_UNIT ( $, .METRE. ) );
#179 = DIRECTION ( 'NONE',  ( -0.1736481776669311639, 2.126576849575782392E-17, 0.9848077530122080203 ) ) ;
#180 = DIMENSIONAL_EXPONENTS ( 1.000000000000000000, 0.0000000000000000000, 0.0000000000000000000, 0.0000000000000000000, 0.0000000000000000000, 0.0000000000000000000, 0.0000000000000000000 ) ;
#181 = AXIS2_PLACEMENT_3D ( 'NONE', #235, #260, #258 ) ;
#182 = DIRECTION ( 'NONE',  ( 1.224646799147353207E-16, 1.000000000000000000, -0.0000000000000000000 ) ) ;
#183 = DIRECTION ( 'NONE',  ( -1.224646799147353207E-16, -0.0000000000000000000, -1.000000000000000000 ) ) ;
#184 = CARTESIAN_POINT ( 'NONE',  ( 3.673940397442059960E-18, 0.0000000000000000000, 0.03000000000000000583 ) ) ;
#185 = FACE_OUTER_BOUND ( 'NONE', #161, .T. ) ;
#186 = VERTEX_POINT ( 'NONE', #152 ) ;
#187 = VERTEX_POINT ( 'NONE', #222 ) ;
#188 = AXIS2_PLACEMENT_3D ( 'NONE', #202, #8, #100 ) ;
#189 =( GEOMETRIC_REPRESENTATION_CONTEXT ( 3 ) GLOBAL_UNCERTAINTY_ASSIGNED_CONTEXT ( ( #201 ) ) GLOBAL_UNIT_ASSIGNED_CONTEXT ( ( #326, #167, #171 ) ) REPRESENTATION_CONTEXT ( 'NONE', 'WORKASPACE' ) );
#190 = ORIENTED_EDGE ( 'NONE', *, *, #200, .T. ) ;
#191 = VERTEX_POINT ( 'NONE', #341 ) ;
#192 = MECHANICAL_DESIGN_GEOMETRIC_PRESENTATION_REPRESENTATION (  '', ( #304 ), #174 ) ;
#193 = CARTESIAN_POINT ( 'NONE',  ( 3.673940397442059960E-18, 0.0000000000000000000, 0.03000000000000000583 ) ) ;
#194 = ORIENTED_EDGE ( 'NONE', *, *, #74, .T. ) ;
#195 = LINE ( 'NONE', #251, #31 ) ;
#196 = EDGE_CURVE ( 'NONE', #187, #259, #207, .T. ) ;
#197 = AXIS2_PLACEMENT_3D ( 'NONE', #229, #41, #299 ) ;
#198 = FILL_AREA_STYLE_COLOUR ( '', #342 ) ;
#199 = STYLED_ITEM ( 'NONE', ( #64 ), #124 ) ;
#200 = EDGE_CURVE ( 'NONE', #170, #216, #34, .T. ) ;
#201 = UNCERTAINTY_MEASURE_WITH_UNIT (LENGTH_MEASURE( 1.000000000000000082E-05 ), #326, 'distance_accuracy_value', 'NONE');
#202 = CARTESIAN_POINT ( 'NONE',  ( 7.654042494670957853E-17, 0.0000000000000000000, 0.6250000000000000000 ) ) ;
#203 = DIMENSIONAL_EXPONENTS ( 1.000000000000000000, 0.0000000000000000000, 0.0000000000000000000, 0.0000000000000000000, 0.0000000000000000000, 0.0000000000000000000, 0.0000000000000000000 ) ;
#204 = CARTESIAN_POINT ( 'NONE',  ( 0.0000000000000000000, 0.0000000000000000000, 2.000000000000000000 ) ) ;
#205 = AXIS2_PLACEMENT_3D ( 'NONE', #232, #183, #313 ) ;
#206 = ORIENTED_EDGE ( 'NONE', *, *, #120, .F. ) ;
#207 = LINE ( 'NONE', #310, #12 ) ;
#208 = FACE_OUTER_BOUND ( 'NONE', #138, .T. ) ;
#209 = CIRCLE ( 'NONE', #329, 0.02999999999999999889 ) ;
#210 = EDGE_CURVE ( 'NONE', #133, #346, #337, .T. ) ;
#211 = AXIS2_PLACEMENT_3D ( 'NONE', #80, #47, #24 ) ;
#212 = EDGE_CURVE ( 'NONE', #186, #253, #312, .T. ) ;
#213 = DIRECTION ( 'NONE',  ( -1.000000000000000000, 1.224646799147352961E-16, 0.0000000000000000000 ) ) ;
#214 = CONICAL_SURFACE ( 'NONE', #188, 0.09365624999999999645, 0.1745329251994338360 ) ;
#215 = LINE ( 'NONE', #323, #58 ) ;
#216 = VERTEX_POINT ( 'NONE', #129 ) ;
#217 = PRODUCT_DEFINITION ( 'UNKNOWN', '', #108, #282 ) ;
#218 = FACE_OUTER_BOUND ( 'NONE', #263, .T. ) ;
#219 = DIRECTION ( 'NONE',  ( -1.000000000000000000, 0.0000000000000000000, 0.0000000000000000000 ) ) ;
#220 = EDGE_LOOP ( 'NONE', ( #143, #349, #240, #15 ) ) ;
#221 = EDGE_CURVE ( 'NONE', #253, #59, #236, .T. ) ;
#222 = CARTESIAN_POINT ( 'NONE',  ( 0.07874999999999980627, 1.056257864264590573E-17, 2.000000000000000000 ) ) ;
#223 = ORIENTED_EDGE ( 'NONE', *, *, #196, .T. ) ;
#224 = CLOSED_SHELL ( 'NONE', ( #305, #254, #250, #71, #86, #103, #135, #286, #43, #335, #311, #110 ) ) ;
#225 =( LENGTH_UNIT ( ) NAMED_UNIT ( * ) SI_UNIT ( $, .METRE. ) );
#226 = AXIS2_PLACEMENT_3D ( 'NONE', #271, #9, #219 ) ;
#227 = AXIS2_PLACEMENT_3D ( 'NONE', #87, #241, #144 ) ;
#228 = CARTESIAN_POINT ( 'NONE',  ( 3.673940397442059190E-18, 0.0000000000000000000, 0.02999999999999999889 ) ) ;
#229 = CARTESIAN_POINT ( 'NONE',  ( 0.0000000000000000000, 0.0000000000000000000, 2.000000000000000000 ) ) ;
#230 = CYLINDRICAL_SURFACE ( 'NONE', #226, 0.09375000000000001388 ) ;
#231 = AXIS2_PLACEMENT_3D ( 'NONE', #84, #42, #141 ) ;
#232 = CARTESIAN_POINT ( 'NONE',  ( 7.654042494670957853E-17, 0.0000000000000000000, 0.6250000000000000000 ) ) ;
#233 = CARTESIAN_POINT ( 'NONE',  ( 0.0000000000000000000, 0.0000000000000000000, 1.984999999999999654 ) ) ;
#234 = AXIS2_PLACEMENT_3D ( 'NONE', #233, #318, #46 ) ;
#235 = CARTESIAN_POINT ( 'NONE',  ( 0.0000000000000000000, 0.0000000000000000000, 0.0000000000000000000 ) ) ;
#236 = CIRCLE ( 'NONE', #55, 0.09375000000000001388 ) ;
#237 = CARTESIAN_POINT ( 'NONE',  ( 0.09375000000000001388, 1.148106374200643863E-17, 2.000000000000000000 ) ) ;
#238 = CARTESIAN_POINT ( 'NONE',  ( 0.0000000000000000000, 0.0000000000000000000, 0.0000000000000000000 ) ) ;
#239 = CARTESIAN_POINT ( 'NONE',  ( 0.0000000000000000000, 0.0000000000000000000, 2.000000000000000000 ) ) ;
#240 = ORIENTED_EDGE ( 'NONE', *, *, #104, .F. ) ;
#241 = DIRECTION ( 'NONE',  ( -1.224646799147353207E-16, -0.0000000000000000000, -1.000000000000000000 ) ) ;
#242 = DIRECTION ( 'NONE',  ( -1.000000000000000000, 0.0000000000000000000, 0.0000000000000000000 ) ) ;
#243 = ORIENTED_EDGE ( 'NONE', *, *, #27, .F. ) ;
#244 = AXIS2_PLACEMENT_3D ( 'NONE', #10, #182, #213 ) ;
#245 = CARTESIAN_POINT ( 'NONE',  ( 0.09365625000000006584, 0.0000000000000000000, 0.6250000000000000000 ) ) ;
#246 = SURFACE_STYLE_FILL_AREA ( #69 ) ;
#247 = CARTESIAN_POINT ( 'NONE',  ( 0.09365625000000006584, 0.0000000000000000000, 0.6250000000000000000 ) ) ;
#248 = AXIS2_PLACEMENT_3D ( 'NONE', #204, #44, #308 ) ;
#249 = CIRCLE ( 'NONE', #118, 0.09365624999999999645 ) ;
#250 = ADVANCED_FACE ( 'NONE', ( #208 ), #270, .T. ) ;
#251 = CARTESIAN_POINT ( 'NONE',  ( 0.09365624999999999645, 1.146958267826442798E-17, -1.146958267826442798E-17 ) ) ;
#252 = DIMENSIONAL_EXPONENTS ( 1.000000000000000000, 0.0000000000000000000, 0.0000000000000000000, 0.0000000000000000000, 0.0000000000000000000, 0.0000000000000000000, 0.0000000000000000000 ) ;
#253 = VERTEX_POINT ( 'NONE', #289 ) ;
#254 = ADVANCED_FACE ( 'NONE', ( #185 ), #111, .T. ) ;
#255 = CARTESIAN_POINT ( 'NONE',  ( 7.654042494670957853E-17, 0.0000000000000000000, 0.6250000000000000000 ) ) ;
#256 =( NAMED_UNIT ( * ) SI_UNIT ( $, .STERADIAN. ) SOLID_ANGLE_UNIT ( ) );
#257 = CARTESIAN_POINT ( 'NONE',  ( -0.09365624999999992706, 1.146958267826442798E-17, 0.6250000000000000000 ) ) ;
#258 = DIRECTION ( 'NONE',  ( -1.000000000000000000, 0.0000000000000000000, 1.224646799147352961E-16 ) ) ;
#259 = VERTEX_POINT ( 'NONE', #293 ) ;
#260 = DIRECTION ( 'NONE',  ( -1.224646799147353207E-16, -0.0000000000000000000, -1.000000000000000000 ) ) ;
#261 = CIRCLE ( 'NONE', #29, 0.06365624999999998368 ) ;
#262 = VECTOR ( 'NONE', #132, 39.37007874015748143 ) ;
#263 = EDGE_LOOP ( 'NONE', ( #134, #300, #269, #276 ) ) ;
#264 = EDGE_CURVE ( 'NONE', #186, #60, #22, .T. ) ;
#265 = ORIENTED_EDGE ( 'NONE', *, *, #28, .T. ) ;
#266 = DIRECTION ( 'NONE',  ( -0.0000000000000000000, -0.0000000000000000000, -1.000000000000000000 ) ) ;
#267 = EDGE_CURVE ( 'NONE', #170, #187, #347, .T. ) ;
#268 = AXIS2_PLACEMENT_3D ( 'NONE', #193, #65, #122 ) ;
#269 = ORIENTED_EDGE ( 'NONE', *, *, #94, .T. ) ;
#270 = CONICAL_SURFACE ( 'NONE', #211, 0.09365624999999999645, 0.1745329251994338360 ) ;
#271 = CARTESIAN_POINT ( 'NONE',  ( 0.0000000000000000000, 0.0000000000000000000, 2.000000000000000000 ) ) ;
#272 = EDGE_CURVE ( 'NONE', #133, #119, #83, .T. ) ;
#273 = EDGE_LOOP ( 'NONE', ( #243, #56, #136, #39 ) ) ;
#274 = DIRECTION ( 'NONE',  ( 0.0000000000000000000, 0.0000000000000000000, 1.000000000000000000 ) ) ;
#275 = FACE_OUTER_BOUND ( 'NONE', #16, .T. ) ;
#276 = ORIENTED_EDGE ( 'NONE', *, *, #294, .T. ) ;
#277 = FACE_OUTER_BOUND ( 'NONE', #336, .T. ) ;
#278 = COLOUR_RGB ( '',0.7921568627450980005, 0.8196078431372548767, 0.9333333333333333481 ) ;
#279 = APPLICATION_PROTOCOL_DEFINITION ( 'draft international standard', 'automotive_design', 1998, #140 ) ;
#280 = ORIENTED_EDGE ( 'NONE', *, *, #320, .T. ) ;
#281 = DIRECTION ( 'NONE',  ( 1.000000000000000000, 0.0000000000000000000, -0.0000000000000000000 ) ) ;
#282 = PRODUCT_DEFINITION_CONTEXT ( 'detailed design', #26, 'design' ) ;
#283 = DIRECTION ( 'NONE',  ( 0.0000000000000000000, 0.0000000000000000000, -1.000000000000000000 ) ) ;
#284 = CARTESIAN_POINT ( 'NONE',  ( 3.673940397442059190E-18, 0.0000000000000000000, 0.0000000000000000000 ) ) ;
#285 = PRODUCT ( 'Micro_GEC-187-4-030X', 'Micro_GEC-187-4-030X', '', ( #147 ) ) ;
#286 = ADVANCED_FACE ( 'NONE', ( #50 ), #309, .T. ) ;
#287 = DIRECTION ( 'NONE',  ( -0.0000000000000000000, -0.0000000000000000000, -1.000000000000000000 ) ) ;
#288 = MANIFOLD_SOLID_BREP ( 'Fillet1', #224 ) ;
#289 = CARTESIAN_POINT ( 'NONE',  ( -0.09374999999999994449, 0.0000000000000000000, 0.6255316826705892286 ) ) ;
#290 = DIRECTION ( 'NONE',  ( 0.0000000000000000000, -1.000000000000000000, 0.0000000000000000000 ) ) ;
#291 = DIRECTION ( 'NONE',  ( 0.0000000000000000000, 0.0000000000000000000, 1.000000000000000000 ) ) ;
#292 = EDGE_CURVE ( 'NONE', #259, #216, #73, .T. ) ;
#293 = CARTESIAN_POINT ( 'NONE',  ( 0.09375000000000001388, 1.148106374200643863E-17, 1.984999999999999654 ) ) ;
#294 = EDGE_CURVE ( 'NONE', #346, #191, #249, .T. ) ;
#295 = TOROIDAL_SURFACE ( 'NONE', #315, 0.06365624999999998368, 0.02999999999999999889 ) ;
#296 = EDGE_LOOP ( 'NONE', ( #265, #350 ) ) ;
#297 = ORIENTED_EDGE ( 'NONE', *, *, #212, .F. ) ;
#298 = SURFACE_STYLE_USAGE ( .BOTH. , #5 ) ;
#299 = DIRECTION ( 'NONE',  ( -1.000000000000000000, 0.0000000000000000000, 0.0000000000000000000 ) ) ;
#300 = ORIENTED_EDGE ( 'NONE', *, *, #78, .T. ) ;
#301 = CARTESIAN_POINT ( 'NONE',  ( 0.0000000000000000000, 0.0000000000000000000, 2.000000000000000000 ) ) ;
#302 = DIRECTION ( 'NONE',  ( 0.0000000000000000000, 0.0000000000000000000, 1.000000000000000000 ) ) ;
#303 = ORIENTED_EDGE ( 'NONE', *, *, #74, .F. ) ;
#304 = STYLED_ITEM ( 'NONE', ( #19 ), #288 ) ;
#305 = ADVANCED_FACE ( 'NONE', ( #13 ), #295, .T. ) ;
#306 = DIRECTION ( 'NONE',  ( -1.000000000000000000, 0.0000000000000000000, 0.0000000000000000000 ) ) ;
#307 = SHAPE_DEFINITION_REPRESENTATION ( #173, #124 ) ;
#308 = DIRECTION ( 'NONE',  ( 1.000000000000000000, 0.0000000000000000000, -0.0000000000000000000 ) ) ;
#309 = CONICAL_SURFACE ( 'NONE', #322, 0.07874999999999980627, 0.7853981633974466137 ) ;
#310 = CARTESIAN_POINT ( 'NONE',  ( 0.07874999999999980627, 9.644093543285380530E-18, 2.000000000000000000 ) ) ;
#311 = ADVANCED_FACE ( 'NONE', ( #126 ), #169, .F. ) ;
#312 = LINE ( 'NONE', #257, #128 ) ;
#313 = DIRECTION ( 'NONE',  ( -1.000000000000000000, 0.0000000000000000000, 0.0000000000000000000 ) ) ;
#314 = TOROIDAL_SURFACE ( 'NONE', #162, 0.06365624999999998368, 0.02999999999999999889 ) ;
#315 = AXIS2_PLACEMENT_3D ( 'NONE', #130, #291, #102 ) ;
#316 = CARTESIAN_POINT ( 'NONE',  ( 7.660553729477949085E-17, 0.0000000000000000000, 0.6255316826705892286 ) ) ;
#317 = CARTESIAN_POINT ( 'NONE',  ( 0.06365624999999998368, 0.0000000000000000000, 0.02999999999999999889 ) ) ;
#318 = DIRECTION ( 'NONE',  ( 0.0000000000000000000, 0.0000000000000000000, -1.000000000000000000 ) ) ;
#319 = DIRECTION ( 'NONE',  ( -1.000000000000000000, 0.0000000000000000000, 0.0000000000000000000 ) ) ;
#320 = EDGE_CURVE ( 'NONE', #60, #59, #68, .T. ) ;
#321 = ORIENTED_EDGE ( 'NONE', *, *, #221, .F. ) ;
#322 = AXIS2_PLACEMENT_3D ( 'NONE', #131, #75, #319 ) ;
#323 = CARTESIAN_POINT ( 'NONE',  ( -0.09375000000000001388, 0.0000000000000000000, 2.000000000000000000 ) ) ;
#324 = EDGE_CURVE ( 'NONE', #59, #253, #146, .T. ) ;
#325 = ORIENTED_EDGE ( 'NONE', *, *, #264, .F. ) ;
#326 =( CONVERSION_BASED_UNIT ( 'INCH', #66 ) LENGTH_UNIT ( ) NAMED_UNIT ( #180 ) );
#327 = ORIENTED_EDGE ( 'NONE', *, *, #267, .F. ) ;
#328 = ORIENTED_EDGE ( 'NONE', *, *, #292, .F. ) ;
#329 = AXIS2_PLACEMENT_3D ( 'NONE', #317, #290, #112 ) ;
#330 =( CONVERSION_BASED_UNIT ( 'INCH', #164 ) LENGTH_UNIT ( ) NAMED_UNIT ( #203 ) );
#331 = FACE_OUTER_BOUND ( 'NONE', #273, .T. ) ;
#332 = ORIENTED_EDGE ( 'NONE', *, *, #200, .F. ) ;
#333 = CARTESIAN_POINT ( 'NONE',  ( 0.09375000000000006939, 1.148106374200644633E-17, 0.6255316826705892286 ) ) ;
#334 = ORIENTED_EDGE ( 'NONE', *, *, #51, .T. ) ;
#335 = ADVANCED_FACE ( 'NONE', ( #218 ), #149, .T. ) ;
#336 = EDGE_LOOP ( 'NONE', ( #297, #3, #280, #115 ) ) ;
#337 = CIRCLE ( 'NONE', #244, 0.03000000000000000583 ) ;
#338 = UNCERTAINTY_MEASURE_WITH_UNIT (LENGTH_MEASURE( 1.000000000000000082E-05 ), #330, 'distance_accuracy_value', 'NONE');
#339 = FACE_OUTER_BOUND ( 'NONE', #148, .T. ) ;
#340 = ORIENTED_EDGE ( 'NONE', *, *, #196, .F. ) ;
#341 = CARTESIAN_POINT ( 'NONE',  ( 0.09365624999999999645, 1.146958267826442798E-17, 0.03000000000000000583 ) ) ;
#342 = COLOUR_RGB ( '',0.7921568627450980005, 0.8196078431372548767, 0.9333333333333333481 ) ;
#343 = FILL_AREA_STYLE_COLOUR ( '', #278 ) ;
#344 = CARTESIAN_POINT ( 'NONE',  ( 0.0000000000000000000, 0.0000000000000000000, 2.000000000000000000 ) ) ;
#345 = DIRECTION ( 'NONE',  ( 1.000000000000000000, 0.0000000000000000000, 0.0000000000000000000 ) ) ;
#346 = VERTEX_POINT ( 'NONE', #90 ) ;
#347 = CIRCLE ( 'NONE', #62, 0.07874999999999980627 ) ;
#348 = DIRECTION ( 'NONE',  ( 0.0000000000000000000, 0.0000000000000000000, 1.000000000000000000 ) ) ;
#349 = ORIENTED_EDGE ( 'NONE', *, *, #210, .T. ) ;
#350 = ORIENTED_EDGE ( 'NONE', *, *, #272, .T. ) ;
#351 = CARTESIAN_POINT ( 'NONE',  ( -0.07874999999999980627, 0.0000000000000000000, 2.000000000000000000 ) ) ;
ENDSEC;
END-ISO-10303-21;
