ISO-10303-21;
HEADER;
FILE_DESCRIPTION (( 'STEP AP214' ),
    '1' );
FILE_NAME ('82266.STEP',
    '2023-06-23T04:49:15',
    ( '' ),
    ( '' ),
    'SwSTEP 2.0',
    'SolidWorks 2023',
    '' );
FILE_SCHEMA (( 'AUTOMOTIVE_DESIGN' ));
ENDSEC;

DATA;
#1 =( CONVERSION_BASED_UNIT ( 'INCH', #215 ) LENGTH_UNIT ( ) NAMED_UNIT ( #175 ) );
#2 = SURFACE_STYLE_USAGE ( .BOTH. , #171 ) ;
#3 = CLOSED_SHELL ( 'NONE', ( #302, #80, #285, #107 ) ) ;
#4 =( LENGTH_UNIT ( ) NAMED_UNIT ( * ) SI_UNIT ( $, .METRE. ) );
#5 = COLOUR_RGB ( '',1.000000000000000000, 0.000000000000000000, 0.000000000000000000 ) ;
#6 = APPLICATION_CONTEXT ( 'automotive_design' ) ;
#7 = AXIS2_PLACEMENT_3D ( 'NONE', #150, #176, #244 ) ;
#8 = UNCERTAINTY_MEASURE_WITH_UNIT (LENGTH_MEASURE( 1.000000000000000082E-05 ), #151, 'distance_accuracy_value', 'NONE');
#9 = ORIENTED_EDGE ( 'NONE', *, *, #162, .F. ) ;
#10 = DIRECTION ( 'NONE',  ( -1.000000000000000000, 0.000000000000000000, 0.000000000000000000 ) ) ;
#11 =( NAMED_UNIT ( * ) SI_UNIT ( $, .STERADIAN. ) SOLID_ANGLE_UNIT ( ) );
#12 = ORIENTED_EDGE ( 'NONE', *, *, #154, .F. ) ;
#13 = APPLICATION_PROTOCOL_DEFINITION ( 'draft international standard', 'automotive_design', 1998, #227 ) ;
#14 = EDGE_CURVE ( 'NONE', #32, #109, #65, .T. ) ;
#15 = AXIS2_PLACEMENT_3D ( 'NONE', #123, #98, #10 ) ;
#16 =( NAMED_UNIT ( * ) PLANE_ANGLE_UNIT ( ) SI_UNIT ( $, .RADIAN. ) );
#17 = PRODUCT_DEFINITION_SHAPE ( 'NONE', 'NONE',  #177 ) ;
#18 = EDGE_LOOP ( 'NONE', ( #201, #39, #298, #12 ) ) ;
#19 = EDGE_CURVE ( 'NONE', #296, #160, #117, .T. ) ;
#20 = MECHANICAL_DESIGN_GEOMETRIC_PRESENTATION_REPRESENTATION (  '', ( #225 ), #281 ) ;
#21 = PLANE ( 'NONE',  #180 ) ;
#22 = PLANE ( 'NONE',  #36 ) ;
#23 = VECTOR ( 'NONE', #284, 39.37007874015748143 ) ;
#24 = FILL_AREA_STYLE ('',( #141 ) ) ;
#25 = DIRECTION ( 'NONE',  ( 8.164311994315692567E-17, 1.000000000000000000, -0.000000000000000000 ) ) ;
#26 = LENGTH_MEASURE_WITH_UNIT ( LENGTH_MEASURE( 0.02539999999999999897 ), #79 );
#27 = SURFACE_STYLE_USAGE ( .BOTH. , #293 ) ;
#28 =( LENGTH_UNIT ( ) NAMED_UNIT ( * ) SI_UNIT ( $, .METRE. ) );
#29 = DIRECTION ( 'NONE',  ( -1.000000000000000000, 0.000000000000000000, 0.000000000000000000 ) ) ;
#30 = UNCERTAINTY_MEASURE_WITH_UNIT (LENGTH_MEASURE( 1.000000000000000082E-05 ), #1, 'distance_accuracy_value', 'NONE');
#31 = LENGTH_MEASURE_WITH_UNIT ( LENGTH_MEASURE( 0.02539999999999999897 ), #28 );
#32 = VERTEX_POINT ( 'NONE', #187 ) ;
#33 = EDGE_CURVE ( 'NONE', #61, #247, #234, .T. ) ;
#34 = ORIENTED_EDGE ( 'NONE', *, *, #270, .F. ) ;
#35 = ORIENTED_EDGE ( 'NONE', *, *, #202, .F. ) ;
#36 = AXIS2_PLACEMENT_3D ( 'NONE', #118, #211, #306 ) ;
#37 = DIRECTION ( 'NONE',  ( 0.000000000000000000, 0.000000000000000000, 1.000000000000000000 ) ) ;
#38 =( GEOMETRIC_REPRESENTATION_CONTEXT ( 3 ) GLOBAL_UNCERTAINTY_ASSIGNED_CONTEXT ( ( #8 ) ) GLOBAL_UNIT_ASSIGNED_CONTEXT ( ( #151, #16, #155 ) ) REPRESENTATION_CONTEXT ( 'NONE', 'WORKASPACE' ) );
#39 = ORIENTED_EDGE ( 'NONE', *, *, #162, .T. ) ;
#40 = DIRECTION ( 'NONE',  ( 8.164311994315692567E-17, 1.000000000000000000, -0.000000000000000000 ) ) ;
#41 = EDGE_LOOP ( 'NONE', ( #62, #35 ) ) ;
#42 = DIRECTION ( 'NONE',  ( 0.000000000000000000, 0.000000000000000000, -1.000000000000000000 ) ) ;
#43 =( NAMED_UNIT ( * ) SI_UNIT ( $, .STERADIAN. ) SOLID_ANGLE_UNIT ( ) );
#44 = AXIS2_PLACEMENT_3D ( 'NONE', #143, #40, #136 ) ;
#45 = CARTESIAN_POINT ( 'NONE',  ( 2.296212748401287726E-17, 0.000000000000000000, 0.1875000000000000278 ) ) ;
#46 = ADVANCED_FACE ( 'NONE', ( #206 ), #305, .F. ) ;
#47 =( NAMED_UNIT ( * ) PLANE_ANGLE_UNIT ( ) SI_UNIT ( $, .RADIAN. ) );
#48 = CARTESIAN_POINT ( 'NONE',  ( 0.1875000000000000278, 0.5000000000000001110, 2.296212748401286801E-17 ) ) ;
#49 = COLOUR_RGB ( '',1.000000000000000000, 0.000000000000000000, 0.000000000000000000 ) ;
#50 = CIRCLE ( 'NONE', #15, 0.1874999999999998890 ) ;
#51 = LENGTH_MEASURE_WITH_UNIT ( LENGTH_MEASURE( 0.02539999999999999897 ), #115 );
#52 = PRODUCT_RELATED_PRODUCT_CATEGORY ( 'part', '', ( #108 ) ) ;
#53 =( CONVERSION_BASED_UNIT ( 'INCH', #31 ) LENGTH_UNIT ( ) NAMED_UNIT ( #199 ) );
#54 = AXIS2_PLACEMENT_3D ( 'NONE', #272, #307, #68 ) ;
#55 = AXIS2_PLACEMENT_3D ( 'NONE', #253, #278, #137 ) ;
#56 = CARTESIAN_POINT ( 'NONE',  ( 0.000000000000000000, 0.5000000000000001110, 0.000000000000000000 ) ) ;
#57 =( NAMED_UNIT ( * ) SI_UNIT ( $, .STERADIAN. ) SOLID_ANGLE_UNIT ( ) );
#58 = LENGTH_MEASURE_WITH_UNIT ( LENGTH_MEASURE( 0.02539999999999999897 ), #241 );
#59 = SHAPE_DEFINITION_REPRESENTATION ( #17, #67 ) ;
#60 = CIRCLE ( 'NONE', #63, 0.1875000000000000278 ) ;
#61 = VERTEX_POINT ( 'NONE', #48 ) ;
#62 = ORIENTED_EDGE ( 'NONE', *, *, #129, .F. ) ;
#63 = AXIS2_PLACEMENT_3D ( 'NONE', #255, #229, #164 ) ;
#64 = ORIENTED_EDGE ( 'NONE', *, *, #105, .F. ) ;
#65 = CIRCLE ( 'NONE', #54, 0.1875000000000000278 ) ;
#66 = VECTOR ( 'NONE', #304, 39.37007874015748143 ) ;
#67 = ADVANCED_BREP_SHAPE_REPRESENTATION ( '82266', ( #131, #124, #182 ), #38 ) ;
#68 = DIRECTION ( 'NONE',  ( 0.000000000000000000, 0.000000000000000000, -1.000000000000000000 ) ) ;
#69 = FACE_OUTER_BOUND ( 'NONE', #245, .T. ) ;
#70 = MECHANICAL_DESIGN_GEOMETRIC_PRESENTATION_REPRESENTATION (  '', ( #165 ), #233 ) ;
#71 =( GEOMETRIC_REPRESENTATION_CONTEXT ( 3 ) GLOBAL_UNCERTAINTY_ASSIGNED_CONTEXT ( ( #216 ) ) GLOBAL_UNIT_ASSIGNED_CONTEXT ( ( #242, #99, #292 ) ) REPRESENTATION_CONTEXT ( 'NONE', 'WORKASPACE' ) );
#72 = SURFACE_STYLE_USAGE ( .BOTH. , #125 ) ;
#73 = CYLINDRICAL_SURFACE ( 'NONE', #7, 0.1875000000000000278 ) ;
#74 =( NAMED_UNIT ( * ) PLANE_ANGLE_UNIT ( ) SI_UNIT ( $, .RADIAN. ) );
#75 = PRESENTATION_STYLE_ASSIGNMENT (( #2 ) ) ;
#76 =( NAMED_UNIT ( * ) SI_UNIT ( $, .STERADIAN. ) SOLID_ANGLE_UNIT ( ) );
#77 = SURFACE_STYLE_FILL_AREA ( #294 ) ;
#78 = ORIENTED_EDGE ( 'NONE', *, *, #139, .F. ) ;
#79 =( LENGTH_UNIT ( ) NAMED_UNIT ( * ) SI_UNIT ( $, .METRE. ) );
#80 = ADVANCED_FACE ( 'NONE', ( #286 ), #212, .T. ) ;
#81 = CIRCLE ( 'NONE', #228, 0.1875000000000000278 ) ;
#82 = EDGE_LOOP ( 'NONE', ( #184, #224, #133, #34 ) ) ;
#83 = PRODUCT_DEFINITION_FORMATION_WITH_SPECIFIED_SOURCE ( 'ANY', '', #108, .NOT_KNOWN. ) ;
#84 = UNCERTAINTY_MEASURE_WITH_UNIT (LENGTH_MEASURE( 1.000000000000000082E-05 ), #53, 'distance_accuracy_value', 'NONE');
#85 = PRODUCT_CONTEXT ( 'NONE', #6, 'mechanical' ) ;
#86 = PRESENTATION_LAYER_ASSIGNMENT (  '', '', ( #190 ) ) ;
#87 = ADVANCED_FACE ( 'NONE', ( #186 ), #89, .T. ) ;
#88 = PRESENTATION_STYLE_ASSIGNMENT (( #303 ) ) ;
#89 = CYLINDRICAL_SURFACE ( 'NONE', #55, 0.1874999999999999445 ) ;
#90 = VECTOR ( 'NONE', #142, 39.37007874015748143 ) ;
#91 = CARTESIAN_POINT ( 'NONE',  ( 2.296212748401287726E-17, 0.000000000000000000, 0.1875000000000000278 ) ) ;
#92 = DIRECTION ( 'NONE',  ( -1.000000000000000000, 8.164311994315692567E-17, 0.000000000000000000 ) ) ;
#93 = CARTESIAN_POINT ( 'NONE',  ( -0.1874999999999998057, 2.000000000000000000, 0.000000000000000000 ) ) ;
#94 = DIRECTION ( 'NONE',  ( 0.000000000000000000, 0.000000000000000000, -1.000000000000000000 ) ) ;
#95 = CARTESIAN_POINT ( 'NONE',  ( 1.224646799147353700E-16, 2.000000000000000000, 0.000000000000000000 ) ) ;
#96 = FILL_AREA_STYLE_COLOUR ( '', #97 ) ;
#97 = COLOUR_RGB ( '',0.7921568627450980005, 0.8196078431372548767, 0.9333333333333333481 ) ;
#98 = DIRECTION ( 'NONE',  ( 8.164311994315692567E-17, 1.000000000000000000, -0.000000000000000000 ) ) ;
#99 =( NAMED_UNIT ( * ) PLANE_ANGLE_UNIT ( ) SI_UNIT ( $, .RADIAN. ) );
#100 = CIRCLE ( 'NONE', #198, 0.1875000000000000278 ) ;
#101 =( NAMED_UNIT ( * ) PLANE_ANGLE_UNIT ( ) SI_UNIT ( $, .RADIAN. ) );
#102 = DIMENSIONAL_EXPONENTS ( 1.000000000000000000, 0.000000000000000000, 0.000000000000000000, 0.000000000000000000, 0.000000000000000000, 0.000000000000000000, 0.000000000000000000 ) ;
#103 = VERTEX_POINT ( 'NONE', #116 ) ;
#104 = DIRECTION ( 'NONE',  ( 1.000000000000000000, 0.000000000000000000, 0.000000000000000000 ) ) ;
#105 = EDGE_CURVE ( 'NONE', #160, #296, #60, .T. ) ;
#106 = ORIENTED_EDGE ( 'NONE', *, *, #270, .T. ) ;
#107 = ADVANCED_FACE ( 'NONE', ( #166 ), #21, .T. ) ;
#108 = PRODUCT ( '82266', '82266', '', ( #85 ) ) ;
#109 = VERTEX_POINT ( 'NONE', #145 ) ;
#110 = DIMENSIONAL_EXPONENTS ( 1.000000000000000000, 0.000000000000000000, 0.000000000000000000, 0.000000000000000000, 0.000000000000000000, 0.000000000000000000, 0.000000000000000000 ) ;
#111 = SURFACE_SIDE_STYLE ('',( #161 ) ) ;
#112 = PRESENTATION_LAYER_ASSIGNMENT (  '', '', ( #225 ) ) ;
#113 = FILL_AREA_STYLE_COLOUR ( '', #264 ) ;
#114 = LINE ( 'NONE', #91, #66 ) ;
#115 =( LENGTH_UNIT ( ) NAMED_UNIT ( * ) SI_UNIT ( $, .METRE. ) );
#116 = CARTESIAN_POINT ( 'NONE',  ( -0.1875000000000000278, 0.5000000000000001110, 0.000000000000000000 ) ) ;
#117 = CIRCLE ( 'NONE', #157, 0.1875000000000000278 ) ;
#118 = CARTESIAN_POINT ( 'NONE',  ( 0.1875000000000000278, 2.000000000000000000, 0.000000000000000000 ) ) ;
#119 = PRESENTATION_STYLE_ASSIGNMENT (( #279 ) ) ;
#120 =( NAMED_UNIT ( * ) SI_UNIT ( $, .STERADIAN. ) SOLID_ANGLE_UNIT ( ) );
#121 = STYLED_ITEM ( 'NONE', ( #75 ), #285 ) ;
#122 =( LENGTH_UNIT ( ) NAMED_UNIT ( * ) SI_UNIT ( $, .METRE. ) );
#123 = CARTESIAN_POINT ( 'NONE',  ( 1.224646799147353700E-16, 2.000000000000000000, 0.000000000000000000 ) ) ;
#124 = MANIFOLD_SOLID_BREP ( 'Revolve - Tool Body (Straight Shanked)', #179 ) ;
#125 = SURFACE_SIDE_STYLE ('',( #196 ) ) ;
#126 = DIRECTION ( 'NONE',  ( -0.000000000000000000, -1.000000000000000000, -0.000000000000000000 ) ) ;
#127 = PRESENTATION_LAYER_ASSIGNMENT (  '', '', ( #185 ) ) ;
#128 = UNCERTAINTY_MEASURE_WITH_UNIT (LENGTH_MEASURE( 1.000000000000000082E-05 ), #148, 'distance_accuracy_value', 'NONE');
#129 = EDGE_CURVE ( 'NONE', #103, #61, #100, .T. ) ;
#130 = SURFACE_SIDE_STYLE ('',( #297 ) ) ;
#131 = MANIFOLD_SOLID_BREP ( 'Revolve - Cutting Edge', #3 ) ;
#132 = CARTESIAN_POINT ( 'NONE',  ( -0.1874999999999997502, 2.000000000000000000, 0.000000000000000000 ) ) ;
#133 = ORIENTED_EDGE ( 'NONE', *, *, #134, .F. ) ;
#134 = EDGE_CURVE ( 'NONE', #152, #247, #291, .T. ) ;
#135 =( GEOMETRIC_REPRESENTATION_CONTEXT ( 3 ) GLOBAL_UNCERTAINTY_ASSIGNED_CONTEXT ( ( #30 ) ) GLOBAL_UNIT_ASSIGNED_CONTEXT ( ( #1, #74, #11 ) ) REPRESENTATION_CONTEXT ( 'NONE', 'WORKASPACE' ) );
#136 = DIRECTION ( 'NONE',  ( -1.000000000000000000, 0.000000000000000000, 0.000000000000000000 ) ) ;
#137 = DIRECTION ( 'NONE',  ( -1.000000000000000000, 0.000000000000000000, 0.000000000000000000 ) ) ;
#138 = AXIS2_PLACEMENT_3D ( 'NONE', #230, #301, #189 ) ;
#139 = EDGE_CURVE ( 'NONE', #109, #32, #81, .T. ) ;
#140 = FILL_AREA_STYLE ('',( #113 ) ) ;
#141 = FILL_AREA_STYLE_COLOUR ( '', #49 ) ;
#142 = DIRECTION ( 'NONE',  ( 8.164311994315692567E-17, 1.000000000000000000, -0.000000000000000000 ) ) ;
#143 = CARTESIAN_POINT ( 'NONE',  ( 1.224646799147353700E-16, 2.000000000000000000, 0.000000000000000000 ) ) ;
#144 = DIRECTION ( 'NONE',  ( -0.000000000000000000, -1.000000000000000000, -0.000000000000000000 ) ) ;
#145 = CARTESIAN_POINT ( 'NONE',  ( 2.296212748401287726E-17, 0.5000000000000000000, 0.1875000000000000278 ) ) ;
#146 = PRESENTATION_STYLE_ASSIGNMENT (( #72 ) ) ;
#147 = PRESENTATION_LAYER_ASSIGNMENT (  '', '', ( #243 ) ) ;
#148 =( CONVERSION_BASED_UNIT ( 'INCH', #262 ) LENGTH_UNIT ( ) NAMED_UNIT ( #110 ) );
#149 = PRESENTATION_STYLE_ASSIGNMENT (( #289 ) ) ;
#150 = CARTESIAN_POINT ( 'NONE',  ( 0.000000000000000000, 0.000000000000000000, 0.000000000000000000 ) ) ;
#151 =( CONVERSION_BASED_UNIT ( 'INCH', #26 ) LENGTH_UNIT ( ) NAMED_UNIT ( #246 ) );
#152 = VERTEX_POINT ( 'NONE', #132 ) ;
#153 = EDGE_LOOP ( 'NONE', ( #159, #223, #106, #204 ) ) ;
#154 = EDGE_CURVE ( 'NONE', #32, #296, #226, .T. ) ;
#155 =( NAMED_UNIT ( * ) SI_UNIT ( $, .STERADIAN. ) SOLID_ANGLE_UNIT ( ) );
#156 = DIRECTION ( 'NONE',  ( -0.000000000000000000, -1.000000000000000000, -0.000000000000000000 ) ) ;
#157 = AXIS2_PLACEMENT_3D ( 'NONE', #168, #192, #94 ) ;
#158 = AXIS2_PLACEMENT_3D ( 'NONE', #95, #232, #257 ) ;
#159 = ORIENTED_EDGE ( 'NONE', *, *, #33, .F. ) ;
#160 = VERTEX_POINT ( 'NONE', #45 ) ;
#161 = SURFACE_STYLE_FILL_AREA ( #24 ) ;
#162 = EDGE_CURVE ( 'NONE', #109, #160, #114, .T. ) ;
#163 = CARTESIAN_POINT ( 'NONE',  ( 0.000000000000000000, 0.5000000000000000000, 0.000000000000000000 ) ) ;
#164 = DIRECTION ( 'NONE',  ( 0.000000000000000000, 0.000000000000000000, -1.000000000000000000 ) ) ;
#165 = STYLED_ITEM ( 'NONE', ( #88 ), #107 ) ;
#166 = FACE_OUTER_BOUND ( 'NONE', #181, .T. ) ;
#167 = CYLINDRICAL_SURFACE ( 'NONE', #158, 0.1874999999999999445 ) ;
#168 = CARTESIAN_POINT ( 'NONE',  ( 0.000000000000000000, 0.000000000000000000, 0.000000000000000000 ) ) ;
#169 = PRESENTATION_LAYER_ASSIGNMENT (  '', '', ( #165 ) ) ;
#170 = LINE ( 'NONE', #93, #90 ) ;
#171 = SURFACE_SIDE_STYLE ('',( #77 ) ) ;
#172 = CARTESIAN_POINT ( 'NONE',  ( 0.000000000000000000, 0.000000000000000000, -0.1875000000000000278 ) ) ;
#173 =( GEOMETRIC_REPRESENTATION_CONTEXT ( 3 ) GLOBAL_UNCERTAINTY_ASSIGNED_CONTEXT ( ( #252 ) ) GLOBAL_UNIT_ASSIGNED_CONTEXT ( ( #282, #47, #43 ) ) REPRESENTATION_CONTEXT ( 'NONE', 'WORKASPACE' ) );
#174 = DIRECTION ( 'NONE',  ( 0.000000000000000000, 0.000000000000000000, -1.000000000000000000 ) ) ;
#175 = DIMENSIONAL_EXPONENTS ( 1.000000000000000000, 0.000000000000000000, 0.000000000000000000, 0.000000000000000000, 0.000000000000000000, 0.000000000000000000, 0.000000000000000000 ) ;
#176 = DIRECTION ( 'NONE',  ( -0.000000000000000000, -1.000000000000000000, -0.000000000000000000 ) ) ;
#177 = PRODUCT_DEFINITION ( 'UNKNOWN', '', #83, #276 ) ;
#178 = ORIENTED_EDGE ( 'NONE', *, *, #139, .T. ) ;
#179 = CLOSED_SHELL ( 'NONE', ( #259, #46, #87, #263 ) ) ;
#180 = AXIS2_PLACEMENT_3D ( 'NONE', #237, #218, #174 ) ;
#181 = EDGE_LOOP ( 'NONE', ( #251, #271 ) ) ;
#182 = AXIS2_PLACEMENT_3D ( 'NONE', #269, #37, #104 ) ;
#183 = DIMENSIONAL_EXPONENTS ( 1.000000000000000000, 0.000000000000000000, 0.000000000000000000, 0.000000000000000000, 0.000000000000000000, 0.000000000000000000, 0.000000000000000000 ) ;
#184 = ORIENTED_EDGE ( 'NONE', *, *, #129, .T. ) ;
#185 = STYLED_ITEM ( 'NONE', ( #119 ), #80 ) ;
#186 = FACE_OUTER_BOUND ( 'NONE', #153, .T. ) ;
#187 = CARTESIAN_POINT ( 'NONE',  ( 0.000000000000000000, 0.5000000000000000000, -0.1875000000000000278 ) ) ;
#188 = DIRECTION ( 'NONE',  ( 8.164311994315692567E-17, 1.000000000000000000, -0.000000000000000000 ) ) ;
#189 = DIRECTION ( 'NONE',  ( 0.000000000000000000, -0.000000000000000000, 1.000000000000000000 ) ) ;
#190 = STYLED_ITEM ( 'NONE', ( #149 ), #302 ) ;
#191 = DIRECTION ( 'NONE',  ( -1.000000000000000000, 0.000000000000000000, 0.000000000000000000 ) ) ;
#192 = DIRECTION ( 'NONE',  ( -0.000000000000000000, -1.000000000000000000, -0.000000000000000000 ) ) ;
#193 = DIRECTION ( 'NONE',  ( 8.164311994315692567E-17, 1.000000000000000000, -0.000000000000000000 ) ) ;
#194 = CARTESIAN_POINT ( 'NONE',  ( 0.000000000000000000, 0.5000000000000001110, 0.000000000000000000 ) ) ;
#195 = FILL_AREA_STYLE_COLOUR ( '', #220 ) ;
#196 = SURFACE_STYLE_FILL_AREA ( #266 ) ;
#197 = AXIS2_PLACEMENT_3D ( 'NONE', #258, #193, #92 ) ;
#198 = AXIS2_PLACEMENT_3D ( 'NONE', #56, #25, #29 ) ;
#199 = DIMENSIONAL_EXPONENTS ( 1.000000000000000000, 0.000000000000000000, 0.000000000000000000, 0.000000000000000000, 0.000000000000000000, 0.000000000000000000, 0.000000000000000000 ) ;
#200 = FILL_AREA_STYLE_COLOUR ( '', #205 ) ;
#201 = ORIENTED_EDGE ( 'NONE', *, *, #14, .T. ) ;
#202 = EDGE_CURVE ( 'NONE', #61, #103, #213, .T. ) ;
#203 = ORIENTED_EDGE ( 'NONE', *, *, #154, .T. ) ;
#204 = ORIENTED_EDGE ( 'NONE', *, *, #295, .F. ) ;
#205 = COLOUR_RGB ( '',0.7921568627450980005, 0.8196078431372548767, 0.9333333333333333481 ) ;
#206 = FACE_OUTER_BOUND ( 'NONE', #41, .T. ) ;
#207 = SURFACE_SIDE_STYLE ('',( #209 ) ) ;
#208 = CARTESIAN_POINT ( 'NONE',  ( 0.000000000000000000, 0.000000000000000000, -0.1875000000000000278 ) ) ;
#209 = SURFACE_STYLE_FILL_AREA ( #140 ) ;
#210 = PRESENTATION_LAYER_ASSIGNMENT (  '', '', ( #121 ) ) ;
#211 = DIRECTION ( 'NONE',  ( -8.164311994315692567E-17, -1.000000000000000000, 0.000000000000000000 ) ) ;
#212 = PLANE ( 'NONE',  #138 ) ;
#213 = CIRCLE ( 'NONE', #254, 0.1875000000000000278 ) ;
#214 = DIRECTION ( 'NONE',  ( 0.000000000000000000, 0.000000000000000000, -1.000000000000000000 ) ) ;
#215 = LENGTH_MEASURE_WITH_UNIT ( LENGTH_MEASURE( 0.02539999999999999897 ), #122 );
#216 = UNCERTAINTY_MEASURE_WITH_UNIT (LENGTH_MEASURE( 1.000000000000000082E-05 ), #242, 'distance_accuracy_value', 'NONE');
#217 = FACE_OUTER_BOUND ( 'NONE', #18, .T. ) ;
#218 = DIRECTION ( 'NONE',  ( 0.000000000000000000, -1.000000000000000000, -0.000000000000000000 ) ) ;
#219 = DIMENSIONAL_EXPONENTS ( 1.000000000000000000, 0.000000000000000000, 0.000000000000000000, 0.000000000000000000, 0.000000000000000000, 0.000000000000000000, 0.000000000000000000 ) ;
#220 = COLOUR_RGB ( '',1.000000000000000000, 0.000000000000000000, 0.000000000000000000 ) ;
#221 =( NAMED_UNIT ( * ) PLANE_ANGLE_UNIT ( ) SI_UNIT ( $, .RADIAN. ) );
#222 = ORIENTED_EDGE ( 'NONE', *, *, #134, .T. ) ;
#223 = ORIENTED_EDGE ( 'NONE', *, *, #202, .T. ) ;
#224 = ORIENTED_EDGE ( 'NONE', *, *, #33, .T. ) ;
#225 = STYLED_ITEM ( 'NONE', ( #146 ), #124 ) ;
#226 = LINE ( 'NONE', #208, #308 ) ;
#227 = APPLICATION_CONTEXT ( 'automotive_design' ) ;
#228 = AXIS2_PLACEMENT_3D ( 'NONE', #163, #156, #42 ) ;
#229 = DIRECTION ( 'NONE',  ( -0.000000000000000000, -1.000000000000000000, -0.000000000000000000 ) ) ;
#230 = CARTESIAN_POINT ( 'NONE',  ( 0.000000000000000000, 0.5000000000000000000, 0.000000000000000000 ) ) ;
#231 =( LENGTH_UNIT ( ) NAMED_UNIT ( * ) SI_UNIT ( $, .METRE. ) );
#232 = DIRECTION ( 'NONE',  ( 8.164311994315692567E-17, 1.000000000000000000, -0.000000000000000000 ) ) ;
#233 =( GEOMETRIC_REPRESENTATION_CONTEXT ( 3 ) GLOBAL_UNCERTAINTY_ASSIGNED_CONTEXT ( ( #250 ) ) GLOBAL_UNIT_ASSIGNED_CONTEXT ( ( #290, #309, #76 ) ) REPRESENTATION_CONTEXT ( 'NONE', 'WORKASPACE' ) );
#234 = LINE ( 'NONE', #256, #23 ) ;
#235 = FACE_OUTER_BOUND ( 'NONE', #277, .T. ) ;
#236 = FILL_AREA_STYLE ('',( #200 ) ) ;
#237 = CARTESIAN_POINT ( 'NONE',  ( 0.000000000000000000, 0.000000000000000000, 0.000000000000000000 ) ) ;
#238 = SURFACE_STYLE_FILL_AREA ( #236 ) ;
#239 = AXIS2_PLACEMENT_3D ( 'NONE', #288, #126, #214 ) ;
#240 = PRESENTATION_STYLE_ASSIGNMENT (( #27 ) ) ;
#241 =( LENGTH_UNIT ( ) NAMED_UNIT ( * ) SI_UNIT ( $, .METRE. ) );
#242 =( CONVERSION_BASED_UNIT ( 'INCH', #58 ) LENGTH_UNIT ( ) NAMED_UNIT ( #219 ) );
#243 = STYLED_ITEM ( 'NONE', ( #240 ), #131 ) ;
#244 = DIRECTION ( 'NONE',  ( 0.000000000000000000, 0.000000000000000000, -1.000000000000000000 ) ) ;
#245 = EDGE_LOOP ( 'NONE', ( #222, #299 ) ) ;
#246 = DIMENSIONAL_EXPONENTS ( 1.000000000000000000, 0.000000000000000000, 0.000000000000000000, 0.000000000000000000, 0.000000000000000000, 0.000000000000000000, 0.000000000000000000 ) ;
#247 = VERTEX_POINT ( 'NONE', #283 ) ;
#248 = EDGE_LOOP ( 'NONE', ( #274, #78 ) ) ;
#249 = MECHANICAL_DESIGN_GEOMETRIC_PRESENTATION_REPRESENTATION (  '', ( #121 ), #275 ) ;
#250 = UNCERTAINTY_MEASURE_WITH_UNIT (LENGTH_MEASURE( 1.000000000000000082E-05 ), #290, 'distance_accuracy_value', 'NONE');
#251 = ORIENTED_EDGE ( 'NONE', *, *, #19, .T. ) ;
#252 = UNCERTAINTY_MEASURE_WITH_UNIT (LENGTH_MEASURE( 1.000000000000000082E-05 ), #282, 'distance_accuracy_value', 'NONE');
#253 = CARTESIAN_POINT ( 'NONE',  ( 1.224646799147353700E-16, 2.000000000000000000, 0.000000000000000000 ) ) ;
#254 = AXIS2_PLACEMENT_3D ( 'NONE', #194, #188, #191 ) ;
#255 = CARTESIAN_POINT ( 'NONE',  ( 0.000000000000000000, 0.000000000000000000, 0.000000000000000000 ) ) ;
#256 = CARTESIAN_POINT ( 'NONE',  ( 0.1875000000000000833, 2.000000000000000000, 2.296212748401286493E-17 ) ) ;
#257 = DIRECTION ( 'NONE',  ( -1.000000000000000000, 0.000000000000000000, 0.000000000000000000 ) ) ;
#258 = CARTESIAN_POINT ( 'NONE',  ( 6.248999094424413542E-34, 0.5000000000000000000, 0.000000000000000000 ) ) ;
#259 = ADVANCED_FACE ( 'NONE', ( #280 ), #167, .T. ) ;
#260 = MECHANICAL_DESIGN_GEOMETRIC_PRESENTATION_REPRESENTATION (  '', ( #190 ), #71 ) ;
#261 = LENGTH_MEASURE_WITH_UNIT ( LENGTH_MEASURE( 0.02539999999999999897 ), #231 );
#262 = LENGTH_MEASURE_WITH_UNIT ( LENGTH_MEASURE( 0.02539999999999999897 ), #4 );
#263 = ADVANCED_FACE ( 'NONE', ( #69 ), #22, .F. ) ;
#264 = COLOUR_RGB ( '',1.000000000000000000, 0.000000000000000000, 0.000000000000000000 ) ;
#265 = FILL_AREA_STYLE_COLOUR ( '', #5 ) ;
#266 = FILL_AREA_STYLE ('',( #96 ) ) ;
#267 = CYLINDRICAL_SURFACE ( 'NONE', #239, 0.1875000000000000278 ) ;
#268 = FILL_AREA_STYLE ('',( #195 ) ) ;
#269 = CARTESIAN_POINT ( 'NONE',  ( 0.000000000000000000, 0.000000000000000000, 0.000000000000000000 ) ) ;
#270 = EDGE_CURVE ( 'NONE', #103, #152, #170, .T. ) ;
#271 = ORIENTED_EDGE ( 'NONE', *, *, #105, .T. ) ;
#272 = CARTESIAN_POINT ( 'NONE',  ( 0.000000000000000000, 0.5000000000000000000, 0.000000000000000000 ) ) ;
#273 = APPLICATION_PROTOCOL_DEFINITION ( 'draft international standard', 'automotive_design', 1998, #6 ) ;
#274 = ORIENTED_EDGE ( 'NONE', *, *, #14, .F. ) ;
#275 =( GEOMETRIC_REPRESENTATION_CONTEXT ( 3 ) GLOBAL_UNCERTAINTY_ASSIGNED_CONTEXT ( ( #84 ) ) GLOBAL_UNIT_ASSIGNED_CONTEXT ( ( #53, #221, #120 ) ) REPRESENTATION_CONTEXT ( 'NONE', 'WORKASPACE' ) );
#276 = PRODUCT_DEFINITION_CONTEXT ( 'detailed design', #227, 'design' ) ;
#277 = EDGE_LOOP ( 'NONE', ( #9, #178, #203, #64 ) ) ;
#278 = DIRECTION ( 'NONE',  ( 8.164311994315692567E-17, 1.000000000000000000, -0.000000000000000000 ) ) ;
#279 = SURFACE_STYLE_USAGE ( .BOTH. , #111 ) ;
#280 = FACE_OUTER_BOUND ( 'NONE', #82, .T. ) ;
#281 =( GEOMETRIC_REPRESENTATION_CONTEXT ( 3 ) GLOBAL_UNCERTAINTY_ASSIGNED_CONTEXT ( ( #128 ) ) GLOBAL_UNIT_ASSIGNED_CONTEXT ( ( #148, #101, #57 ) ) REPRESENTATION_CONTEXT ( 'NONE', 'WORKASPACE' ) );
#282 =( CONVERSION_BASED_UNIT ( 'INCH', #261 ) LENGTH_UNIT ( ) NAMED_UNIT ( #102 ) );
#283 = CARTESIAN_POINT ( 'NONE',  ( 0.1875000000000000278, 2.000000000000000000, 2.296212748401286801E-17 ) ) ;
#284 = DIRECTION ( 'NONE',  ( 8.164311994315692567E-17, 1.000000000000000000, -0.000000000000000000 ) ) ;
#285 = ADVANCED_FACE ( 'NONE', ( #235 ), #267, .T. ) ;
#286 = FACE_OUTER_BOUND ( 'NONE', #248, .T. ) ;
#287 = MECHANICAL_DESIGN_GEOMETRIC_PRESENTATION_REPRESENTATION (  '', ( #243 ), #135 ) ;
#288 = CARTESIAN_POINT ( 'NONE',  ( 0.000000000000000000, 0.000000000000000000, 0.000000000000000000 ) ) ;
#289 = SURFACE_STYLE_USAGE ( .BOTH. , #130 ) ;
#290 =( CONVERSION_BASED_UNIT ( 'INCH', #51 ) LENGTH_UNIT ( ) NAMED_UNIT ( #183 ) );
#291 = CIRCLE ( 'NONE', #44, 0.1874999999999998890 ) ;
#292 =( NAMED_UNIT ( * ) SI_UNIT ( $, .STERADIAN. ) SOLID_ANGLE_UNIT ( ) );
#293 = SURFACE_SIDE_STYLE ('',( #238 ) ) ;
#294 = FILL_AREA_STYLE ('',( #265 ) ) ;
#295 = EDGE_CURVE ( 'NONE', #247, #152, #50, .T. ) ;
#296 = VERTEX_POINT ( 'NONE', #172 ) ;
#297 = SURFACE_STYLE_FILL_AREA ( #268 ) ;
#298 = ORIENTED_EDGE ( 'NONE', *, *, #19, .F. ) ;
#299 = ORIENTED_EDGE ( 'NONE', *, *, #295, .T. ) ;
#300 = MECHANICAL_DESIGN_GEOMETRIC_PRESENTATION_REPRESENTATION (  '', ( #185 ), #173 ) ;
#301 = DIRECTION ( 'NONE',  ( 0.000000000000000000, 1.000000000000000000, 0.000000000000000000 ) ) ;
#302 = ADVANCED_FACE ( 'NONE', ( #217 ), #73, .T. ) ;
#303 = SURFACE_STYLE_USAGE ( .BOTH. , #207 ) ;
#304 = DIRECTION ( 'NONE',  ( -0.000000000000000000, -1.000000000000000000, -0.000000000000000000 ) ) ;
#305 = PLANE ( 'NONE',  #197 ) ;
#306 = DIRECTION ( 'NONE',  ( 1.000000000000000000, -8.164311994315692567E-17, 0.000000000000000000 ) ) ;
#307 = DIRECTION ( 'NONE',  ( -0.000000000000000000, -1.000000000000000000, -0.000000000000000000 ) ) ;
#308 = VECTOR ( 'NONE', #144, 39.37007874015748143 ) ;
#309 =( NAMED_UNIT ( * ) PLANE_ANGLE_UNIT ( ) SI_UNIT ( $, .RADIAN. ) );
ENDSEC;
END-ISO-10303-21;
