ISO-10303-21;
HEADER;
FILE_DESCRIPTION (( 'STEP AP214' ),
    '1' );
FILE_NAME ('83824.STEP',
    '2023-07-05T16:12:48',
    ( '' ),
    ( '' ),
    'SwSTEP 2.0',
    'SolidWorks 2023',
    '' );
FILE_SCHEMA (( 'AUTOMOTIVE_DESIGN' ));
ENDSEC;

DATA;
#1 = VERTEX_POINT ( 'NONE', #152 ) ;
#2 = CIRCLE ( 'NONE', #26, 0.1249999999999997780 ) ;
#3 = FACE_OUTER_BOUND ( 'NONE', #114, .T. ) ;
#4 = UNCERTAINTY_MEASURE_WITH_UNIT (LENGTH_MEASURE( 1.000000000000000082E-05 ), #67, 'distance_accuracy_value', 'NONE');
#5 = FACE_OUTER_BOUND ( 'NONE', #261, .T. ) ;
#6 = EDGE_CURVE ( 'NONE', #53, #193, #94, .T. ) ;
#7 = SURFACE_SIDE_STYLE ('',( #127 ) ) ;
#8 = CARTESIAN_POINT ( 'NONE',  ( 0.000000000000000000, 0.000000000000000000, 0.000000000000000000 ) ) ;
#9 = DIRECTION ( 'NONE',  ( -1.219197302182064860E-16, 1.000000000000000000, 0.000000000000000000 ) ) ;
#10 = EDGE_LOOP ( 'NONE', ( #149, #170 ) ) ;
#11 =( CONVERSION_BASED_UNIT ( 'INCH', #57 ) LENGTH_UNIT ( ) NAMED_UNIT ( #205 ) );
#12 = EDGE_LOOP ( 'NONE', ( #13, #133 ) ) ;
#13 = ORIENTED_EDGE ( 'NONE', *, *, #222, .F. ) ;
#14 = LENGTH_MEASURE_WITH_UNIT ( LENGTH_MEASURE( 0.02539999999999999897 ), #151 );
#15 = CARTESIAN_POINT ( 'NONE',  ( 0.000000000000000000, 0.000000000000000000, 0.000000000000000000 ) ) ;
#16 = FILL_AREA_STYLE_COLOUR ( '', #52 ) ;
#17 = APPLICATION_CONTEXT ( 'automotive_design' ) ;
#18 =( LENGTH_UNIT ( ) NAMED_UNIT ( * ) SI_UNIT ( $, .METRE. ) );
#19 = MECHANICAL_DESIGN_GEOMETRIC_PRESENTATION_REPRESENTATION (  '', ( #140 ), #242 ) ;
#20 = PRESENTATION_LAYER_ASSIGNMENT (  '', '', ( #140 ) ) ;
#21 = AXIS2_PLACEMENT_3D ( 'NONE', #163, #204, #124 ) ;
#22 = CARTESIAN_POINT ( 'NONE',  ( 4.293416708872923422E-16, 39.37007874015748143, 0.000000000000000000 ) ) ;
#23 = MANIFOLD_SOLID_BREP ( 'Revolve - Tool Body (Pointed)', #231 ) ;
#24 = DIRECTION ( 'NONE',  ( -1.219197302182064860E-16, 1.000000000000000000, -0.000000000000000000 ) ) ;
#25 = DIMENSIONAL_EXPONENTS ( 1.000000000000000000, 0.000000000000000000, 0.000000000000000000, 0.000000000000000000, 0.000000000000000000, 0.000000000000000000, 0.000000000000000000 ) ;
#26 = AXIS2_PLACEMENT_3D ( 'NONE', #146, #188, #84 ) ;
#27 = DIMENSIONAL_EXPONENTS ( 1.000000000000000000, 0.000000000000000000, 0.000000000000000000, 0.000000000000000000, 0.000000000000000000, 0.000000000000000000, 0.000000000000000000 ) ;
#28 = FILL_AREA_STYLE ('',( #208 ) ) ;
#29 = ORIENTED_EDGE ( 'NONE', *, *, #103, .F. ) ;
#30 = VECTOR ( 'NONE', #137, 39.37007874015748854 ) ;
#31 =( GEOMETRIC_REPRESENTATION_CONTEXT ( 3 ) GLOBAL_UNCERTAINTY_ASSIGNED_CONTEXT ( ( #110 ) ) GLOBAL_UNIT_ASSIGNED_CONTEXT ( ( #263, #221, #244 ) ) REPRESENTATION_CONTEXT ( 'NONE', 'WORKASPACE' ) );
#32 = DIRECTION ( 'NONE',  ( 0.000000000000000000, 0.000000000000000000, 1.000000000000000000 ) ) ;
#33 = DIRECTION ( 'NONE',  ( -1.000000000000000000, 0.000000000000000000, 0.000000000000000000 ) ) ;
#34 = CARTESIAN_POINT ( 'NONE',  ( 0.1249999999999999861, 2.500000000000000000, 1.530808498934191201E-17 ) ) ;
#35 =( NAMED_UNIT ( * ) PLANE_ANGLE_UNIT ( ) SI_UNIT ( $, .RADIAN. ) );
#36 = ORIENTED_EDGE ( 'NONE', *, *, #103, .T. ) ;
#37 = VECTOR ( 'NONE', #76, 39.37007874015748143 ) ;
#38 = CARTESIAN_POINT ( 'NONE',  ( -0.1249999999999995420, 0.07216878364870270290, 0.000000000000000000 ) ) ;
#39 = EDGE_CURVE ( 'NONE', #255, #193, #217, .T. ) ;
#40 = CARTESIAN_POINT ( 'NONE',  ( 7.870206804039943619E-19, 0.07216878364870282780, 0.000000000000000000 ) ) ;
#41 = LENGTH_MEASURE_WITH_UNIT ( LENGTH_MEASURE( 0.02539999999999999897 ), #18 );
#42 = AXIS2_PLACEMENT_3D ( 'NONE', #209, #32, #54 ) ;
#43 = FILL_AREA_STYLE ('',( #240 ) ) ;
#44 = EDGE_CURVE ( 'NONE', #53, #116, #99, .T. ) ;
#45 = CARTESIAN_POINT ( 'NONE',  ( -6.123233995736766036E-17, 2.500000000000000000, 0.000000000000000000 ) ) ;
#46 = STYLED_ITEM ( 'NONE', ( #105 ), #235 ) ;
#47 = EDGE_CURVE ( 'NONE', #78, #252, #238, .T. ) ;
#48 = PRESENTATION_STYLE_ASSIGNMENT (( #206 ) ) ;
#49 = LENGTH_MEASURE_WITH_UNIT ( LENGTH_MEASURE( 0.02539999999999999897 ), #189 );
#50 = DIMENSIONAL_EXPONENTS ( 1.000000000000000000, 0.000000000000000000, 0.000000000000000000, 0.000000000000000000, 0.000000000000000000, 0.000000000000000000, 0.000000000000000000 ) ;
#51 = CYLINDRICAL_SURFACE ( 'NONE', #236, 0.1249999999999999167 ) ;
#52 = COLOUR_RGB ( '',0.7921568627450980005, 0.8196078431372548767, 0.9333333333333333481 ) ;
#53 = VERTEX_POINT ( 'NONE', #38 ) ;
#54 = DIRECTION ( 'NONE',  ( 1.000000000000000000, 0.000000000000000000, 0.000000000000000000 ) ) ;
#55 = COLOUR_RGB ( '',1.000000000000000000, 0.000000000000000000, 0.000000000000000000 ) ;
#56 = SURFACE_STYLE_FILL_AREA ( #173 ) ;
#57 = LENGTH_MEASURE_WITH_UNIT ( LENGTH_MEASURE( 0.02539999999999999897 ), #93 );
#58 = CARTESIAN_POINT ( 'NONE',  ( 0.000000000000000000, 0.000000000000000000, 0.000000000000000000 ) ) ;
#59 = PRESENTATION_LAYER_ASSIGNMENT (  '', '', ( #46 ) ) ;
#60 = PRESENTATION_STYLE_ASSIGNMENT (( #176 ) ) ;
#61 = PLANE ( 'NONE',  #187 ) ;
#62 = DIRECTION ( 'NONE',  ( 1.219197302182064860E-16, -1.000000000000000000, 0.000000000000000000 ) ) ;
#63 = DIRECTION ( 'NONE',  ( 1.000000000000000000, 0.000000000000000000, 0.000000000000000000 ) ) ;
#64 = AXIS2_PLACEMENT_3D ( 'NONE', #45, #85, #251 ) ;
#65 = DIRECTION ( 'NONE',  ( 1.090527844053722473E-17, 1.000000000000000000, 0.000000000000000000 ) ) ;
#66 = SURFACE_SIDE_STYLE ('',( #143 ) ) ;
#67 =( CONVERSION_BASED_UNIT ( 'INCH', #164 ) LENGTH_UNIT ( ) NAMED_UNIT ( #50 ) );
#68 = PRODUCT_DEFINITION_CONTEXT ( 'detailed design', #17, 'design' ) ;
#69 = ORIENTED_EDGE ( 'NONE', *, *, #6, .T. ) ;
#70 =( GEOMETRIC_REPRESENTATION_CONTEXT ( 3 ) GLOBAL_UNCERTAINTY_ASSIGNED_CONTEXT ( ( #75 ) ) GLOBAL_UNIT_ASSIGNED_CONTEXT ( ( #126, #109, #112 ) ) REPRESENTATION_CONTEXT ( 'NONE', 'WORKASPACE' ) );
#71 = DIRECTION ( 'NONE',  ( 1.090527844053722473E-17, 1.000000000000000000, 0.000000000000000000 ) ) ;
#72 = EDGE_LOOP ( 'NONE', ( #237, #260 ) ) ;
#73 = SURFACE_SIDE_STYLE ('',( #56 ) ) ;
#74 = ADVANCED_FACE ( 'NONE', ( #190 ), #159, .T. ) ;
#75 = UNCERTAINTY_MEASURE_WITH_UNIT (LENGTH_MEASURE( 1.000000000000000082E-05 ), #126, 'distance_accuracy_value', 'NONE');
#76 = DIRECTION ( 'NONE',  ( -1.219197302182064860E-16, 1.000000000000000000, -0.000000000000000000 ) ) ;
#77 =( CONVERSION_BASED_UNIT ( 'INCH', #14 ) LENGTH_UNIT ( ) NAMED_UNIT ( #25 ) );
#78 = VERTEX_POINT ( 'NONE', #15 ) ;
#79 = FILL_AREA_STYLE ('',( #16 ) ) ;
#80 =( GEOMETRIC_REPRESENTATION_CONTEXT ( 3 ) GLOBAL_UNCERTAINTY_ASSIGNED_CONTEXT ( ( #230 ) ) GLOBAL_UNIT_ASSIGNED_CONTEXT ( ( #77, #129, #96 ) ) REPRESENTATION_CONTEXT ( 'NONE', 'WORKASPACE' ) );
#81 = SURFACE_SIDE_STYLE ('',( #225 ) ) ;
#82 = ORIENTED_EDGE ( 'NONE', *, *, #44, .T. ) ;
#83 = PLANE ( 'NONE',  #207 ) ;
#84 = DIRECTION ( 'NONE',  ( -1.000000000000000000, -1.365923996832134074E-16, 0.000000000000000000 ) ) ;
#85 = DIRECTION ( 'NONE',  ( -1.219197302182064860E-16, 1.000000000000000000, -0.000000000000000000 ) ) ;
#86 = LINE ( 'NONE', #8, #177 ) ;
#87 =( NAMED_UNIT ( * ) SI_UNIT ( $, .STERADIAN. ) SOLID_ANGLE_UNIT ( ) );
#88 = APPLICATION_PROTOCOL_DEFINITION ( 'draft international standard', 'automotive_design', 1998, #17 ) ;
#89 = ORIENTED_EDGE ( 'NONE', *, *, #183, .F. ) ;
#90 = EDGE_CURVE ( 'NONE', #1, #252, #111, .T. ) ;
#91 = DIMENSIONAL_EXPONENTS ( 1.000000000000000000, 0.000000000000000000, 0.000000000000000000, 0.000000000000000000, 0.000000000000000000, 0.000000000000000000, 0.000000000000000000 ) ;
#92 = DIRECTION ( 'NONE',  ( -1.219197302182064860E-16, 1.000000000000000000, -0.000000000000000000 ) ) ;
#93 =( LENGTH_UNIT ( ) NAMED_UNIT ( * ) SI_UNIT ( $, .METRE. ) );
#94 = LINE ( 'NONE', #194, #37 ) ;
#95 = COLOUR_RGB ( '',1.000000000000000000, 0.000000000000000000, 0.000000000000000000 ) ;
#96 =( NAMED_UNIT ( * ) SI_UNIT ( $, .STERADIAN. ) SOLID_ANGLE_UNIT ( ) );
#97 = CARTESIAN_POINT ( 'NONE',  ( -6.123233995736766036E-17, 2.500000000000000000, 0.000000000000000000 ) ) ;
#98 = LINE ( 'NONE', #196, #247 ) ;
#99 = CIRCLE ( 'NONE', #167, 0.1249999999999997780 ) ;
#100 = CARTESIAN_POINT ( 'NONE',  ( 0.1250000000000000278, 0.07216878364870273066, 1.530808498934191201E-17 ) ) ;
#101 = ORIENTED_EDGE ( 'NONE', *, *, #6, .F. ) ;
#102 = AXIS2_PLACEMENT_3D ( 'NONE', #97, #92, #33 ) ;
#103 = EDGE_CURVE ( 'NONE', #116, #255, #98, .T. ) ;
#104 = DIRECTION ( 'NONE',  ( 0.8660254037844397068, 0.4999999999999979461, 1.060575238724908024E-16 ) ) ;
#105 = PRESENTATION_STYLE_ASSIGNMENT (( #227 ) ) ;
#106 = MANIFOLD_SOLID_BREP ( 'Revolve - Cutting Edge', #168 ) ;
#107 = CARTESIAN_POINT ( 'NONE',  ( 7.870206804039943619E-19, 0.07216878364870282780, 0.000000000000000000 ) ) ;
#108 = PRODUCT_DEFINITION_FORMATION_WITH_SPECIFIED_SOURCE ( 'ANY', '', #234, .NOT_KNOWN. ) ;
#109 =( NAMED_UNIT ( * ) PLANE_ANGLE_UNIT ( ) SI_UNIT ( $, .RADIAN. ) );
#110 = UNCERTAINTY_MEASURE_WITH_UNIT (LENGTH_MEASURE( 1.000000000000000082E-05 ), #263, 'distance_accuracy_value', 'NONE');
#111 = CIRCLE ( 'NONE', #232, 0.1249999999999999861 ) ;
#112 =( NAMED_UNIT ( * ) SI_UNIT ( $, .STERADIAN. ) SOLID_ANGLE_UNIT ( ) );
#113 = FILL_AREA_STYLE_COLOUR ( '', #181 ) ;
#114 = EDGE_LOOP ( 'NONE', ( #82, #36, #257, #101 ) ) ;
#115 = FACE_OUTER_BOUND ( 'NONE', #72, .T. ) ;
#116 = VERTEX_POINT ( 'NONE', #100 ) ;
#117 = CONICAL_SURFACE ( 'NONE', #21, 68.19097667594041923, 1.047197551196600074 ) ;
#118 = SURFACE_STYLE_FILL_AREA ( #43 ) ;
#119 = DIRECTION ( 'NONE',  ( -1.219197302182064860E-16, 1.000000000000000000, -0.000000000000000000 ) ) ;
#120 = CARTESIAN_POINT ( 'NONE',  ( 0.1250000000000000000, 2.500000000000000000, 0.000000000000000000 ) ) ;
#121 = AXIS2_PLACEMENT_3D ( 'NONE', #22, #71, #131 ) ;
#122 =( NAMED_UNIT ( * ) SI_UNIT ( $, .STERADIAN. ) SOLID_ANGLE_UNIT ( ) );
#123 = DIRECTION ( 'NONE',  ( 1.000000000000000000, 1.219197302182064860E-16, 0.000000000000000000 ) ) ;
#124 = DIRECTION ( 'NONE',  ( -1.000000000000000000, 0.000000000000000000, 0.000000000000000000 ) ) ;
#125 =( GEOMETRIC_REPRESENTATION_CONTEXT ( 3 ) GLOBAL_UNCERTAINTY_ASSIGNED_CONTEXT ( ( #4 ) ) GLOBAL_UNIT_ASSIGNED_CONTEXT ( ( #67, #165, #87 ) ) REPRESENTATION_CONTEXT ( 'NONE', 'WORKASPACE' ) );
#126 =( CONVERSION_BASED_UNIT ( 'INCH', #49 ) LENGTH_UNIT ( ) NAMED_UNIT ( #248 ) );
#127 = SURFACE_STYLE_FILL_AREA ( #229 ) ;
#128 = CARTESIAN_POINT ( 'NONE',  ( -6.123233995736766036E-17, 2.500000000000000000, 0.000000000000000000 ) ) ;
#129 =( NAMED_UNIT ( * ) PLANE_ANGLE_UNIT ( ) SI_UNIT ( $, .RADIAN. ) );
#130 = ADVANCED_FACE ( 'NONE', ( #178 ), #61, .F. ) ;
#131 = DIRECTION ( 'NONE',  ( -1.000000000000000000, 0.000000000000000000, 0.000000000000000000 ) ) ;
#132 = CIRCLE ( 'NONE', #64, 0.1250000000000000555 ) ;
#133 = ORIENTED_EDGE ( 'NONE', *, *, #90, .F. ) ;
#134 = ADVANCED_BREP_SHAPE_REPRESENTATION ( '83824', ( #106, #23, #42 ), #80 ) ;
#135 = EDGE_LOOP ( 'NONE', ( #29, #150, #69, #216 ) ) ;
#136 = ORIENTED_EDGE ( 'NONE', *, *, #47, .T. ) ;
#137 = DIRECTION ( 'NONE',  ( -0.8660254037844397068, 0.4999999999999979461, 0.000000000000000000 ) ) ;
#138 = COLOUR_RGB ( '',1.000000000000000000, 0.000000000000000000, 0.000000000000000000 ) ;
#139 = DIRECTION ( 'NONE',  ( -1.219197302182064860E-16, 1.000000000000000000, -0.000000000000000000 ) ) ;
#140 = STYLED_ITEM ( 'NONE', ( #254 ), #23 ) ;
#141 = PRESENTATION_LAYER_ASSIGNMENT (  '', '', ( #239 ) ) ;
#142 = DIRECTION ( 'NONE',  ( -1.000000000000000000, 0.000000000000000000, 0.000000000000000000 ) ) ;
#143 = SURFACE_STYLE_FILL_AREA ( #28 ) ;
#144 = AXIS2_PLACEMENT_3D ( 'NONE', #195, #119, #142 ) ;
#145 = MECHANICAL_DESIGN_GEOMETRIC_PRESENTATION_REPRESENTATION (  '', ( #46 ), #70 ) ;
#146 = CARTESIAN_POINT ( 'NONE',  ( 2.347681869555226296E-16, 0.07216878364870271678, 0.000000000000000000 ) ) ;
#147 = SURFACE_STYLE_USAGE ( .BOTH. , #73 ) ;
#148 = CARTESIAN_POINT ( 'NONE',  ( 2.347681869555226296E-16, 0.07216878364870282780, 0.000000000000000000 ) ) ;
#149 = ORIENTED_EDGE ( 'NONE', *, *, #184, .T. ) ;
#150 = ORIENTED_EDGE ( 'NONE', *, *, #199, .T. ) ;
#151 =( LENGTH_UNIT ( ) NAMED_UNIT ( * ) SI_UNIT ( $, .METRE. ) );
#152 = CARTESIAN_POINT ( 'NONE',  ( 0.1250000000000000000, 0.07216878364870282780, 1.530808498934191509E-17 ) ) ;
#153 = DIRECTION ( 'NONE',  ( -1.000000000000000000, -1.365923996832134074E-16, 0.000000000000000000 ) ) ;
#154 = FACE_OUTER_BOUND ( 'NONE', #12, .T. ) ;
#155 = CIRCLE ( 'NONE', #211, 0.1249999999999999861 ) ;
#156 = ADVANCED_FACE ( 'NONE', ( #154 ), #83, .T. ) ;
#157 = APPLICATION_CONTEXT ( 'automotive_design' ) ;
#158 = SURFACE_STYLE_USAGE ( .BOTH. , #224 ) ;
#159 = CYLINDRICAL_SURFACE ( 'NONE', #144, 0.1249999999999999167 ) ;
#160 = DIRECTION ( 'NONE',  ( -1.000000000000000000, 1.090527844053722473E-17, 0.000000000000000000 ) ) ;
#161 = PRODUCT_DEFINITION ( 'UNKNOWN', '', #108, #68 ) ;
#162 = MECHANICAL_DESIGN_GEOMETRIC_PRESENTATION_REPRESENTATION (  '', ( #239 ), #125 ) ;
#163 = CARTESIAN_POINT ( 'NONE',  ( 4.293416708872923422E-16, 39.37007874015748143, 0.000000000000000000 ) ) ;
#164 = LENGTH_MEASURE_WITH_UNIT ( LENGTH_MEASURE( 0.02539999999999999897 ), #186 );
#165 =( NAMED_UNIT ( * ) PLANE_ANGLE_UNIT ( ) SI_UNIT ( $, .RADIAN. ) );
#166 = ORIENTED_EDGE ( 'NONE', *, *, #183, .T. ) ;
#167 = AXIS2_PLACEMENT_3D ( 'NONE', #215, #174, #153 ) ;
#168 = CLOSED_SHELL ( 'NONE', ( #203, #156, #235 ) ) ;
#169 = AXIS2_PLACEMENT_3D ( 'NONE', #148, #9, #259 ) ;
#170 = ORIENTED_EDGE ( 'NONE', *, *, #39, .T. ) ;
#171 = EDGE_LOOP ( 'NONE', ( #172, #166, #179 ) ) ;
#172 = ORIENTED_EDGE ( 'NONE', *, *, #47, .F. ) ;
#173 = FILL_AREA_STYLE ('',( #113 ) ) ;
#174 = DIRECTION ( 'NONE',  ( -1.219197302182064860E-16, 1.000000000000000000, -0.000000000000000000 ) ) ;
#175 =( LENGTH_UNIT ( ) NAMED_UNIT ( * ) SI_UNIT ( $, .METRE. ) );
#176 = SURFACE_STYLE_USAGE ( .BOTH. , #81 ) ;
#177 = VECTOR ( 'NONE', #104, 39.37007874015748854 ) ;
#178 = FACE_OUTER_BOUND ( 'NONE', #10, .T. ) ;
#179 = ORIENTED_EDGE ( 'NONE', *, *, #90, .T. ) ;
#180 = DIRECTION ( 'NONE',  ( 1.000000000000000000, 0.000000000000000000, 0.000000000000000000 ) ) ;
#181 = COLOUR_RGB ( '',0.7921568627450980005, 0.8196078431372548767, 0.9333333333333333481 ) ;
#182 = DIRECTION ( 'NONE',  ( -1.000000000000000000, 0.000000000000000000, 0.000000000000000000 ) ) ;
#183 = EDGE_CURVE ( 'NONE', #78, #1, #86, .T. ) ;
#184 = EDGE_CURVE ( 'NONE', #193, #255, #132, .T. ) ;
#185 = CARTESIAN_POINT ( 'NONE',  ( -0.1250000000000001388, 2.500000000000000000, 0.000000000000000000 ) ) ;
#186 =( LENGTH_UNIT ( ) NAMED_UNIT ( * ) SI_UNIT ( $, .METRE. ) );
#187 = AXIS2_PLACEMENT_3D ( 'NONE', #120, #62, #123 ) ;
#188 = DIRECTION ( 'NONE',  ( -1.219197302182064860E-16, 1.000000000000000000, -0.000000000000000000 ) ) ;
#189 =( LENGTH_UNIT ( ) NAMED_UNIT ( * ) SI_UNIT ( $, .METRE. ) );
#190 = FACE_OUTER_BOUND ( 'NONE', #135, .T. ) ;
#191 = PRESENTATION_LAYER_ASSIGNMENT (  '', '', ( #228 ) ) ;
#192 = APPLICATION_PROTOCOL_DEFINITION ( 'draft international standard', 'automotive_design', 1998, #157 ) ;
#193 = VERTEX_POINT ( 'NONE', #185 ) ;
#194 = CARTESIAN_POINT ( 'NONE',  ( -0.1249999999999999861, 2.500000000000000000, 0.000000000000000000 ) ) ;
#195 = CARTESIAN_POINT ( 'NONE',  ( -6.123233995736766036E-17, 2.500000000000000000, 0.000000000000000000 ) ) ;
#196 = CARTESIAN_POINT ( 'NONE',  ( 0.1249999999999998473, 2.500000000000000000, 1.530808498934190276E-17 ) ) ;
#197 =( CONVERSION_BASED_UNIT ( 'INCH', #41 ) LENGTH_UNIT ( ) NAMED_UNIT ( #27 ) );
#198 =( GEOMETRIC_REPRESENTATION_CONTEXT ( 3 ) GLOBAL_UNCERTAINTY_ASSIGNED_CONTEXT ( ( #226 ) ) GLOBAL_UNIT_ASSIGNED_CONTEXT ( ( #197, #223, #122 ) ) REPRESENTATION_CONTEXT ( 'NONE', 'WORKASPACE' ) );
#199 = EDGE_CURVE ( 'NONE', #116, #53, #2, .T. ) ;
#200 = LENGTH_MEASURE_WITH_UNIT ( LENGTH_MEASURE( 0.02539999999999999897 ), #175 );
#201 = STYLED_ITEM ( 'NONE', ( #243 ), #156 ) ;
#202 = MECHANICAL_DESIGN_GEOMETRIC_PRESENTATION_REPRESENTATION (  '', ( #228 ), #31 ) ;
#203 = ADVANCED_FACE ( 'NONE', ( #249 ), #117, .T. ) ;
#204 = DIRECTION ( 'NONE',  ( 1.090527844053722473E-17, 1.000000000000000000, 0.000000000000000000 ) ) ;
#205 = DIMENSIONAL_EXPONENTS ( 1.000000000000000000, 0.000000000000000000, 0.000000000000000000, 0.000000000000000000, 0.000000000000000000, 0.000000000000000000, 0.000000000000000000 ) ;
#206 = SURFACE_STYLE_USAGE ( .BOTH. , #7 ) ;
#207 = AXIS2_PLACEMENT_3D ( 'NONE', #241, #65, #160 ) ;
#208 = FILL_AREA_STYLE_COLOUR ( '', #55 ) ;
#209 = CARTESIAN_POINT ( 'NONE',  ( 0.000000000000000000, 0.000000000000000000, 0.000000000000000000 ) ) ;
#210 = PRODUCT_RELATED_PRODUCT_CATEGORY ( 'part', '', ( #234 ) ) ;
#211 = AXIS2_PLACEMENT_3D ( 'NONE', #107, #245, #63 ) ;
#212 = ADVANCED_FACE ( 'NONE', ( #3 ), #51, .T. ) ;
#213 =( NAMED_UNIT ( * ) SI_UNIT ( $, .STERADIAN. ) SOLID_ANGLE_UNIT ( ) );
#214 = CARTESIAN_POINT ( 'NONE',  ( -0.1250000000000000000, 0.07216878364870282780, 0.000000000000000000 ) ) ;
#215 = CARTESIAN_POINT ( 'NONE',  ( 2.347681869555226296E-16, 0.07216878364870271678, 0.000000000000000000 ) ) ;
#216 = ORIENTED_EDGE ( 'NONE', *, *, #39, .F. ) ;
#217 = CIRCLE ( 'NONE', #102, 0.1250000000000000555 ) ;
#218 = CONICAL_SURFACE ( 'NONE', #121, 68.19097667594041923, 1.047197551196600074 ) ;
#219 = PRODUCT_DEFINITION_SHAPE ( 'NONE', 'NONE',  #161 ) ;
#220 = ORIENTED_EDGE ( 'NONE', *, *, #222, .T. ) ;
#221 =( NAMED_UNIT ( * ) PLANE_ANGLE_UNIT ( ) SI_UNIT ( $, .RADIAN. ) );
#222 = EDGE_CURVE ( 'NONE', #252, #1, #155, .T. ) ;
#223 =( NAMED_UNIT ( * ) PLANE_ANGLE_UNIT ( ) SI_UNIT ( $, .RADIAN. ) );
#224 = SURFACE_SIDE_STYLE ('',( #118 ) ) ;
#225 = SURFACE_STYLE_FILL_AREA ( #79 ) ;
#226 = UNCERTAINTY_MEASURE_WITH_UNIT (LENGTH_MEASURE( 1.000000000000000082E-05 ), #197, 'distance_accuracy_value', 'NONE');
#227 = SURFACE_STYLE_USAGE ( .BOTH. , #66 ) ;
#228 = STYLED_ITEM ( 'NONE', ( #60 ), #106 ) ;
#229 = FILL_AREA_STYLE ('',( #246 ) ) ;
#230 = UNCERTAINTY_MEASURE_WITH_UNIT (LENGTH_MEASURE( 1.000000000000000082E-05 ), #77, 'distance_accuracy_value', 'NONE');
#231 = CLOSED_SHELL ( 'NONE', ( #212, #264, #74, #130 ) ) ;
#232 = AXIS2_PLACEMENT_3D ( 'NONE', #40, #265, #180 ) ;
#233 = SHAPE_DEFINITION_REPRESENTATION ( #219, #134 ) ;
#234 = PRODUCT ( '83824', '83824', '', ( #256 ) ) ;
#235 = ADVANCED_FACE ( 'NONE', ( #5 ), #218, .T. ) ;
#236 = AXIS2_PLACEMENT_3D ( 'NONE', #128, #24, #182 ) ;
#237 = ORIENTED_EDGE ( 'NONE', *, *, #44, .F. ) ;
#238 = LINE ( 'NONE', #58, #30 ) ;
#239 = STYLED_ITEM ( 'NONE', ( #48 ), #203 ) ;
#240 = FILL_AREA_STYLE_COLOUR ( '', #95 ) ;
#241 = CARTESIAN_POINT ( 'NONE',  ( 7.870206804039943619E-19, 0.07216878364870282780, 0.000000000000000000 ) ) ;
#242 =( GEOMETRIC_REPRESENTATION_CONTEXT ( 3 ) GLOBAL_UNCERTAINTY_ASSIGNED_CONTEXT ( ( #250 ) ) GLOBAL_UNIT_ASSIGNED_CONTEXT ( ( #11, #35, #213 ) ) REPRESENTATION_CONTEXT ( 'NONE', 'WORKASPACE' ) );
#243 = PRESENTATION_STYLE_ASSIGNMENT (( #158 ) ) ;
#244 =( NAMED_UNIT ( * ) SI_UNIT ( $, .STERADIAN. ) SOLID_ANGLE_UNIT ( ) );
#245 = DIRECTION ( 'NONE',  ( -1.090527844053722473E-17, -1.000000000000000000, -0.000000000000000000 ) ) ;
#246 = FILL_AREA_STYLE_COLOUR ( '', #138 ) ;
#247 = VECTOR ( 'NONE', #139, 39.37007874015748143 ) ;
#248 = DIMENSIONAL_EXPONENTS ( 1.000000000000000000, 0.000000000000000000, 0.000000000000000000, 0.000000000000000000, 0.000000000000000000, 0.000000000000000000, 0.000000000000000000 ) ;
#249 = FACE_OUTER_BOUND ( 'NONE', #171, .T. ) ;
#250 = UNCERTAINTY_MEASURE_WITH_UNIT (LENGTH_MEASURE( 1.000000000000000082E-05 ), #11, 'distance_accuracy_value', 'NONE');
#251 = DIRECTION ( 'NONE',  ( -1.000000000000000000, 0.000000000000000000, 0.000000000000000000 ) ) ;
#252 = VERTEX_POINT ( 'NONE', #214 ) ;
#253 = PLANE ( 'NONE',  #169 ) ;
#254 = PRESENTATION_STYLE_ASSIGNMENT (( #147 ) ) ;
#255 = VERTEX_POINT ( 'NONE', #34 ) ;
#256 = PRODUCT_CONTEXT ( 'NONE', #157, 'mechanical' ) ;
#257 = ORIENTED_EDGE ( 'NONE', *, *, #184, .F. ) ;
#258 = PRESENTATION_LAYER_ASSIGNMENT (  '', '', ( #201 ) ) ;
#259 = DIRECTION ( 'NONE',  ( -1.000000000000000000, -1.219197302182064860E-16, 0.000000000000000000 ) ) ;
#260 = ORIENTED_EDGE ( 'NONE', *, *, #199, .F. ) ;
#261 = EDGE_LOOP ( 'NONE', ( #89, #136, #220 ) ) ;
#262 = MECHANICAL_DESIGN_GEOMETRIC_PRESENTATION_REPRESENTATION (  '', ( #201 ), #198 ) ;
#263 =( CONVERSION_BASED_UNIT ( 'INCH', #200 ) LENGTH_UNIT ( ) NAMED_UNIT ( #91 ) );
#264 = ADVANCED_FACE ( 'NONE', ( #115 ), #253, .F. ) ;
#265 = DIRECTION ( 'NONE',  ( -1.090527844053722473E-17, -1.000000000000000000, -0.000000000000000000 ) ) ;
ENDSEC;
END-ISO-10303-21;
