ISO-10303-21;
HEADER;
FILE_DESCRIPTION (( 'STEP AP214' ),
    '1' );
FILE_NAME ('Micro_BMR-030-2X.STEP',
    '2021-09-03T14:03:16',
    ( '' ),
    ( '' ),
    'SwSTEP 2.0',
    'SolidWorks 2020',
    '' );
FILE_SCHEMA (( 'AUTOMOTIVE_DESIGN' ));
ENDSEC;

DATA;
#1 = CARTESIAN_POINT ( 'NONE',  ( 1.102182119232618065E-17, 0.0000000000000000000, 0.08999999999999999667 ) ) ;
#2 = EDGE_LOOP ( 'NONE', ( #207, #53, #19, #152 ) ) ;
#3 = AXIS2_PLACEMENT_3D ( 'NONE', #109, #197, #46 ) ;
#4 = VERTEX_POINT ( 'NONE', #125 ) ;
#5 = EDGE_CURVE ( 'NONE', #304, #226, #255, .T. ) ;
#6 = FILL_AREA_STYLE_COLOUR ( '', #143 ) ;
#7 = DIRECTION ( 'NONE',  ( 0.0000000000000000000, -1.000000000000000000, 0.0000000000000000000 ) ) ;
#8 = EDGE_CURVE ( 'NONE', #203, #154, #129, .T. ) ;
#9 =( LENGTH_UNIT ( ) NAMED_UNIT ( * ) SI_UNIT ( $, .METRE. ) );
#10 = CONICAL_SURFACE ( 'NONE', #224, 0.01498500000000000006, 0.1745329251994338915 ) ;
#11 = CARTESIAN_POINT ( 'NONE',  ( 1.102182119232618065E-17, 0.0000000000000000000, 0.08999999999999999667 ) ) ;
#12 = CARTESIAN_POINT ( 'NONE',  ( 0.01498500000000000006, 1.835133228522308816E-18, -1.835133228522309201E-18 ) ) ;
#13 =( NAMED_UNIT ( * ) SI_UNIT ( $, .STERADIAN. ) SOLID_ANGLE_UNIT ( ) );
#14 = DIMENSIONAL_EXPONENTS ( 1.000000000000000000, 0.0000000000000000000, 0.0000000000000000000, 0.0000000000000000000, 0.0000000000000000000, 0.0000000000000000000, 0.0000000000000000000 ) ;
#15 = CIRCLE ( 'NONE', #55, 0.01498500000000000006 ) ;
#16 =( NAMED_UNIT ( * ) PLANE_ANGLE_UNIT ( ) SI_UNIT ( $, .RADIAN. ) );
#17 = DIRECTION ( 'NONE',  ( -0.0000000000000000000, -0.0000000000000000000, -1.000000000000000000 ) ) ;
#18 = CARTESIAN_POINT ( 'NONE',  ( 0.01498500000000000353, 1.835133228522308816E-18, 0.01498499999999999832 ) ) ;
#19 = ORIENTED_EDGE ( 'NONE', *, *, #88, .T. ) ;
#20 = SURFACE_SIDE_STYLE ('',( #153 ) ) ;
#21 = EDGE_CURVE ( 'NONE', #304, #183, #243, .T. ) ;
#22 = LENGTH_MEASURE_WITH_UNIT ( LENGTH_MEASURE( 0.02539999999999999897 ), #144 );
#23 = EDGE_LOOP ( 'NONE', ( #100, #149, #26 ) ) ;
#24 = AXIS2_PLACEMENT_3D ( 'NONE', #81, #188, #105 ) ;
#25 = PRESENTATION_STYLE_ASSIGNMENT (( #205 ) ) ;
#26 = ORIENTED_EDGE ( 'NONE', *, *, #254, .F. ) ;
#27 = APPLICATION_PROTOCOL_DEFINITION ( 'draft international standard', 'automotive_design', 1998, #87 ) ;
#28 = DIRECTION ( 'NONE',  ( 1.000000000000000000, 0.0000000000000000000, 0.0000000000000000000 ) ) ;
#29 = ADVANCED_FACE ( 'NONE', ( #108 ), #190, .T. ) ;
#30 = ORIENTED_EDGE ( 'NONE', *, *, #166, .T. ) ;
#31 = CONICAL_SURFACE ( 'NONE', #130, 0.04750000000000064587, 0.7853981633974466137 ) ;
#32 = ORIENTED_EDGE ( 'NONE', *, *, #52, .T. ) ;
#33 = DIRECTION ( 'NONE',  ( 1.224646799147353454E-16, 0.0000000000000000000, 1.000000000000000000 ) ) ;
#34 = PRODUCT_DEFINITION ( 'UNKNOWN', '', #181, #132 ) ;
#35 = LINE ( 'NONE', #12, #168 ) ;
#36 = CIRCLE ( 'NONE', #3, 0.04750000000000064587 ) ;
#37 = FACE_OUTER_BOUND ( 'NONE', #127, .T. ) ;
#38 = DIRECTION ( 'NONE',  ( 1.000000000000000000, 0.0000000000000000000, 0.0000000000000000000 ) ) ;
#39 = EDGE_CURVE ( 'NONE', #183, #74, #238, .T. ) ;
#40 = DIRECTION ( 'NONE',  ( -0.0000000000000000000, -0.0000000000000000000, -1.000000000000000000 ) ) ;
#41 = DIRECTION ( 'NONE',  ( 1.224646799147353454E-16, 0.0000000000000000000, 1.000000000000000000 ) ) ;
#42 = CIRCLE ( 'NONE', #45, 0.06250000000000002776 ) ;
#43 =( CONVERSION_BASED_UNIT ( 'INCH', #201 ) LENGTH_UNIT ( ) NAMED_UNIT ( #14 ) );
#44 = DIRECTION ( 'NONE',  ( -1.000000000000000000, 0.0000000000000000000, 0.0000000000000000000 ) ) ;
#45 = AXIS2_PLACEMENT_3D ( 'NONE', #116, #113, #317 ) ;
#46 = DIRECTION ( 'NONE',  ( 1.000000000000000000, 0.0000000000000000000, 0.0000000000000000000 ) ) ;
#47 = ORIENTED_EDGE ( 'NONE', *, *, #39, .T. ) ;
#48 = DIRECTION ( 'NONE',  ( 0.0000000000000000000, 0.0000000000000000000, 1.000000000000000000 ) ) ;
#49 = ORIENTED_EDGE ( 'NONE', *, *, #124, .T. ) ;
#50 = APPLICATION_PROTOCOL_DEFINITION ( 'draft international standard', 'automotive_design', 1998, #122 ) ;
#51 = ORIENTED_EDGE ( 'NONE', *, *, #282, .F. ) ;
#52 = EDGE_CURVE ( 'NONE', #206, #72, #64, .T. ) ;
#53 = ORIENTED_EDGE ( 'NONE', *, *, #177, .T. ) ;
#54 = ORIENTED_EDGE ( 'NONE', *, *, #128, .F. ) ;
#55 = AXIS2_PLACEMENT_3D ( 'NONE', #171, #221, #222 ) ;
#56 = SURFACE_STYLE_FILL_AREA ( #310 ) ;
#57 = PRESENTATION_STYLE_ASSIGNMENT (( #287 ) ) ;
#58 = CARTESIAN_POINT ( 'NONE',  ( 0.06250000000000006939, 7.654042494670963708E-18, 0.3594709556591341171 ) ) ;
#59 = CIRCLE ( 'NONE', #118, 0.01498500000000000006 ) ;
#60 = DIRECTION ( 'NONE',  ( -1.224646799147353454E-16, -0.0000000000000000000, -1.000000000000000000 ) ) ;
#61 = DIRECTION ( 'NONE',  ( -1.000000000000000000, 0.0000000000000000000, 0.0000000000000000000 ) ) ;
#62 = CLOSED_SHELL ( 'NONE', ( #146, #212, #223, #120, #267, #92, #200, #307, #66, #29, #227 ) ) ;
#63 = FACE_OUTER_BOUND ( 'NONE', #103, .T. ) ;
#64 = CIRCLE ( 'NONE', #208, 0.04750000000000064587 ) ;
#65 = CARTESIAN_POINT ( 'NONE',  ( 0.0000000000000000000, 0.0000000000000000000, 1.500000000000000222 ) ) ;
#66 = ADVANCED_FACE ( 'NONE', ( #268 ), #10, .T. ) ;
#67 = PLANE ( 'NONE',  #150 ) ;
#68 = VECTOR ( 'NONE', #82, 39.37007874015747433 ) ;
#69 = STYLED_ITEM ( 'NONE', ( #25 ), #302 ) ;
#70 = ORIENTED_EDGE ( 'NONE', *, *, #8, .T. ) ;
#71 =( NAMED_UNIT ( * ) SI_UNIT ( $, .STERADIAN. ) SOLID_ANGLE_UNIT ( ) );
#72 = VERTEX_POINT ( 'NONE', #313 ) ;
#73 = DIRECTION ( 'NONE',  ( -1.000000000000000000, 0.0000000000000000000, 0.0000000000000000000 ) ) ;
#74 = VERTEX_POINT ( 'NONE', #58 ) ;
#75 = EDGE_LOOP ( 'NONE', ( #279, #126, #97, #94 ) ) ;
#76 = FILL_AREA_STYLE_COLOUR ( '', #151 ) ;
#77 = EDGE_LOOP ( 'NONE', ( #51, #284, #283 ) ) ;
#78 = EDGE_CURVE ( 'NONE', #123, #281, #59, .T. ) ;
#79 = CARTESIAN_POINT ( 'NONE',  ( 0.0000000000000000000, 0.0000000000000000000, 0.0000000000000000000 ) ) ;
#80 = MECHANICAL_DESIGN_GEOMETRIC_PRESENTATION_REPRESENTATION (  '', ( #276 ), #296 ) ;
#81 = CARTESIAN_POINT ( 'NONE',  ( 1.835133228522309201E-18, 0.0000000000000000000, 0.01498500000000000006 ) ) ;
#82 = DIRECTION ( 'NONE',  ( -0.1736481776669311916, 2.126576849575783316E-17, 0.9848077530122080203 ) ) ;
#83 = LINE ( 'NONE', #286, #214 ) ;
#84 = LINE ( 'NONE', #133, #218 ) ;
#85 = AXIS2_PLACEMENT_3D ( 'NONE', #308, #299, #278 ) ;
#86 = DIRECTION ( 'NONE',  ( -1.224646799147353454E-16, -0.0000000000000000000, -1.000000000000000000 ) ) ;
#87 = APPLICATION_CONTEXT ( 'automotive_design' ) ;
#88 = EDGE_CURVE ( 'NONE', #304, #4, #84, .T. ) ;
#89 = DIRECTION ( 'NONE',  ( -1.000000000000000000, 0.0000000000000000000, 1.224646799147353454E-16 ) ) ;
#90 = CONICAL_SURFACE ( 'NONE', #114, 0.04750000000000064587, 0.7853981633974466137 ) ;
#91 = DIRECTION ( 'NONE',  ( 1.224646799147353454E-16, 0.0000000000000000000, 1.000000000000000000 ) ) ;
#92 = ADVANCED_FACE ( 'NONE', ( #134 ), #288, .T. ) ;
#93 = LENGTH_MEASURE_WITH_UNIT ( LENGTH_MEASURE( 0.02539999999999999897 ), #184 );
#94 = ORIENTED_EDGE ( 'NONE', *, *, #8, .F. ) ;
#95 = CIRCLE ( 'NONE', #290, 0.06250000000000002776 ) ;
#96 =( CONVERSION_BASED_UNIT ( 'INCH', #22 ) LENGTH_UNIT ( ) NAMED_UNIT ( #294 ) );
#97 = ORIENTED_EDGE ( 'NONE', *, *, #258, .T. ) ;
#98 = DIRECTION ( 'NONE',  ( 1.000000000000000000, 0.0000000000000000000, 0.0000000000000000000 ) ) ;
#99 = CARTESIAN_POINT ( 'NONE',  ( 0.0000000000000000000, 0.0000000000000000000, 1.485000000000000764 ) ) ;
#100 = ORIENTED_EDGE ( 'NONE', *, *, #78, .F. ) ;
#101 = VECTOR ( 'NONE', #312, 39.37007874015748854 ) ;
#102 = LINE ( 'NONE', #228, #272 ) ;
#103 = EDGE_LOOP ( 'NONE', ( #303, #262, #261, #306 ) ) ;
#104 = UNCERTAINTY_MEASURE_WITH_UNIT (LENGTH_MEASURE( 1.000000000000000082E-05 ), #43, 'distance_accuracy_value', 'NONE');
#105 = DIRECTION ( 'NONE',  ( 1.000000000000000000, 0.0000000000000000000, 0.0000000000000000000 ) ) ;
#106 = DIRECTION ( 'NONE',  ( 1.000000000000000000, 0.0000000000000000000, 0.0000000000000000000 ) ) ;
#107 = PRESENTATION_LAYER_ASSIGNMENT (  '', '', ( #276 ) ) ;
#108 = FACE_OUTER_BOUND ( 'NONE', #2, .T. ) ;
#109 = CARTESIAN_POINT ( 'NONE',  ( 0.0000000000000000000, 0.0000000000000000000, 1.500000000000000222 ) ) ;
#110 = EDGE_CURVE ( 'NONE', #72, #203, #135, .T. ) ;
#111 = SPHERICAL_SURFACE ( 'NONE', #24, 0.01498500000000000006 ) ;
#112 = VECTOR ( 'NONE', #117, 39.37007874015748143 ) ;
#113 = DIRECTION ( 'NONE',  ( 0.0000000000000000000, 0.0000000000000000000, -1.000000000000000000 ) ) ;
#114 = AXIS2_PLACEMENT_3D ( 'NONE', #324, #176, #73 ) ;
#115 = EDGE_CURVE ( 'NONE', #74, #183, #95, .T. ) ;
#116 = CARTESIAN_POINT ( 'NONE',  ( 0.0000000000000000000, 0.0000000000000000000, 1.485000000000000764 ) ) ;
#117 = DIRECTION ( 'NONE',  ( -0.0000000000000000000, -0.0000000000000000000, -1.000000000000000000 ) ) ;
#118 = AXIS2_PLACEMENT_3D ( 'NONE', #215, #7, #189 ) ;
#119 = CARTESIAN_POINT ( 'NONE',  ( 1.835133228522309201E-18, 0.0000000000000000000, 0.01498500000000000006 ) ) ;
#120 = ADVANCED_FACE ( 'NONE', ( #37 ), #31, .T. ) ;
#121 =( NAMED_UNIT ( * ) PLANE_ANGLE_UNIT ( ) SI_UNIT ( $, .RADIAN. ) );
#122 = APPLICATION_CONTEXT ( 'automotive_design' ) ;
#123 = VERTEX_POINT ( 'NONE', #269 ) ;
#124 = EDGE_CURVE ( 'NONE', #226, #281, #35, .T. ) ;
#125 = CARTESIAN_POINT ( 'NONE',  ( -0.01498499999999999832, 0.0000000000000000000, 0.01498500000000000353 ) ) ;
#126 = ORIENTED_EDGE ( 'NONE', *, *, #52, .F. ) ;
#127 = EDGE_LOOP ( 'NONE', ( #231, #179, #155, #233 ) ) ;
#128 = EDGE_CURVE ( 'NONE', #203, #74, #83, .T. ) ;
#129 = CIRCLE ( 'NONE', #157, 0.06250000000000002776 ) ;
#130 = AXIS2_PLACEMENT_3D ( 'NONE', #211, #264, #61 ) ;
#131 = ORIENTED_EDGE ( 'NONE', *, *, #21, .F. ) ;
#132 = PRODUCT_DEFINITION_CONTEXT ( 'detailed design', #87, 'design' ) ;
#133 = CARTESIAN_POINT ( 'NONE',  ( -0.01498500000000000006, 0.0000000000000000000, 1.835133228522309201E-18 ) ) ;
#134 = FACE_OUTER_BOUND ( 'NONE', #320, .T. ) ;
#135 = LINE ( 'NONE', #242, #101 ) ;
#136 = FACE_OUTER_BOUND ( 'NONE', #23, .T. ) ;
#137 = AXIS2_PLACEMENT_3D ( 'NONE', #298, #86, #250 ) ;
#138 = SPHERICAL_SURFACE ( 'NONE', #192, 0.01498500000000000006 ) ;
#139 =( GEOMETRIC_REPRESENTATION_CONTEXT ( 3 ) GLOBAL_UNCERTAINTY_ASSIGNED_CONTEXT ( ( #265 ) ) GLOBAL_UNIT_ASSIGNED_CONTEXT ( ( #305, #121, #209 ) ) REPRESENTATION_CONTEXT ( 'NONE', 'WORKASPACE' ) );
#140 = CARTESIAN_POINT ( 'NONE',  ( 0.01498500000000001220, 0.0000000000000000000, 0.08999999999999999667 ) ) ;
#141 = CARTESIAN_POINT ( 'NONE',  ( 0.0000000000000000000, 0.0000000000000000000, 0.0000000000000000000 ) ) ;
#142 = DIRECTION ( 'NONE',  ( -1.224646799147353454E-16, -0.0000000000000000000, -1.000000000000000000 ) ) ;
#143 = COLOUR_RGB ( '',0.7921568627450980005, 0.8196078431372548767, 0.9333333333333333481 ) ;
#144 =( LENGTH_UNIT ( ) NAMED_UNIT ( * ) SI_UNIT ( $, .METRE. ) );
#145 = EDGE_LOOP ( 'NONE', ( #32, #30 ) ) ;
#146 = ADVANCED_FACE ( 'NONE', ( #136 ), #111, .T. ) ;
#147 = DIRECTION ( 'NONE',  ( 0.1736481776669313859, 0.0000000000000000000, 0.9848077530122077983 ) ) ;
#148 = MANIFOLD_SOLID_BREP ( 'Fillet1', #62 ) ;
#149 = ORIENTED_EDGE ( 'NONE', *, *, #282, .T. ) ;
#150 = AXIS2_PLACEMENT_3D ( 'NONE', #220, #198, #274 ) ;
#151 = COLOUR_RGB ( '',0.7921568627450980005, 0.8196078431372548767, 0.9333333333333333481 ) ;
#152 = ORIENTED_EDGE ( 'NONE', *, *, #271, .T. ) ;
#153 = SURFACE_STYLE_FILL_AREA ( #182 ) ;
#154 = VERTEX_POINT ( 'NONE', #225 ) ;
#155 = ORIENTED_EDGE ( 'NONE', *, *, #241, .F. ) ;
#156 = PRODUCT ( 'Micro_BMR-030-2X', 'Micro_BMR-030-2X', '', ( #259 ) ) ;
#157 = AXIS2_PLACEMENT_3D ( 'NONE', #99, #260, #28 ) ;
#158 = SURFACE_SIDE_STYLE ('',( #56 ) ) ;
#159 = DIRECTION ( 'NONE',  ( -1.224646799147353454E-16, -0.0000000000000000000, -1.000000000000000000 ) ) ;
#160 = PRODUCT_RELATED_PRODUCT_CATEGORY ( 'part', '', ( #156 ) ) ;
#161 = CARTESIAN_POINT ( 'NONE',  ( 4.402249552343988286E-17, 0.0000000000000000000, 0.3594709556591341171 ) ) ;
#162 = AXIS2_PLACEMENT_3D ( 'NONE', #79, #60, #217 ) ;
#163 = AXIS2_PLACEMENT_3D ( 'NONE', #280, #48, #98 ) ;
#164 = DIRECTION ( 'NONE',  ( 0.0000000000000000000, 0.0000000000000000000, 1.000000000000000000 ) ) ;
#165 = DIRECTION ( 'NONE',  ( 1.000000000000000000, 0.0000000000000000000, 0.0000000000000000000 ) ) ;
#166 = EDGE_CURVE ( 'NONE', #72, #206, #36, .T. ) ;
#167 = CARTESIAN_POINT ( 'NONE',  ( -0.06250000000000002776, 0.0000000000000000000, 1.500000000000000222 ) ) ;
#168 = VECTOR ( 'NONE', #159, 39.37007874015748143 ) ;
#169 = CARTESIAN_POINT ( 'NONE',  ( -0.04750000000000064587, 0.0000000000000000000, 1.500000000000000222 ) ) ;
#170 = CARTESIAN_POINT ( 'NONE',  ( 1.835133228522309201E-18, 0.0000000000000000000, 0.01498500000000000006 ) ) ;
#171 = CARTESIAN_POINT ( 'NONE',  ( 1.835133228522309201E-18, 0.0000000000000000000, 0.01498500000000000006 ) ) ;
#172 = CYLINDRICAL_SURFACE ( 'NONE', #323, 0.01498500000000000006 ) ;
#173 = CONICAL_SURFACE ( 'NONE', #195, 0.01498500000000000006, 0.1745329251994338915 ) ;
#174 = ORIENTED_EDGE ( 'NONE', *, *, #115, .T. ) ;
#175 = AXIS2_PLACEMENT_3D ( 'NONE', #161, #289, #165 ) ;
#176 = DIRECTION ( 'NONE',  ( 0.0000000000000000000, 0.0000000000000000000, -1.000000000000000000 ) ) ;
#177 = EDGE_CURVE ( 'NONE', #226, #304, #314, .T. ) ;
#178 = ORIENTED_EDGE ( 'NONE', *, *, #115, .F. ) ;
#179 = ORIENTED_EDGE ( 'NONE', *, *, #110, .T. ) ;
#180 = EDGE_LOOP ( 'NONE', ( #235, #309, #47, #256 ) ) ;
#181 = PRODUCT_DEFINITION_FORMATION_WITH_SPECIFIED_SOURCE ( 'ANY', '', #156, .NOT_KNOWN. ) ;
#182 = FILL_AREA_STYLE ('',( #76 ) ) ;
#183 = VERTEX_POINT ( 'NONE', #319 ) ;
#184 =( LENGTH_UNIT ( ) NAMED_UNIT ( * ) SI_UNIT ( $, .METRE. ) );
#185 = EDGE_LOOP ( 'NONE', ( #257, #49, #325, #237 ) ) ;
#186 = CARTESIAN_POINT ( 'NONE',  ( 4.402249552343988286E-17, 0.0000000000000000000, 0.3594709556591341171 ) ) ;
#187 =( GEOMETRIC_REPRESENTATION_CONTEXT ( 3 ) GLOBAL_UNCERTAINTY_ASSIGNED_CONTEXT ( ( #191 ) ) GLOBAL_UNIT_ASSIGNED_CONTEXT ( ( #96, #301, #71 ) ) REPRESENTATION_CONTEXT ( 'NONE', 'WORKASPACE' ) );
#188 = DIRECTION ( 'NONE',  ( 0.0000000000000000000, 1.000000000000000000, 0.0000000000000000000 ) ) ;
#189 = DIRECTION ( 'NONE',  ( 0.0000000000000000000, 0.0000000000000000000, -1.000000000000000000 ) ) ;
#190 = CYLINDRICAL_SURFACE ( 'NONE', #162, 0.01498500000000000006 ) ;
#191 = UNCERTAINTY_MEASURE_WITH_UNIT (LENGTH_MEASURE( 1.000000000000000082E-05 ), #96, 'distance_accuracy_value', 'NONE');
#192 = AXIS2_PLACEMENT_3D ( 'NONE', #119, #249, #246 ) ;
#193 = EDGE_CURVE ( 'NONE', #154, #183, #321, .T. ) ;
#194 = DIRECTION ( 'NONE',  ( 1.000000000000000000, 0.0000000000000000000, 0.0000000000000000000 ) ) ;
#195 = AXIS2_PLACEMENT_3D ( 'NONE', #270, #41, #277 ) ;
#196 = DIMENSIONAL_EXPONENTS ( 1.000000000000000000, 0.0000000000000000000, 0.0000000000000000000, 0.0000000000000000000, 0.0000000000000000000, 0.0000000000000000000, 0.0000000000000000000 ) ;
#197 = DIRECTION ( 'NONE',  ( 0.0000000000000000000, 0.0000000000000000000, 1.000000000000000000 ) ) ;
#198 = DIRECTION ( 'NONE',  ( 0.0000000000000000000, 0.0000000000000000000, 1.000000000000000000 ) ) ;
#199 = LINE ( 'NONE', #251, #202 ) ;
#200 = ADVANCED_FACE ( 'NONE', ( #275 ), #67, .T. ) ;
#201 = LENGTH_MEASURE_WITH_UNIT ( LENGTH_MEASURE( 0.02539999999999999897 ), #9 );
#202 = VECTOR ( 'NONE', #295, 39.37007874015748854 ) ;
#203 = VERTEX_POINT ( 'NONE', #318 ) ;
#204 = ORIENTED_EDGE ( 'NONE', *, *, #193, .T. ) ;
#205 = SURFACE_STYLE_USAGE ( .BOTH. , #20 ) ;
#206 = VERTEX_POINT ( 'NONE', #169 ) ;
#207 = ORIENTED_EDGE ( 'NONE', *, *, #124, .F. ) ;
#208 = AXIS2_PLACEMENT_3D ( 'NONE', #311, #164, #106 ) ;
#209 =( NAMED_UNIT ( * ) SI_UNIT ( $, .STERADIAN. ) SOLID_ANGLE_UNIT ( ) );
#210 = DIRECTION ( 'NONE',  ( -1.224646799147353454E-16, -0.0000000000000000000, -1.000000000000000000 ) ) ;
#211 = CARTESIAN_POINT ( 'NONE',  ( 0.0000000000000000000, 0.0000000000000000000, 1.500000000000000222 ) ) ;
#212 = ADVANCED_FACE ( 'NONE', ( #316 ), #172, .T. ) ;
#213 = CARTESIAN_POINT ( 'NONE',  ( 0.0000000000000000000, 0.0000000000000000000, 1.500000000000000222 ) ) ;
#214 = VECTOR ( 'NONE', #40, 39.37007874015748143 ) ;
#215 = CARTESIAN_POINT ( 'NONE',  ( 1.835133228522309201E-18, 0.0000000000000000000, 0.01498500000000000006 ) ) ;
#216 = DIRECTION ( 'NONE',  ( -1.224646799147353454E-16, -0.0000000000000000000, -1.000000000000000000 ) ) ;
#217 = DIRECTION ( 'NONE',  ( -1.000000000000000000, 0.0000000000000000000, 1.224646799147353454E-16 ) ) ;
#218 = VECTOR ( 'NONE', #216, 39.37007874015748143 ) ;
#219 = MECHANICAL_DESIGN_GEOMETRIC_PRESENTATION_REPRESENTATION (  '', ( #69 ), #187 ) ;
#220 = CARTESIAN_POINT ( 'NONE',  ( 0.0000000000000000000, 0.0000000000000000000, 1.500000000000000222 ) ) ;
#221 = DIRECTION ( 'NONE',  ( 1.224646799147353454E-16, 0.0000000000000000000, 1.000000000000000000 ) ) ;
#222 = DIRECTION ( 'NONE',  ( -1.000000000000000000, 0.0000000000000000000, 1.424261758458595593E-16 ) ) ;
#223 = ADVANCED_FACE ( 'NONE', ( #292 ), #173, .T. ) ;
#224 = AXIS2_PLACEMENT_3D ( 'NONE', #11, #33, #38 ) ;
#225 = CARTESIAN_POINT ( 'NONE',  ( -0.06250000000000002776, 0.0000000000000000000, 1.485000000000000764 ) ) ;
#226 = VERTEX_POINT ( 'NONE', #140 ) ;
#227 = ADVANCED_FACE ( 'NONE', ( #273 ), #138, .T. ) ;
#228 = CARTESIAN_POINT ( 'NONE',  ( 0.01498500000000001220, 0.0000000000000000000, 0.08999999999999999667 ) ) ;
#229 = CARTESIAN_POINT ( 'NONE',  ( -0.01498499999999998965, 4.744587861596634336E-18, 0.08999999999999999667 ) ) ;
#230 = CIRCLE ( 'NONE', #85, 0.01498500000000000006 ) ;
#231 = ORIENTED_EDGE ( 'NONE', *, *, #166, .F. ) ;
#232 = AXIS2_PLACEMENT_3D ( 'NONE', #1, #210, #300 ) ;
#233 = ORIENTED_EDGE ( 'NONE', *, *, #258, .F. ) ;
#234 = SHAPE_DEFINITION_REPRESENTATION ( #244, #302 ) ;
#235 = ORIENTED_EDGE ( 'NONE', *, *, #5, .F. ) ;
#236 = FACE_OUTER_BOUND ( 'NONE', #75, .T. ) ;
#237 = ORIENTED_EDGE ( 'NONE', *, *, #88, .F. ) ;
#238 = CIRCLE ( 'NONE', #175, 0.06250000000000002776 ) ;
#239 = AXIS2_PLACEMENT_3D ( 'NONE', #170, #91, #253 ) ;
#240 = ORIENTED_EDGE ( 'NONE', *, *, #293, .T. ) ;
#241 = EDGE_CURVE ( 'NONE', #154, #203, #42, .T. ) ;
#242 = CARTESIAN_POINT ( 'NONE',  ( 0.04750000000000064587, 5.817072295950006528E-18, 1.500000000000000222 ) ) ;
#243 = LINE ( 'NONE', #263, #68 ) ;
#244 = PRODUCT_DEFINITION_SHAPE ( 'NONE', 'NONE',  #34 ) ;
#245 = DIRECTION ( 'NONE',  ( -1.224646799147353454E-16, -0.0000000000000000000, -1.000000000000000000 ) ) ;
#246 = DIRECTION ( 'NONE',  ( 1.000000000000000000, 0.0000000000000000000, 0.0000000000000000000 ) ) ;
#247 = CIRCLE ( 'NONE', #239, 0.01498500000000000006 ) ;
#248 = PRESENTATION_LAYER_ASSIGNMENT (  '', '', ( #69 ) ) ;
#249 = DIRECTION ( 'NONE',  ( 0.0000000000000000000, 1.000000000000000000, 0.0000000000000000000 ) ) ;
#250 = DIRECTION ( 'NONE',  ( -1.000000000000000000, 0.0000000000000000000, 0.0000000000000000000 ) ) ;
#251 = CARTESIAN_POINT ( 'NONE',  ( -0.04750000000000064587, 0.0000000000000000000, 1.500000000000000222 ) ) ;
#252 = AXIS2_PLACEMENT_3D ( 'NONE', #213, #291, #266 ) ;
#253 = DIRECTION ( 'NONE',  ( -1.000000000000000000, 0.0000000000000000000, 1.424261758458595593E-16 ) ) ;
#254 = EDGE_CURVE ( 'NONE', #281, #4, #15, .T. ) ;
#255 = CIRCLE ( 'NONE', #232, 0.01498500000000000006 ) ;
#256 = ORIENTED_EDGE ( 'NONE', *, *, #293, .F. ) ;
#257 = ORIENTED_EDGE ( 'NONE', *, *, #5, .T. ) ;
#258 = EDGE_CURVE ( 'NONE', #206, #154, #199, .T. ) ;
#259 = PRODUCT_CONTEXT ( 'NONE', #122, 'mechanical' ) ;
#260 = DIRECTION ( 'NONE',  ( 0.0000000000000000000, 0.0000000000000000000, -1.000000000000000000 ) ) ;
#261 = ORIENTED_EDGE ( 'NONE', *, *, #39, .F. ) ;
#262 = ORIENTED_EDGE ( 'NONE', *, *, #128, .T. ) ;
#263 = CARTESIAN_POINT ( 'NONE',  ( -0.01498499999999998965, 1.835133228522308816E-18, 0.08999999999999999667 ) ) ;
#264 = DIRECTION ( 'NONE',  ( 0.0000000000000000000, 0.0000000000000000000, -1.000000000000000000 ) ) ;
#265 = UNCERTAINTY_MEASURE_WITH_UNIT (LENGTH_MEASURE( 1.000000000000000082E-05 ), #305, 'distance_accuracy_value', 'NONE');
#266 = DIRECTION ( 'NONE',  ( -1.000000000000000000, 0.0000000000000000000, 0.0000000000000000000 ) ) ;
#267 = ADVANCED_FACE ( 'NONE', ( #63 ), #297, .T. ) ;
#268 = FACE_OUTER_BOUND ( 'NONE', #285, .T. ) ;
#269 = CARTESIAN_POINT ( 'NONE',  ( 2.752699842783463994E-18, 0.0000000000000000000, 0.0000000000000000000 ) ) ;
#270 = CARTESIAN_POINT ( 'NONE',  ( 1.102182119232618065E-17, 0.0000000000000000000, 0.08999999999999999667 ) ) ;
#271 = EDGE_CURVE ( 'NONE', #4, #281, #247, .T. ) ;
#272 = VECTOR ( 'NONE', #147, 39.37007874015748143 ) ;
#273 = FACE_OUTER_BOUND ( 'NONE', #77, .T. ) ;
#274 = DIRECTION ( 'NONE',  ( 1.000000000000000000, 0.0000000000000000000, -0.0000000000000000000 ) ) ;
#275 = FACE_OUTER_BOUND ( 'NONE', #145, .T. ) ;
#276 = STYLED_ITEM ( 'NONE', ( #57 ), #148 ) ;
#277 = DIRECTION ( 'NONE',  ( 1.000000000000000000, 0.0000000000000000000, 0.0000000000000000000 ) ) ;
#278 = DIRECTION ( 'NONE',  ( -1.000000000000000000, 1.224646799147353207E-16, 0.0000000000000000000 ) ) ;
#279 = ORIENTED_EDGE ( 'NONE', *, *, #110, .F. ) ;
#280 = CARTESIAN_POINT ( 'NONE',  ( 0.0000000000000000000, 0.0000000000000000000, 0.0000000000000000000 ) ) ;
#281 = VERTEX_POINT ( 'NONE', #18 ) ;
#282 = EDGE_CURVE ( 'NONE', #123, #4, #230, .T. ) ;
#283 = ORIENTED_EDGE ( 'NONE', *, *, #271, .F. ) ;
#284 = ORIENTED_EDGE ( 'NONE', *, *, #78, .T. ) ;
#285 = EDGE_LOOP ( 'NONE', ( #131, #322, #240, #174 ) ) ;
#286 = CARTESIAN_POINT ( 'NONE',  ( 0.06250000000000002776, 7.654042494670959086E-18, 1.500000000000000222 ) ) ;
#287 = SURFACE_STYLE_USAGE ( .BOTH. , #158 ) ;
#288 = CYLINDRICAL_SURFACE ( 'NONE', #252, 0.06250000000000002776 ) ;
#289 = DIRECTION ( 'NONE',  ( -1.224646799147353454E-16, -0.0000000000000000000, -1.000000000000000000 ) ) ;
#290 = AXIS2_PLACEMENT_3D ( 'NONE', #186, #245, #194 ) ;
#291 = DIRECTION ( 'NONE',  ( -0.0000000000000000000, -0.0000000000000000000, -1.000000000000000000 ) ) ;
#292 = FACE_OUTER_BOUND ( 'NONE', #180, .T. ) ;
#293 = EDGE_CURVE ( 'NONE', #226, #74, #102, .T. ) ;
#294 = DIMENSIONAL_EXPONENTS ( 1.000000000000000000, 0.0000000000000000000, 0.0000000000000000000, 0.0000000000000000000, 0.0000000000000000000, 0.0000000000000000000, 0.0000000000000000000 ) ;
#295 = DIRECTION ( 'NONE',  ( -0.7071067811865462405, 0.0000000000000000000, -0.7071067811865486830 ) ) ;
#296 =( GEOMETRIC_REPRESENTATION_CONTEXT ( 3 ) GLOBAL_UNCERTAINTY_ASSIGNED_CONTEXT ( ( #104 ) ) GLOBAL_UNIT_ASSIGNED_CONTEXT ( ( #43, #16, #13 ) ) REPRESENTATION_CONTEXT ( 'NONE', 'WORKASPACE' ) );
#297 = CYLINDRICAL_SURFACE ( 'NONE', #315, 0.06250000000000002776 ) ;
#298 = CARTESIAN_POINT ( 'NONE',  ( 1.102182119232618065E-17, 0.0000000000000000000, 0.08999999999999999667 ) ) ;
#299 = DIRECTION ( 'NONE',  ( 1.224646799147353207E-16, 1.000000000000000000, -0.0000000000000000000 ) ) ;
#300 = DIRECTION ( 'NONE',  ( -1.000000000000000000, 0.0000000000000000000, 0.0000000000000000000 ) ) ;
#301 =( NAMED_UNIT ( * ) PLANE_ANGLE_UNIT ( ) SI_UNIT ( $, .RADIAN. ) );
#302 = ADVANCED_BREP_SHAPE_REPRESENTATION ( 'Micro_BMR-030-2X', ( #148, #163 ), #139 ) ;
#303 = ORIENTED_EDGE ( 'NONE', *, *, #241, .T. ) ;
#304 = VERTEX_POINT ( 'NONE', #229 ) ;
#305 =( CONVERSION_BASED_UNIT ( 'INCH', #93 ) LENGTH_UNIT ( ) NAMED_UNIT ( #196 ) );
#306 = ORIENTED_EDGE ( 'NONE', *, *, #193, .F. ) ;
#307 = ADVANCED_FACE ( 'NONE', ( #236 ), #90, .T. ) ;
#308 = CARTESIAN_POINT ( 'NONE',  ( 1.835133228522309201E-18, 0.0000000000000000000, 0.01498500000000000006 ) ) ;
#309 = ORIENTED_EDGE ( 'NONE', *, *, #21, .T. ) ;
#310 = FILL_AREA_STYLE ('',( #6 ) ) ;
#311 = CARTESIAN_POINT ( 'NONE',  ( 0.0000000000000000000, 0.0000000000000000000, 1.500000000000000222 ) ) ;
#312 = DIRECTION ( 'NONE',  ( 0.7071067811865462405, 8.659560562354916834E-17, -0.7071067811865486830 ) ) ;
#313 = CARTESIAN_POINT ( 'NONE',  ( 0.04750000000000064587, 6.735557395310483192E-18, 1.500000000000000222 ) ) ;
#314 = CIRCLE ( 'NONE', #137, 0.01498500000000000006 ) ;
#315 = AXIS2_PLACEMENT_3D ( 'NONE', #65, #17, #44 ) ;
#316 = FACE_OUTER_BOUND ( 'NONE', #185, .T. ) ;
#317 = DIRECTION ( 'NONE',  ( 1.000000000000000000, 0.0000000000000000000, 0.0000000000000000000 ) ) ;
#318 = CARTESIAN_POINT ( 'NONE',  ( 0.06250000000000002776, 7.654042494670959086E-18, 1.485000000000000764 ) ) ;
#319 = CARTESIAN_POINT ( 'NONE',  ( -0.06249999999999997918, 0.0000000000000000000, 0.3594709556591341171 ) ) ;
#320 = EDGE_LOOP ( 'NONE', ( #54, #70, #204, #178 ) ) ;
#321 = LINE ( 'NONE', #167, #112 ) ;
#322 = ORIENTED_EDGE ( 'NONE', *, *, #177, .F. ) ;
#323 = AXIS2_PLACEMENT_3D ( 'NONE', #141, #142, #89 ) ;
#324 = CARTESIAN_POINT ( 'NONE',  ( 0.0000000000000000000, 0.0000000000000000000, 1.500000000000000222 ) ) ;
#325 = ORIENTED_EDGE ( 'NONE', *, *, #254, .T. ) ;
ENDSEC;
END-ISO-10303-21;
