ISO-10303-21;
HEADER;
FILE_DESCRIPTION (( 'STEP AP214' ),
    '1' );
FILE_NAME ('Micro_MMBM-020-7X.STEP',
    '2021-09-03T16:32:03',
    ( '' ),
    ( '' ),
    'SwSTEP 2.0',
    'SolidWorks 2020',
    '' );
FILE_SCHEMA (( 'AUTOMOTIVE_DESIGN' ));
ENDSEC;

DATA;
#1 = CARTESIAN_POINT ( 'NONE',  ( 0.0000000000000000000, 0.0000000000000000000, 0.07874000000000000443 ) ) ;
#2 =( NAMED_UNIT ( * ) PLANE_ANGLE_UNIT ( ) SI_UNIT ( $, .RADIAN. ) );
#3 = VERTEX_POINT ( 'NONE', #309 ) ;
#4 = DIRECTION ( 'NONE',  ( -0.0000000000000000000, -0.0000000000000000000, -1.000000000000000000 ) ) ;
#5 = DIRECTION ( 'NONE',  ( -1.000000000000000000, 0.0000000000000000000, 0.0000000000000000000 ) ) ;
#6 = DIRECTION ( 'NONE',  ( -0.0000000000000000000, -0.0000000000000000000, -1.000000000000000000 ) ) ;
#7 = MECHANICAL_DESIGN_GEOMETRIC_PRESENTATION_REPRESENTATION (  '', ( #322 ), #172 ) ;
#8 = SHAPE_DEFINITION_REPRESENTATION ( #345, #145 ) ;
#9 = VECTOR ( 'NONE', #165, 39.37007874015748143 ) ;
#10 = AXIS2_PLACEMENT_3D ( 'NONE', #37, #265, #237 ) ;
#11 = FACE_OUTER_BOUND ( 'NONE', #19, .T. ) ;
#12 =( LENGTH_UNIT ( ) NAMED_UNIT ( * ) SI_UNIT ( $, .METRE. ) );
#13 = CARTESIAN_POINT ( 'NONE',  ( 0.03740150000000001113, 4.700657515314640450E-18, 0.08988159042539359267 ) ) ;
#14 = DIRECTION ( 'NONE',  ( -0.0000000000000000000, -0.0000000000000000000, -1.000000000000000000 ) ) ;
#15 = PRESENTATION_STYLE_ASSIGNMENT (( #127 ) ) ;
#16 = PRODUCT_RELATED_PRODUCT_CATEGORY ( 'part', '', ( #183 ) ) ;
#17 = CARTESIAN_POINT ( 'NONE',  ( 0.1031100000000002570, 1.354581824536888722E-17, 2.244094000000000033 ) ) ;
#18 = UNCERTAINTY_MEASURE_WITH_UNIT (LENGTH_MEASURE( 1.000000000000000082E-05 ), #181, 'distance_accuracy_value', 'NONE');
#19 = EDGE_LOOP ( 'NONE', ( #302, #119, #346, #199 ) ) ;
#20 = CARTESIAN_POINT ( 'NONE',  ( 0.0000000000000000000, 0.0000000000000000000, 0.0000000000000000000 ) ) ;
#21 = ORIENTED_EDGE ( 'NONE', *, *, #55, .F. ) ;
#22 = ORIENTED_EDGE ( 'NONE', *, *, #115, .F. ) ;
#23 = DIRECTION ( 'NONE',  ( 0.0000000000000000000, 0.0000000000000000000, 1.000000000000000000 ) ) ;
#24 = DIRECTION ( 'NONE',  ( -0.0000000000000000000, -0.0000000000000000000, -1.000000000000000000 ) ) ;
#25 = ORIENTED_EDGE ( 'NONE', *, *, #136, .T. ) ;
#26 = VECTOR ( 'NONE', #279, 39.37007874015748854 ) ;
#27 = CARTESIAN_POINT ( 'NONE',  ( -0.03936606300000000669, 0.0000000000000000000, 0.07874000000000000443 ) ) ;
#28 = CARTESIAN_POINT ( 'NONE',  ( 0.0000000000000000000, 0.0000000000000000000, 2.229093999999999465 ) ) ;
#29 = EDGE_CURVE ( 'NONE', #348, #195, #225, .T. ) ;
#30 = CONICAL_SURFACE ( 'NONE', #238, 0.03936606300000000669, 0.1745329251994332254 ) ;
#31 = AXIS2_PLACEMENT_3D ( 'NONE', #273, #14, #133 ) ;
#32 = VERTEX_POINT ( 'NONE', #336 ) ;
#33 = ORIENTED_EDGE ( 'NONE', *, *, #136, .F. ) ;
#34 = EDGE_CURVE ( 'NONE', #32, #351, #160, .T. ) ;
#35 = DIRECTION ( 'NONE',  ( -0.0000000000000000000, -0.0000000000000000000, -1.000000000000000000 ) ) ;
#36 = FACE_OUTER_BOUND ( 'NONE', #95, .T. ) ;
#37 = CARTESIAN_POINT ( 'NONE',  ( 0.0000000000000000000, 0.0000000000000000000, 0.0000000000000000000 ) ) ;
#38 = CARTESIAN_POINT ( 'NONE',  ( 0.0000000000000000000, 0.0000000000000000000, 0.0000000000000000000 ) ) ;
#39 = ORIENTED_EDGE ( 'NONE', *, *, #173, .F. ) ;
#40 = FACE_OUTER_BOUND ( 'NONE', #49, .T. ) ;
#41 =( NAMED_UNIT ( * ) SI_UNIT ( $, .STERADIAN. ) SOLID_ANGLE_UNIT ( ) );
#42 = LINE ( 'NONE', #241, #321 ) ;
#43 = SURFACE_SIDE_STYLE ('',( #122 ) ) ;
#44 = AXIS2_PLACEMENT_3D ( 'NONE', #86, #205, #294 ) ;
#45 = CYLINDRICAL_SURFACE ( 'NONE', #277, 0.03740150000000002500 ) ;
#46 = CYLINDRICAL_SURFACE ( 'NONE', #246, 0.1181100000000000066 ) ;
#47 = CARTESIAN_POINT ( 'NONE',  ( 0.0000000000000000000, 0.0000000000000000000, 0.0000000000000000000 ) ) ;
#48 = EDGE_CURVE ( 'NONE', #176, #283, #211, .T. ) ;
#49 = EDGE_LOOP ( 'NONE', ( #182, #61 ) ) ;
#50 = DIRECTION ( 'NONE',  ( -1.000000000000000000, 0.0000000000000000000, 0.0000000000000000000 ) ) ;
#51 = AXIS2_PLACEMENT_3D ( 'NONE', #77, #23, #250 ) ;
#52 = UNCERTAINTY_MEASURE_WITH_UNIT (LENGTH_MEASURE( 1.000000000000000082E-05 ), #90, 'distance_accuracy_value', 'NONE');
#53 = LINE ( 'NONE', #281, #9 ) ;
#54 = DIRECTION ( 'NONE',  ( 0.0000000000000000000, 0.0000000000000000000, 1.000000000000000000 ) ) ;
#55 = EDGE_CURVE ( 'NONE', #283, #331, #340, .T. ) ;
#56 = DIRECTION ( 'NONE',  ( -1.000000000000000000, 0.0000000000000000000, 0.0000000000000000000 ) ) ;
#57 = LINE ( 'NONE', #369, #228 ) ;
#58 = EDGE_CURVE ( 'NONE', #331, #195, #53, .T. ) ;
#59 = ORIENTED_EDGE ( 'NONE', *, *, #193, .F. ) ;
#60 = LENGTH_MEASURE_WITH_UNIT ( LENGTH_MEASURE( 0.02539999999999999897 ), #12 );
#61 = ORIENTED_EDGE ( 'NONE', *, *, #334, .T. ) ;
#62 = AXIS2_PLACEMENT_3D ( 'NONE', #112, #167, #285 ) ;
#63 = DIRECTION ( 'NONE',  ( -1.000000000000000000, 0.0000000000000000000, 0.0000000000000000000 ) ) ;
#64 = LENGTH_MEASURE_WITH_UNIT ( LENGTH_MEASURE( 0.02539999999999999897 ), #318 );
#65 = EDGE_LOOP ( 'NONE', ( #80, #147 ) ) ;
#66 = EDGE_CURVE ( 'NONE', #110, #348, #305, .T. ) ;
#67 = CARTESIAN_POINT ( 'NONE',  ( -0.1031100000000002570, 0.0000000000000000000, 2.244094000000000033 ) ) ;
#68 = FILL_AREA_STYLE_COLOUR ( '', #196 ) ;
#69 = CARTESIAN_POINT ( 'NONE',  ( -0.1181100000000000066, 0.0000000000000000000, 0.2755909999999999749 ) ) ;
#70 = FACE_OUTER_BOUND ( 'NONE', #316, .T. ) ;
#71 = AXIS2_PLACEMENT_3D ( 'NONE', #120, #104, #242 ) ;
#72 = EDGE_CURVE ( 'NONE', #351, #3, #142, .T. ) ;
#73 = ORIENTED_EDGE ( 'NONE', *, *, #261, .F. ) ;
#74 = DIRECTION ( 'NONE',  ( -0.0000000000000000000, -0.0000000000000000000, -1.000000000000000000 ) ) ;
#75 = FACE_OUTER_BOUND ( 'NONE', #260, .T. ) ;
#76 = AXIS2_PLACEMENT_3D ( 'NONE', #128, #98, #327 ) ;
#77 = CARTESIAN_POINT ( 'NONE',  ( 0.0000000000000000000, 0.0000000000000000000, 0.0000000000000000000 ) ) ;
#78 = VECTOR ( 'NONE', #186, 39.37007874015748143 ) ;
#79 = UNCERTAINTY_MEASURE_WITH_UNIT (LENGTH_MEASURE( 1.000000000000000082E-05 ), #209, 'distance_accuracy_value', 'NONE');
#80 = ORIENTED_EDGE ( 'NONE', *, *, #247, .T. ) ;
#81 = ORIENTED_EDGE ( 'NONE', *, *, #185, .T. ) ;
#82 = EDGE_LOOP ( 'NONE', ( #103, #379, #338, #151 ) ) ;
#83 = CIRCLE ( 'NONE', #231, 0.03740150000000001113 ) ;
#84 = DIRECTION ( 'NONE',  ( 0.0000000000000000000, 0.0000000000000000000, -1.000000000000000000 ) ) ;
#85 = FACE_OUTER_BOUND ( 'NONE', #233, .T. ) ;
#86 = CARTESIAN_POINT ( 'NONE',  ( 0.0000000000000000000, 0.0000000000000000000, 2.244094000000000033 ) ) ;
#87 = VERTEX_POINT ( 'NONE', #255 ) ;
#88 = AXIS2_PLACEMENT_3D ( 'NONE', #201, #313, #169 ) ;
#89 = ADVANCED_FACE ( 'NONE', ( #75 ), #203, .T. ) ;
#90 =( CONVERSION_BASED_UNIT ( 'INCH', #60 ) LENGTH_UNIT ( ) NAMED_UNIT ( #234 ) );
#91 = EDGE_LOOP ( 'NONE', ( #39, #25, #81, #324 ) ) ;
#92 = ORIENTED_EDGE ( 'NONE', *, *, #193, .T. ) ;
#93 = DIRECTION ( 'NONE',  ( -0.0000000000000000000, -0.0000000000000000000, -1.000000000000000000 ) ) ;
#94 = CYLINDRICAL_SURFACE ( 'NONE', #271, 0.03936606300000000669 ) ;
#95 = EDGE_LOOP ( 'NONE', ( #375, #292, #249, #59 ) ) ;
#96 = VECTOR ( 'NONE', #200, 39.37007874015748143 ) ;
#97 = FACE_OUTER_BOUND ( 'NONE', #82, .T. ) ;
#98 = DIRECTION ( 'NONE',  ( -0.0000000000000000000, -0.0000000000000000000, -1.000000000000000000 ) ) ;
#99 = CARTESIAN_POINT ( 'NONE',  ( -0.03740150000000003194, 0.0000000000000000000, 0.2755909999999999749 ) ) ;
#100 = DIRECTION ( 'NONE',  ( -1.000000000000000000, 0.0000000000000000000, 0.0000000000000000000 ) ) ;
#101 = DIRECTION ( 'NONE',  ( -1.000000000000000000, 0.0000000000000000000, 0.0000000000000000000 ) ) ;
#102 = ADVANCED_FACE ( 'NONE', ( #161 ), #363, .F. ) ;
#103 = ORIENTED_EDGE ( 'NONE', *, *, #191, .T. ) ;
#104 = DIRECTION ( 'NONE',  ( 0.0000000000000000000, 0.0000000000000000000, -1.000000000000000000 ) ) ;
#105 = DIRECTION ( 'NONE',  ( -0.0000000000000000000, -0.0000000000000000000, -1.000000000000000000 ) ) ;
#106 = ORIENTED_EDGE ( 'NONE', *, *, #34, .F. ) ;
#107 = ORIENTED_EDGE ( 'NONE', *, *, #48, .F. ) ;
#108 = AXIS2_PLACEMENT_3D ( 'NONE', #357, #123, #129 ) ;
#109 = PRESENTATION_LAYER_ASSIGNMENT (  '', '', ( #207 ) ) ;
#110 = VERTEX_POINT ( 'NONE', #365 ) ;
#111 = CARTESIAN_POINT ( 'NONE',  ( 0.0000000000000000000, 0.0000000000000000000, 0.2755909999999999749 ) ) ;
#112 = CARTESIAN_POINT ( 'NONE',  ( 0.0000000000000000000, 0.0000000000000000000, 0.0000000000000000000 ) ) ;
#113 = AXIS2_PLACEMENT_3D ( 'NONE', #126, #350, #330 ) ;
#114 = AXIS2_PLACEMENT_3D ( 'NONE', #355, #4, #101 ) ;
#115 = EDGE_CURVE ( 'NONE', #348, #198, #57, .T. ) ;
#116 = DIRECTION ( 'NONE',  ( 0.0000000000000000000, 0.0000000000000000000, 1.000000000000000000 ) ) ;
#117 = CIRCLE ( 'NONE', #342, 0.1181100000000000066 ) ;
#118 = PRODUCT_DEFINITION ( 'UNKNOWN', '', #162, #137 ) ;
#119 = ORIENTED_EDGE ( 'NONE', *, *, #58, .T. ) ;
#120 = CARTESIAN_POINT ( 'NONE',  ( 0.0000000000000000000, 0.0000000000000000000, 2.229093999999999465 ) ) ;
#121 = ORIENTED_EDGE ( 'NONE', *, *, #159, .F. ) ;
#122 = SURFACE_STYLE_FILL_AREA ( #320 ) ;
#123 = DIRECTION ( 'NONE',  ( -0.0000000000000000000, 0.0000000000000000000, -1.000000000000000000 ) ) ;
#124 = VECTOR ( 'NONE', #184, 39.37007874015748854 ) ;
#125 = CIRCLE ( 'NONE', #114, 0.1181100000000000066 ) ;
#126 = CARTESIAN_POINT ( 'NONE',  ( 0.0000000000000000000, 0.0000000000000000000, 0.08988159042539359267 ) ) ;
#127 = SURFACE_STYLE_USAGE ( .BOTH. , #378 ) ;
#128 = CARTESIAN_POINT ( 'NONE',  ( 0.0000000000000000000, 0.0000000000000000000, 0.0000000000000000000 ) ) ;
#129 = DIRECTION ( 'NONE',  ( -1.000000000000000000, 0.0000000000000000000, 0.0000000000000000000 ) ) ;
#130 = CARTESIAN_POINT ( 'NONE',  ( 0.0000000000000000000, 0.0000000000000000000, 0.2755909999999999749 ) ) ;
#131 = ADVANCED_FACE ( 'NONE', ( #227 ), #343, .T. ) ;
#132 = ORIENTED_EDGE ( 'NONE', *, *, #159, .T. ) ;
#133 = DIRECTION ( 'NONE',  ( -1.000000000000000000, 0.0000000000000000000, 0.0000000000000000000 ) ) ;
#134 = ORIENTED_EDGE ( 'NONE', *, *, #247, .F. ) ;
#135 = DIRECTION ( 'NONE',  ( 0.0000000000000000000, 0.0000000000000000000, -1.000000000000000000 ) ) ;
#136 = EDGE_CURVE ( 'NONE', #3, #263, #117, .T. ) ;
#137 = PRODUCT_DEFINITION_CONTEXT ( 'detailed design', #223, 'design' ) ;
#138 = ORIENTED_EDGE ( 'NONE', *, *, #314, .T. ) ;
#139 = APPLICATION_CONTEXT ( 'automotive_design' ) ;
#140 = EDGE_LOOP ( 'NONE', ( #21, #157, #138, #121 ) ) ;
#141 = VECTOR ( 'NONE', #333, 39.37007874015748143 ) ;
#142 = LINE ( 'NONE', #163, #26 ) ;
#143 = CARTESIAN_POINT ( 'NONE',  ( 0.0000000000000000000, 0.0000000000000000000, 0.08988159042539359267 ) ) ;
#144 = AXIS2_PLACEMENT_3D ( 'NONE', #362, #54, #222 ) ;
#145 = ADVANCED_BREP_SHAPE_REPRESENTATION ( 'Micro_MMBM-020-7X', ( #367, #10 ), #272 ) ;
#146 = ORIENTED_EDGE ( 'NONE', *, *, #72, .F. ) ;
#147 = ORIENTED_EDGE ( 'NONE', *, *, #341, .T. ) ;
#148 = CLOSED_SHELL ( 'NONE', ( #131, #177, #280, #303, #170, #284, #312, #89, #179, #319, #256, #268, #102 ) ) ;
#149 = CONICAL_SURFACE ( 'NONE', #315, 0.03936606300000000669, 0.1745329251994332254 ) ;
#150 = CARTESIAN_POINT ( 'NONE',  ( -0.03936606300000000669, 0.0000000000000000000, 0.0000000000000000000 ) ) ;
#151 = ORIENTED_EDGE ( 'NONE', *, *, #185, .F. ) ;
#152 = FACE_OUTER_BOUND ( 'NONE', #140, .T. ) ;
#153 = CARTESIAN_POINT ( 'NONE',  ( -0.1181100000000000066, 0.0000000000000000000, 2.229093999999999465 ) ) ;
#154 = LINE ( 'NONE', #215, #298 ) ;
#155 = ORIENTED_EDGE ( 'NONE', *, *, #48, .T. ) ;
#156 = CARTESIAN_POINT ( 'NONE',  ( 0.0000000000000000000, 0.0000000000000000000, 0.2755909999999999749 ) ) ;
#157 = ORIENTED_EDGE ( 'NONE', *, *, #329, .T. ) ;
#158 = CIRCLE ( 'NONE', #76, 0.03936606300000000669 ) ;
#159 = EDGE_CURVE ( 'NONE', #331, #110, #83, .T. ) ;
#160 = CIRCLE ( 'NONE', #144, 0.1031100000000002570 ) ;
#161 = FACE_OUTER_BOUND ( 'NONE', #65, .T. ) ;
#162 = PRODUCT_DEFINITION_FORMATION_WITH_SPECIFIED_SOURCE ( 'ANY', '', #183, .NOT_KNOWN. ) ;
#163 = CARTESIAN_POINT ( 'NONE',  ( 0.1031100000000002570, 1.262733314600838667E-17, 2.244094000000000033 ) ) ;
#164 = CARTESIAN_POINT ( 'NONE',  ( 0.03740150000000002500, 4.580362725830975873E-18, 0.0000000000000000000 ) ) ;
#165 = DIRECTION ( 'NONE',  ( 0.1736481776669306087, 2.126576849575774688E-17, -0.9848077530122080203 ) ) ;
#166 = EDGE_CURVE ( 'NONE', #195, #348, #258, .T. ) ;
#167 = DIRECTION ( 'NONE',  ( -0.0000000000000000000, -0.0000000000000000000, -1.000000000000000000 ) ) ;
#168 = DIRECTION ( 'NONE',  ( -1.000000000000000000, 0.0000000000000000000, 0.0000000000000000000 ) ) ;
#169 = DIRECTION ( 'NONE',  ( 1.000000000000000000, 0.0000000000000000000, -0.0000000000000000000 ) ) ;
#170 = ADVANCED_FACE ( 'NONE', ( #97 ), #235, .T. ) ;
#171 = CIRCLE ( 'NONE', #282, 0.1181100000000000066 ) ;
#172 =( GEOMETRIC_REPRESENTATION_CONTEXT ( 3 ) GLOBAL_UNCERTAINTY_ASSIGNED_CONTEXT ( ( #79 ) ) GLOBAL_UNIT_ASSIGNED_CONTEXT ( ( #209, #2, #41 ) ) REPRESENTATION_CONTEXT ( 'NONE', 'WORKASPACE' ) );
#173 = EDGE_CURVE ( 'NONE', #3, #219, #154, .T. ) ;
#174 = ORIENTED_EDGE ( 'NONE', *, *, #55, .T. ) ;
#175 =( NAMED_UNIT ( * ) SI_UNIT ( $, .STERADIAN. ) SOLID_ANGLE_UNIT ( ) );
#176 = VERTEX_POINT ( 'NONE', #99 ) ;
#177 = ADVANCED_FACE ( 'NONE', ( #290 ), #45, .T. ) ;
#178 =( NAMED_UNIT ( * ) PLANE_ANGLE_UNIT ( ) SI_UNIT ( $, .RADIAN. ) );
#179 = ADVANCED_FACE ( 'NONE', ( #354, #40 ), #214, .T. ) ;
#180 = CARTESIAN_POINT ( 'NONE',  ( 0.1181100000000000066, 1.446430334472939084E-17, 0.2755909999999999749 ) ) ;
#181 =( CONVERSION_BASED_UNIT ( 'INCH', #64 ) LENGTH_UNIT ( ) NAMED_UNIT ( #358 ) );
#182 = ORIENTED_EDGE ( 'NONE', *, *, #252, .T. ) ;
#183 = PRODUCT ( 'Micro_MMBM-020-7X', 'Micro_MMBM-020-7X', '', ( #349 ) ) ;
#184 = DIRECTION ( 'NONE',  ( -0.7071067811865358044, 0.0000000000000000000, -0.7071067811865590080 ) ) ;
#185 = EDGE_CURVE ( 'NONE', #263, #192, #212, .T. ) ;
#186 = DIRECTION ( 'NONE',  ( -0.0000000000000000000, -0.0000000000000000000, -1.000000000000000000 ) ) ;
#187 = CARTESIAN_POINT ( 'NONE',  ( -0.03936606300000000669, 0.0000000000000000000, 0.07874000000000000443 ) ) ;
#188 = AXIS2_PLACEMENT_3D ( 'NONE', #111, #105, #56 ) ;
#189 = DIRECTION ( 'NONE',  ( -0.0000000000000000000, -0.0000000000000000000, -1.000000000000000000 ) ) ;
#190 = ORIENTED_EDGE ( 'NONE', *, *, #66, .T. ) ;
#191 = EDGE_CURVE ( 'NONE', #263, #3, #361, .T. ) ;
#192 = VERTEX_POINT ( 'NONE', #69 ) ;
#193 = EDGE_CURVE ( 'NONE', #32, #263, #299, .T. ) ;
#194 = AXIS2_PLACEMENT_3D ( 'NONE', #1, #328, #100 ) ;
#195 = VERTEX_POINT ( 'NONE', #245 ) ;
#196 = COLOUR_RGB ( '',0.7921568627450980005, 0.8196078431372548767, 0.9333333333333333481 ) ;
#197 =( LENGTH_UNIT ( ) NAMED_UNIT ( * ) SI_UNIT ( $, .METRE. ) );
#198 = VERTEX_POINT ( 'NONE', #150 ) ;
#199 = ORIENTED_EDGE ( 'NONE', *, *, #66, .F. ) ;
#200 = DIRECTION ( 'NONE',  ( -0.0000000000000000000, -0.0000000000000000000, -1.000000000000000000 ) ) ;
#201 = CARTESIAN_POINT ( 'NONE',  ( 0.0000000000000000000, 0.0000000000000000000, 2.244094000000000033 ) ) ;
#202 =( GEOMETRIC_REPRESENTATION_CONTEXT ( 3 ) GLOBAL_UNCERTAINTY_ASSIGNED_CONTEXT ( ( #18 ) ) GLOBAL_UNIT_ASSIGNED_CONTEXT ( ( #181, #218, #251 ) ) REPRESENTATION_CONTEXT ( 'NONE', 'WORKASPACE' ) );
#203 = CONICAL_SURFACE ( 'NONE', #353, 0.1031100000000002570, 0.7853981633974318477 ) ;
#204 = EDGE_LOOP ( 'NONE', ( #107, #368 ) ) ;
#205 = DIRECTION ( 'NONE',  ( 0.0000000000000000000, 0.0000000000000000000, -1.000000000000000000 ) ) ;
#206 = APPLICATION_PROTOCOL_DEFINITION ( 'draft international standard', 'automotive_design', 1998, #223 ) ;
#207 = STYLED_ITEM ( 'NONE', ( #15 ), #145 ) ;
#208 = DIRECTION ( 'NONE',  ( -1.000000000000000000, 0.0000000000000000000, 0.0000000000000000000 ) ) ;
#209 =( CONVERSION_BASED_UNIT ( 'INCH', #232 ) LENGTH_UNIT ( ) NAMED_UNIT ( #335 ) );
#210 = ORIENTED_EDGE ( 'NONE', *, *, #34, .T. ) ;
#211 = CIRCLE ( 'NONE', #188, 0.03740150000000003194 ) ;
#212 = LINE ( 'NONE', #326, #78 ) ;
#213 = DIRECTION ( 'NONE',  ( -1.000000000000000000, 0.0000000000000000000, 0.0000000000000000000 ) ) ;
#214 = PLANE ( 'NONE',  #108 ) ;
#215 = CARTESIAN_POINT ( 'NONE',  ( 0.1181100000000000066, 1.446430334472939084E-17, 2.244094000000000033 ) ) ;
#216 = DIRECTION ( 'NONE',  ( -1.000000000000000000, 0.0000000000000000000, 0.0000000000000000000 ) ) ;
#217 = CARTESIAN_POINT ( 'NONE',  ( 0.0000000000000000000, 0.0000000000000000000, 0.07874000000000000443 ) ) ;
#218 =( NAMED_UNIT ( * ) PLANE_ANGLE_UNIT ( ) SI_UNIT ( $, .RADIAN. ) );
#219 = VERTEX_POINT ( 'NONE', #180 ) ;
#220 = CIRCLE ( 'NONE', #113, 0.03740150000000001113 ) ;
#221 = ORIENTED_EDGE ( 'NONE', *, *, #58, .F. ) ;
#222 = DIRECTION ( 'NONE',  ( 1.000000000000000000, 0.0000000000000000000, 0.0000000000000000000 ) ) ;
#223 = APPLICATION_CONTEXT ( 'automotive_design' ) ;
#224 = CARTESIAN_POINT ( 'NONE',  ( 0.0000000000000000000, 0.0000000000000000000, 2.244094000000000033 ) ) ;
#225 = CIRCLE ( 'NONE', #226, 0.03936606300000000669 ) ;
#226 = AXIS2_PLACEMENT_3D ( 'NONE', #217, #308, #276 ) ;
#227 = FACE_OUTER_BOUND ( 'NONE', #248, .T. ) ;
#228 = VECTOR ( 'NONE', #257, 39.37007874015748143 ) ;
#229 = LINE ( 'NONE', #286, #366 ) ;
#230 = AXIS2_PLACEMENT_3D ( 'NONE', #130, #35, #267 ) ;
#231 = AXIS2_PLACEMENT_3D ( 'NONE', #143, #189, #63 ) ;
#232 = LENGTH_MEASURE_WITH_UNIT ( LENGTH_MEASURE( 0.02539999999999999897 ), #197 );
#233 = EDGE_LOOP ( 'NONE', ( #221, #132, #190, #307 ) ) ;
#234 = DIMENSIONAL_EXPONENTS ( 1.000000000000000000, 0.0000000000000000000, 0.0000000000000000000, 0.0000000000000000000, 0.0000000000000000000, 0.0000000000000000000, 0.0000000000000000000 ) ;
#235 = CYLINDRICAL_SURFACE ( 'NONE', #31, 0.1181100000000000066 ) ;
#236 = ORIENTED_EDGE ( 'NONE', *, *, #300, .T. ) ;
#237 = DIRECTION ( 'NONE',  ( 1.000000000000000000, 0.0000000000000000000, 0.0000000000000000000 ) ) ;
#238 = AXIS2_PLACEMENT_3D ( 'NONE', #264, #93, #213 ) ;
#239 = DIRECTION ( 'NONE',  ( -1.000000000000000000, 0.0000000000000000000, 0.0000000000000000000 ) ) ;
#240 = AXIS2_PLACEMENT_3D ( 'NONE', #20, #269, #295 ) ;
#241 = CARTESIAN_POINT ( 'NONE',  ( 0.03936606300000000669, 4.820952304798306567E-18, 0.0000000000000000000 ) ) ;
#242 = DIRECTION ( 'NONE',  ( 1.000000000000000000, 0.0000000000000000000, 0.0000000000000000000 ) ) ;
#243 = EDGE_CURVE ( 'NONE', #110, #331, #220, .T. ) ;
#244 = ORIENTED_EDGE ( 'NONE', *, *, #261, .T. ) ;
#245 = CARTESIAN_POINT ( 'NONE',  ( 0.03936606300000000669, 4.820952304798306567E-18, 0.07874000000000000443 ) ) ;
#246 = AXIS2_PLACEMENT_3D ( 'NONE', #301, #24, #5 ) ;
#247 = EDGE_CURVE ( 'NONE', #198, #87, #337, .T. ) ;
#248 = EDGE_LOOP ( 'NONE', ( #317, #244, #134, #22 ) ) ;
#249 = ORIENTED_EDGE ( 'NONE', *, *, #191, .F. ) ;
#250 = DIRECTION ( 'NONE',  ( 1.000000000000000000, 0.0000000000000000000, -0.0000000000000000000 ) ) ;
#251 =( NAMED_UNIT ( * ) SI_UNIT ( $, .STERADIAN. ) SOLID_ANGLE_UNIT ( ) );
#252 = EDGE_CURVE ( 'NONE', #192, #219, #171, .T. ) ;
#253 = CONICAL_SURFACE ( 'NONE', #44, 0.1031100000000002570, 0.7853981633974318477 ) ;
#254 = ORIENTED_EDGE ( 'NONE', *, *, #115, .T. ) ;
#255 = CARTESIAN_POINT ( 'NONE',  ( 0.03936606300000000669, 4.820952304798306567E-18, 0.0000000000000000000 ) ) ;
#256 = ADVANCED_FACE ( 'NONE', ( #152 ), #332, .T. ) ;
#257 = DIRECTION ( 'NONE',  ( -0.0000000000000000000, -0.0000000000000000000, -1.000000000000000000 ) ) ;
#258 = CIRCLE ( 'NONE', #194, 0.03936606300000000669 ) ;
#259 = ORIENTED_EDGE ( 'NONE', *, *, #166, .T. ) ;
#260 = EDGE_LOOP ( 'NONE', ( #146, #106, #92, #33 ) ) ;
#261 = EDGE_CURVE ( 'NONE', #195, #87, #42, .T. ) ;
#262 = APPLICATION_PROTOCOL_DEFINITION ( 'draft international standard', 'automotive_design', 1998, #139 ) ;
#263 = VERTEX_POINT ( 'NONE', #153 ) ;
#264 = CARTESIAN_POINT ( 'NONE',  ( 0.0000000000000000000, 0.0000000000000000000, 0.07874000000000000443 ) ) ;
#265 = DIRECTION ( 'NONE',  ( 0.0000000000000000000, 0.0000000000000000000, 1.000000000000000000 ) ) ;
#266 = DIRECTION ( 'NONE',  ( -0.0000000000000000000, -0.0000000000000000000, -1.000000000000000000 ) ) ;
#267 = DIRECTION ( 'NONE',  ( -1.000000000000000000, 0.0000000000000000000, 0.0000000000000000000 ) ) ;
#268 = ADVANCED_FACE ( 'NONE', ( #270 ), #94, .T. ) ;
#269 = DIRECTION ( 'NONE',  ( -0.0000000000000000000, -0.0000000000000000000, -1.000000000000000000 ) ) ;
#270 = FACE_OUTER_BOUND ( 'NONE', #288, .T. ) ;
#271 = AXIS2_PLACEMENT_3D ( 'NONE', #38, #266, #208 ) ;
#272 =( GEOMETRIC_REPRESENTATION_CONTEXT ( 3 ) GLOBAL_UNCERTAINTY_ASSIGNED_CONTEXT ( ( #52 ) ) GLOBAL_UNIT_ASSIGNED_CONTEXT ( ( #90, #178, #175 ) ) REPRESENTATION_CONTEXT ( 'NONE', 'WORKASPACE' ) );
#273 = CARTESIAN_POINT ( 'NONE',  ( 0.0000000000000000000, 0.0000000000000000000, 2.244094000000000033 ) ) ;
#274 = FILL_AREA_STYLE ('',( #347 ) ) ;
#275 = DIRECTION ( 'NONE',  ( -0.0000000000000000000, -0.0000000000000000000, -1.000000000000000000 ) ) ;
#276 = DIRECTION ( 'NONE',  ( -1.000000000000000000, 0.0000000000000000000, 0.0000000000000000000 ) ) ;
#277 = AXIS2_PLACEMENT_3D ( 'NONE', #323, #6, #239 ) ;
#278 = ORIENTED_EDGE ( 'NONE', *, *, #314, .F. ) ;
#279 = DIRECTION ( 'NONE',  ( 0.7071067811865358044, 8.659560562354788645E-17, -0.7071067811865590080 ) ) ;
#280 = ADVANCED_FACE ( 'NONE', ( #11 ), #149, .T. ) ;
#281 = CARTESIAN_POINT ( 'NONE',  ( 0.03936606300000000669, 4.820952304798306567E-18, 0.07874000000000000443 ) ) ;
#282 = AXIS2_PLACEMENT_3D ( 'NONE', #156, #275, #216 ) ;
#283 = VERTEX_POINT ( 'NONE', #293 ) ;
#284 = ADVANCED_FACE ( 'NONE', ( #304 ), #46, .T. ) ;
#285 = DIRECTION ( 'NONE',  ( -1.000000000000000000, 0.0000000000000000000, 0.0000000000000000000 ) ) ;
#286 = CARTESIAN_POINT ( 'NONE',  ( -0.03740150000000002500, 0.0000000000000000000, 0.0000000000000000000 ) ) ;
#287 = CIRCLE ( 'NONE', #230, 0.03740150000000003194 ) ;
#288 = EDGE_LOOP ( 'NONE', ( #73, #259, #254, #359 ) ) ;
#289 = AXIS2_PLACEMENT_3D ( 'NONE', #374, #116, #377 ) ;
#290 = FACE_OUTER_BOUND ( 'NONE', #373, .T. ) ;
#291 = DIRECTION ( 'NONE',  ( -0.0000000000000000000, -0.0000000000000000000, -1.000000000000000000 ) ) ;
#292 = ORIENTED_EDGE ( 'NONE', *, *, #72, .T. ) ;
#293 = CARTESIAN_POINT ( 'NONE',  ( 0.03740150000000003194, 4.580362725830976644E-18, 0.2755909999999999749 ) ) ;
#294 = DIRECTION ( 'NONE',  ( -1.000000000000000000, 0.0000000000000000000, 0.0000000000000000000 ) ) ;
#295 = DIRECTION ( 'NONE',  ( -1.000000000000000000, 0.0000000000000000000, 0.0000000000000000000 ) ) ;
#296 = SURFACE_STYLE_FILL_AREA ( #274 ) ;
#297 = DIRECTION ( 'NONE',  ( -0.0000000000000000000, -0.0000000000000000000, -1.000000000000000000 ) ) ;
#298 = VECTOR ( 'NONE', #297, 39.37007874015748143 ) ;
#299 = LINE ( 'NONE', #67, #124 ) ;
#300 = EDGE_CURVE ( 'NONE', #351, #32, #310, .T. ) ;
#301 = CARTESIAN_POINT ( 'NONE',  ( 0.0000000000000000000, 0.0000000000000000000, 2.244094000000000033 ) ) ;
#302 = ORIENTED_EDGE ( 'NONE', *, *, #243, .T. ) ;
#303 = ADVANCED_FACE ( 'NONE', ( #36 ), #253, .T. ) ;
#304 = FACE_OUTER_BOUND ( 'NONE', #91, .T. ) ;
#305 = LINE ( 'NONE', #27, #141 ) ;
#306 = MECHANICAL_DESIGN_GEOMETRIC_PRESENTATION_REPRESENTATION (  '', ( #207 ), #202 ) ;
#307 = ORIENTED_EDGE ( 'NONE', *, *, #166, .F. ) ;
#308 = DIRECTION ( 'NONE',  ( -0.0000000000000000000, -0.0000000000000000000, -1.000000000000000000 ) ) ;
#309 = CARTESIAN_POINT ( 'NONE',  ( 0.1181100000000000066, 1.446430334472939084E-17, 2.229093999999999465 ) ) ;
#310 = CIRCLE ( 'NONE', #289, 0.1031100000000002570 ) ;
#311 = DIRECTION ( 'NONE',  ( 1.000000000000000000, 0.0000000000000000000, 0.0000000000000000000 ) ) ;
#312 = ADVANCED_FACE ( 'NONE', ( #70 ), #372, .T. ) ;
#313 = DIRECTION ( 'NONE',  ( 0.0000000000000000000, 0.0000000000000000000, 1.000000000000000000 ) ) ;
#314 = EDGE_CURVE ( 'NONE', #176, #110, #229, .T. ) ;
#315 = AXIS2_PLACEMENT_3D ( 'NONE', #356, #364, #168 ) ;
#316 = EDGE_LOOP ( 'NONE', ( #210, #236 ) ) ;
#317 = ORIENTED_EDGE ( 'NONE', *, *, #29, .T. ) ;
#318 =( LENGTH_UNIT ( ) NAMED_UNIT ( * ) SI_UNIT ( $, .METRE. ) );
#319 = ADVANCED_FACE ( 'NONE', ( #85 ), #30, .T. ) ;
#320 = FILL_AREA_STYLE ('',( #68 ) ) ;
#321 = VECTOR ( 'NONE', #74, 39.37007874015748143 ) ;
#322 = STYLED_ITEM ( 'NONE', ( #325 ), #367 ) ;
#323 = CARTESIAN_POINT ( 'NONE',  ( 0.0000000000000000000, 0.0000000000000000000, 0.0000000000000000000 ) ) ;
#324 = ORIENTED_EDGE ( 'NONE', *, *, #334, .F. ) ;
#325 = PRESENTATION_STYLE_ASSIGNMENT (( #352 ) ) ;
#326 = CARTESIAN_POINT ( 'NONE',  ( -0.1181100000000000066, 0.0000000000000000000, 2.244094000000000033 ) ) ;
#327 = DIRECTION ( 'NONE',  ( -1.000000000000000000, 0.0000000000000000000, 0.0000000000000000000 ) ) ;
#328 = DIRECTION ( 'NONE',  ( -0.0000000000000000000, -0.0000000000000000000, -1.000000000000000000 ) ) ;
#329 = EDGE_CURVE ( 'NONE', #283, #176, #287, .T. ) ;
#330 = DIRECTION ( 'NONE',  ( -1.000000000000000000, 0.0000000000000000000, 0.0000000000000000000 ) ) ;
#331 = VERTEX_POINT ( 'NONE', #13 ) ;
#332 = CYLINDRICAL_SURFACE ( 'NONE', #240, 0.03740150000000002500 ) ;
#333 = DIRECTION ( 'NONE',  ( -0.1736481776669306087, 0.0000000000000000000, -0.9848077530122080203 ) ) ;
#334 = EDGE_CURVE ( 'NONE', #219, #192, #125, .T. ) ;
#335 = DIMENSIONAL_EXPONENTS ( 1.000000000000000000, 0.0000000000000000000, 0.0000000000000000000, 0.0000000000000000000, 0.0000000000000000000, 0.0000000000000000000, 0.0000000000000000000 ) ;
#336 = CARTESIAN_POINT ( 'NONE',  ( -0.1031100000000002570, 0.0000000000000000000, 2.244094000000000033 ) ) ;
#337 = CIRCLE ( 'NONE', #376, 0.03936606300000000669 ) ;
#338 = ORIENTED_EDGE ( 'NONE', *, *, #252, .F. ) ;
#339 = ORIENTED_EDGE ( 'NONE', *, *, #243, .F. ) ;
#340 = LINE ( 'NONE', #164, #96 ) ;
#341 = EDGE_CURVE ( 'NONE', #87, #198, #158, .T. ) ;
#342 = AXIS2_PLACEMENT_3D ( 'NONE', #28, #84, #311 ) ;
#343 = CYLINDRICAL_SURFACE ( 'NONE', #62, 0.03936606300000000669 ) ;
#344 = DIRECTION ( 'NONE',  ( -0.0000000000000000000, -0.0000000000000000000, -1.000000000000000000 ) ) ;
#345 = PRODUCT_DEFINITION_SHAPE ( 'NONE', 'NONE',  #118 ) ;
#346 = ORIENTED_EDGE ( 'NONE', *, *, #29, .F. ) ;
#347 = FILL_AREA_STYLE_COLOUR ( '', #370 ) ;
#348 = VERTEX_POINT ( 'NONE', #187 ) ;
#349 = PRODUCT_CONTEXT ( 'NONE', #139, 'mechanical' ) ;
#350 = DIRECTION ( 'NONE',  ( -0.0000000000000000000, -0.0000000000000000000, -1.000000000000000000 ) ) ;
#351 = VERTEX_POINT ( 'NONE', #17 ) ;
#352 = SURFACE_STYLE_USAGE ( .BOTH. , #43 ) ;
#353 = AXIS2_PLACEMENT_3D ( 'NONE', #224, #135, #50 ) ;
#354 = FACE_BOUND ( 'NONE', #204, .T. ) ;
#355 = CARTESIAN_POINT ( 'NONE',  ( 0.0000000000000000000, 0.0000000000000000000, 0.2755909999999999749 ) ) ;
#356 = CARTESIAN_POINT ( 'NONE',  ( 0.0000000000000000000, 0.0000000000000000000, 0.07874000000000000443 ) ) ;
#357 = CARTESIAN_POINT ( 'NONE',  ( 0.03740150000000003194, 0.0000000000000000000, 0.2755909999999999749 ) ) ;
#358 = DIMENSIONAL_EXPONENTS ( 1.000000000000000000, 0.0000000000000000000, 0.0000000000000000000, 0.0000000000000000000, 0.0000000000000000000, 0.0000000000000000000, 0.0000000000000000000 ) ;
#359 = ORIENTED_EDGE ( 'NONE', *, *, #341, .F. ) ;
#360 = DIRECTION ( 'NONE',  ( -1.000000000000000000, 0.0000000000000000000, 0.0000000000000000000 ) ) ;
#361 = CIRCLE ( 'NONE', #71, 0.1181100000000000066 ) ;
#362 = CARTESIAN_POINT ( 'NONE',  ( 0.0000000000000000000, 0.0000000000000000000, 2.244094000000000033 ) ) ;
#363 = PLANE ( 'NONE',  #51 ) ;
#364 = DIRECTION ( 'NONE',  ( -0.0000000000000000000, -0.0000000000000000000, -1.000000000000000000 ) ) ;
#365 = CARTESIAN_POINT ( 'NONE',  ( -0.03740150000000001113, 0.0000000000000000000, 0.08988159042539359267 ) ) ;
#366 = VECTOR ( 'NONE', #344, 39.37007874015748143 ) ;
#367 = MANIFOLD_SOLID_BREP ( 'Cut-Revolve1', #148 ) ;
#368 = ORIENTED_EDGE ( 'NONE', *, *, #329, .F. ) ;
#369 = CARTESIAN_POINT ( 'NONE',  ( -0.03936606300000000669, 0.0000000000000000000, 0.0000000000000000000 ) ) ;
#370 = COLOUR_RGB ( '',0.7921568627450980005, 0.8196078431372548767, 0.9333333333333333481 ) ;
#371 = PRESENTATION_LAYER_ASSIGNMENT (  '', '', ( #322 ) ) ;
#372 = PLANE ( 'NONE',  #88 ) ;
#373 = EDGE_LOOP ( 'NONE', ( #155, #174, #339, #278 ) ) ;
#374 = CARTESIAN_POINT ( 'NONE',  ( 0.0000000000000000000, 0.0000000000000000000, 2.244094000000000033 ) ) ;
#375 = ORIENTED_EDGE ( 'NONE', *, *, #300, .F. ) ;
#376 = AXIS2_PLACEMENT_3D ( 'NONE', #47, #291, #360 ) ;
#377 = DIRECTION ( 'NONE',  ( 1.000000000000000000, 0.0000000000000000000, 0.0000000000000000000 ) ) ;
#378 = SURFACE_SIDE_STYLE ('',( #296 ) ) ;
#379 = ORIENTED_EDGE ( 'NONE', *, *, #173, .T. ) ;
ENDSEC;
END-ISO-10303-21;
