ISO-10303-21;
HEADER;
FILE_DESCRIPTION (( 'STEP AP214' ),
    '1' );
FILE_NAME ('49465.STEP',
    '2023-06-30T22:04:24',
    ( '' ),
    ( '' ),
    'SwSTEP 2.0',
    'SolidWorks 2023',
    '' );
FILE_SCHEMA (( 'AUTOMOTIVE_DESIGN' ));
ENDSEC;

DATA;
#1 = EDGE_LOOP ( 'NONE', ( #82, #313, #108, #97, #254 ) ) ;
#2 = VERTEX_POINT ( 'NONE', #191 ) ;
#3 = VERTEX_POINT ( 'NONE', #343 ) ;
#4 = FILL_AREA_STYLE ('',( #140 ) ) ;
#5 = FILL_AREA_STYLE ('',( #331 ) ) ;
#6 = DIRECTION ( 'NONE',  ( -1.224646799147353454E-16, 1.000000000000000000, -0.000000000000000000 ) ) ;
#7 = AXIS2_PLACEMENT_3D ( 'NONE', #23, #347, #54 ) ;
#8 = AXIS2_PLACEMENT_3D ( 'NONE', #233, #81, #283 ) ;
#9 = DIRECTION ( 'NONE',  ( 0.000000000000000000, 0.000000000000000000, -1.000000000000000000 ) ) ;
#10 = CARTESIAN_POINT ( 'NONE',  ( -0.4999999999999998335, 6.000000000000000888, 0.000000000000000000 ) ) ;
#11 =( GEOMETRIC_REPRESENTATION_CONTEXT ( 3 ) GLOBAL_UNCERTAINTY_ASSIGNED_CONTEXT ( ( #280 ) ) GLOBAL_UNIT_ASSIGNED_CONTEXT ( ( #337, #212, #278 ) ) REPRESENTATION_CONTEXT ( 'NONE', 'WORKASPACE' ) );
#12 = UNCERTAINTY_MEASURE_WITH_UNIT (LENGTH_MEASURE( 1.000000000000000082E-05 ), #256, 'distance_accuracy_value', 'NONE');
#13 = FILL_AREA_STYLE_COLOUR ( '', #162 ) ;
#14 = DIMENSIONAL_EXPONENTS ( 1.000000000000000000, 0.000000000000000000, 0.000000000000000000, 0.000000000000000000, 0.000000000000000000, 0.000000000000000000, 0.000000000000000000 ) ;
#15 = EDGE_CURVE ( 'NONE', #155, #19, #206, .T. ) ;
#16 = LINE ( 'NONE', #176, #295 ) ;
#17 = SURFACE_SIDE_STYLE ('',( #359 ) ) ;
#18 = STYLED_ITEM ( 'NONE', ( #169 ), #59 ) ;
#19 = VERTEX_POINT ( 'NONE', #286 ) ;
#20 = MECHANICAL_DESIGN_GEOMETRIC_PRESENTATION_REPRESENTATION (  '', ( #302 ), #252 ) ;
#21 = COLOUR_RGB ( '',0.7921568627450980005, 0.8196078431372548767, 0.9333333333333333481 ) ;
#22 = DIRECTION ( 'NONE',  ( -1.224646799147353454E-16, 1.000000000000000000, -0.000000000000000000 ) ) ;
#23 = CARTESIAN_POINT ( 'NONE',  ( 0.000000000000000000, 3.250000000000000000, 0.000000000000000000 ) ) ;
#24 = STYLED_ITEM ( 'NONE', ( #327 ), #63 ) ;
#25 = SURFACE_STYLE_FILL_AREA ( #222 ) ;
#26 = CARTESIAN_POINT ( 'NONE',  ( -1.224646799147354440E-16, 6.000000000000000888, 0.000000000000000000 ) ) ;
#27 = ORIENTED_EDGE ( 'NONE', *, *, #170, .F. ) ;
#28 =( NAMED_UNIT ( * ) SI_UNIT ( $, .STERADIAN. ) SOLID_ANGLE_UNIT ( ) );
#29 = ORIENTED_EDGE ( 'NONE', *, *, #32, .F. ) ;
#30 = DIRECTION ( 'NONE',  ( -0.000000000000000000, -1.000000000000000000, -0.000000000000000000 ) ) ;
#31 = DIRECTION ( 'NONE',  ( -1.000000000000000000, 0.000000000000000000, 0.000000000000000000 ) ) ;
#32 = EDGE_CURVE ( 'NONE', #53, #267, #160, .T. ) ;
#33 = CARTESIAN_POINT ( 'NONE',  ( -1.224646799147354440E-16, 6.000000000000000888, 0.000000000000000000 ) ) ;
#34 = CARTESIAN_POINT ( 'NONE',  ( 0.000000000000000000, 0.5000000000000000000, 0.000000000000000000 ) ) ;
#35 = FACE_OUTER_BOUND ( 'NONE', #126, .T. ) ;
#36 = CIRCLE ( 'NONE', #80, 0.4999999999999993894 ) ;
#37 = CIRCLE ( 'NONE', #247, 0.5000000000000000000 ) ;
#38 = DIRECTION ( 'NONE',  ( -0.000000000000000000, -1.000000000000000000, -0.000000000000000000 ) ) ;
#39 = EDGE_CURVE ( 'NONE', #164, #263, #246, .T. ) ;
#40 =( NAMED_UNIT ( * ) PLANE_ANGLE_UNIT ( ) SI_UNIT ( $, .RADIAN. ) );
#41 = AXIS2_PLACEMENT_3D ( 'NONE', #113, #38, #201 ) ;
#42 = PRODUCT_CONTEXT ( 'NONE', #100, 'mechanical' ) ;
#43 = AXIS2_PLACEMENT_3D ( 'NONE', #231, #77, #194 ) ;
#44 = ADVANCED_FACE ( 'NONE', ( #189 ), #268, .T. ) ;
#45 = PRESENTATION_LAYER_ASSIGNMENT (  '', '', ( #109 ) ) ;
#46 = PRESENTATION_STYLE_ASSIGNMENT (( #312 ) ) ;
#47 = ORIENTED_EDGE ( 'NONE', *, *, #320, .T. ) ;
#48 = DIRECTION ( 'NONE',  ( -1.224646799147353454E-16, 1.000000000000000000, -0.000000000000000000 ) ) ;
#49 = VECTOR ( 'NONE', #115, 39.37007874015748143 ) ;
#50 = CARTESIAN_POINT ( 'NONE',  ( -0.4999999999999997224, 6.000000000000000888, 0.000000000000000000 ) ) ;
#51 = EDGE_LOOP ( 'NONE', ( #132, #284, #290, #223 ) ) ;
#52 = SURFACE_STYLE_USAGE ( .BOTH. , #262 ) ;
#53 = VERTEX_POINT ( 'NONE', #261 ) ;
#54 = DIRECTION ( 'NONE',  ( 0.000000000000000000, 0.000000000000000000, -1.000000000000000000 ) ) ;
#55 = ADVANCED_FACE ( 'NONE', ( #317 ), #221, .T. ) ;
#56 =( GEOMETRIC_REPRESENTATION_CONTEXT ( 3 ) GLOBAL_UNCERTAINTY_ASSIGNED_CONTEXT ( ( #178 ) ) GLOBAL_UNIT_ASSIGNED_CONTEXT ( ( #243, #177, #338 ) ) REPRESENTATION_CONTEXT ( 'NONE', 'WORKASPACE' ) );
#57 = PRODUCT_DEFINITION_FORMATION_WITH_SPECIFIED_SOURCE ( 'ANY', '', #72, .NOT_KNOWN. ) ;
#58 = SURFACE_STYLE_FILL_AREA ( #146 ) ;
#59 = ADVANCED_FACE ( 'NONE', ( #301 ), #139, .T. ) ;
#60 = CYLINDRICAL_SURFACE ( 'NONE', #64, 0.4999999999999997780 ) ;
#61 = CARTESIAN_POINT ( 'NONE',  ( -3.061616997868383018E-17, 0.000000000000000000, 0.000000000000000000 ) ) ;
#62 = MECHANICAL_DESIGN_GEOMETRIC_PRESENTATION_REPRESENTATION (  '', ( #24 ), #56 ) ;
#63 = ADVANCED_FACE ( 'NONE', ( #245 ), #187, .T. ) ;
#64 = AXIS2_PLACEMENT_3D ( 'NONE', #269, #30, #323 ) ;
#65 =( NAMED_UNIT ( * ) PLANE_ANGLE_UNIT ( ) SI_UNIT ( $, .RADIAN. ) );
#66 =( LENGTH_UNIT ( ) NAMED_UNIT ( * ) SI_UNIT ( $, .METRE. ) );
#67 = CARTESIAN_POINT ( 'NONE',  ( 2.143131898507868297E-16, 3.250000000000000000, 0.000000000000000000 ) ) ;
#68 = DIRECTION ( 'NONE',  ( -1.224646799147353454E-16, 1.000000000000000000, 0.000000000000000000 ) ) ;
#69 = VECTOR ( 'NONE', #365, 39.37007874015748143 ) ;
#70 = CIRCLE ( 'NONE', #120, 0.5000000000000000000 ) ;
#71 = APPLICATION_PROTOCOL_DEFINITION ( 'draft international standard', 'automotive_design', 1998, #100 ) ;
#72 = PRODUCT ( '49465', '49465', '', ( #42 ) ) ;
#73 = ORIENTED_EDGE ( 'NONE', *, *, #224, .T. ) ;
#74 = PRESENTATION_LAYER_ASSIGNMENT (  '', '', ( #302 ) ) ;
#75 = AXIS2_PLACEMENT_3D ( 'NONE', #33, #6, #350 ) ;
#76 = SURFACE_STYLE_FILL_AREA ( #225 ) ;
#77 = DIRECTION ( 'NONE',  ( -0.000000000000000000, -1.000000000000000000, -0.000000000000000000 ) ) ;
#78 = SURFACE_STYLE_FILL_AREA ( #105 ) ;
#79 = ORIENTED_EDGE ( 'NONE', *, *, #372, .T. ) ;
#80 = AXIS2_PLACEMENT_3D ( 'NONE', #250, #276, #251 ) ;
#81 = DIRECTION ( 'NONE',  ( -0.000000000000000000, -1.000000000000000000, -0.000000000000000000 ) ) ;
#82 = ORIENTED_EDGE ( 'NONE', *, *, #224, .F. ) ;
#83 =( NAMED_UNIT ( * ) PLANE_ANGLE_UNIT ( ) SI_UNIT ( $, .RADIAN. ) );
#84 = DIRECTION ( 'NONE',  ( 0.000000000000000000, 0.000000000000000000, -1.000000000000000000 ) ) ;
#85 = DIRECTION ( 'NONE',  ( 0.000000000000000000, 1.000000000000000000, 0.000000000000000000 ) ) ;
#86 = SURFACE_STYLE_FILL_AREA ( #4 ) ;
#87 =( NAMED_UNIT ( * ) PLANE_ANGLE_UNIT ( ) SI_UNIT ( $, .RADIAN. ) );
#88 = FACE_OUTER_BOUND ( 'NONE', #1, .T. ) ;
#89 = ADVANCED_FACE ( 'NONE', ( #172 ), #121, .F. ) ;
#90 = DIRECTION ( 'NONE',  ( 1.000000000000000000, 0.000000000000000000, -1.224646799147353207E-16 ) ) ;
#91 = VECTOR ( 'NONE', #127, 39.37007874015748143 ) ;
#92 =( LENGTH_UNIT ( ) NAMED_UNIT ( * ) SI_UNIT ( $, .METRE. ) );
#93 = ADVANCED_BREP_SHAPE_REPRESENTATION ( '49465', ( #203, #193, #114 ), #11 ) ;
#94 =( LENGTH_UNIT ( ) NAMED_UNIT ( * ) SI_UNIT ( $, .METRE. ) );
#95 = PRESENTATION_STYLE_ASSIGNMENT (( #248 ) ) ;
#96 = PRESENTATION_LAYER_ASSIGNMENT (  '', '', ( #282 ) ) ;
#97 = ORIENTED_EDGE ( 'NONE', *, *, #235, .F. ) ;
#98 = CARTESIAN_POINT ( 'NONE',  ( 0.000000000000000000, 0.5000000000000000000, -0.5000000000000000000 ) ) ;
#99 =( CONVERSION_BASED_UNIT ( 'INCH', #215 ) LENGTH_UNIT ( ) NAMED_UNIT ( #309 ) );
#100 = APPLICATION_CONTEXT ( 'automotive_design' ) ;
#101 = DIRECTION ( 'NONE',  ( -0.000000000000000000, -1.000000000000000000, -0.000000000000000000 ) ) ;
#102 = AXIS2_PLACEMENT_3D ( 'NONE', #218, #152, #367 ) ;
#103 = DIRECTION ( 'NONE',  ( -1.000000000000000000, 0.000000000000000000, 0.000000000000000000 ) ) ;
#104 = COLOUR_RGB ( '',0.7921568627450980005, 0.8196078431372548767, 0.9333333333333333481 ) ;
#105 = FILL_AREA_STYLE ('',( #259 ) ) ;
#106 = DIRECTION ( 'NONE',  ( 0.000000000000000000, 0.000000000000000000, -1.000000000000000000 ) ) ;
#107 = ORIENTED_EDGE ( 'NONE', *, *, #116, .T. ) ;
#108 = ORIENTED_EDGE ( 'NONE', *, *, #368, .T. ) ;
#109 = STYLED_ITEM ( 'NONE', ( #95 ), #157 ) ;
#110 = ORIENTED_EDGE ( 'NONE', *, *, #275, .F. ) ;
#111 = EDGE_CURVE ( 'NONE', #167, #263, #334, .T. ) ;
#112 = CARTESIAN_POINT ( 'NONE',  ( 2.143131898507868297E-16, 3.250000000000000000, 0.000000000000000000 ) ) ;
#113 = CARTESIAN_POINT ( 'NONE',  ( 0.000000000000000000, 0.000000000000000000, 0.000000000000000000 ) ) ;
#114 = AXIS2_PLACEMENT_3D ( 'NONE', #273, #122, #217 ) ;
#115 = DIRECTION ( 'NONE',  ( -0.000000000000000000, -1.000000000000000000, -0.000000000000000000 ) ) ;
#116 = EDGE_CURVE ( 'NONE', #263, #164, #324, .T. ) ;
#117 = SURFACE_SIDE_STYLE ('',( #352 ) ) ;
#118 = DIRECTION ( 'NONE',  ( -1.000000000000000000, 0.000000000000000000, 0.000000000000000000 ) ) ;
#119 = EDGE_CURVE ( 'NONE', #167, #307, #36, .T. ) ;
#120 = AXIS2_PLACEMENT_3D ( 'NONE', #364, #214, #333 ) ;
#121 = PLANE ( 'NONE',  #239 ) ;
#122 = DIRECTION ( 'NONE',  ( 0.000000000000000000, 0.000000000000000000, 1.000000000000000000 ) ) ;
#123 = PRODUCT_DEFINITION_SHAPE ( 'NONE', 'NONE',  #308 ) ;
#124 = SHAPE_DEFINITION_REPRESENTATION ( #123, #93 ) ;
#125 = DIMENSIONAL_EXPONENTS ( 1.000000000000000000, 0.000000000000000000, 0.000000000000000000, 0.000000000000000000, 0.000000000000000000, 0.000000000000000000, 0.000000000000000000 ) ;
#126 = EDGE_LOOP ( 'NONE', ( #234, #107 ) ) ;
#127 = DIRECTION ( 'NONE',  ( -1.224646799147353454E-16, 1.000000000000000000, -0.000000000000000000 ) ) ;
#128 = ORIENTED_EDGE ( 'NONE', *, *, #119, .F. ) ;
#129 = CARTESIAN_POINT ( 'NONE',  ( -1.224646799147354440E-16, 6.000000000000000888, 0.000000000000000000 ) ) ;
#130 = PRESENTATION_LAYER_ASSIGNMENT (  '', '', ( #232 ) ) ;
#131 = EDGE_LOOP ( 'NONE', ( #110, #128 ) ) ;
#132 = ORIENTED_EDGE ( 'NONE', *, *, #111, .F. ) ;
#133 = LENGTH_MEASURE_WITH_UNIT ( LENGTH_MEASURE( 0.02539999999999999897 ), #371 );
#134 = ORIENTED_EDGE ( 'NONE', *, *, #182, .F. ) ;
#135 = CLOSED_SHELL ( 'NONE', ( #44, #89, #360, #311 ) ) ;
#136 = STYLED_ITEM ( 'NONE', ( #202 ), #306 ) ;
#137 = DIRECTION ( 'NONE',  ( -1.000000000000000000, 0.000000000000000000, 0.000000000000000000 ) ) ;
#138 = DIRECTION ( 'NONE',  ( 1.224646799147353207E-16, -0.000000000000000000, 1.000000000000000000 ) ) ;
#139 = CYLINDRICAL_SURFACE ( 'NONE', #41, 0.4999999999999997780 ) ;
#140 = FILL_AREA_STYLE_COLOUR ( '', #370 ) ;
#141 = COLOUR_RGB ( '',1.000000000000000000, 0.000000000000000000, 0.000000000000000000 ) ;
#142 = MECHANICAL_DESIGN_GEOMETRIC_PRESENTATION_REPRESENTATION (  '', ( #232 ), #258 ) ;
#143 = CARTESIAN_POINT ( 'NONE',  ( 0.000000000000000000, 3.250000000000000000, -0.4999999999999996114 ) ) ;
#144 = CARTESIAN_POINT ( 'NONE',  ( -6.123233995736766036E-17, 0.5000000000000000000, 0.000000000000000000 ) ) ;
#145 = LENGTH_MEASURE_WITH_UNIT ( LENGTH_MEASURE( 0.02539999999999999897 ), #92 );
#146 = FILL_AREA_STYLE ('',( #349 ) ) ;
#147 = UNCERTAINTY_MEASURE_WITH_UNIT (LENGTH_MEASURE( 1.000000000000000082E-05 ), #99, 'distance_accuracy_value', 'NONE');
#148 = COLOUR_RGB ( '',1.000000000000000000, 0.000000000000000000, 0.000000000000000000 ) ;
#149 =( GEOMETRIC_REPRESENTATION_CONTEXT ( 3 ) GLOBAL_UNCERTAINTY_ASSIGNED_CONTEXT ( ( #249 ) ) GLOBAL_UNIT_ASSIGNED_CONTEXT ( ( #163, #173, #200 ) ) REPRESENTATION_CONTEXT ( 'NONE', 'WORKASPACE' ) );
#150 = CARTESIAN_POINT ( 'NONE',  ( -1.224646799147354440E-16, 6.000000000000000888, 0.000000000000000000 ) ) ;
#151 = CARTESIAN_POINT ( 'NONE',  ( 0.4999999999999994449, 6.000000000000000888, 6.123233995736761105E-17 ) ) ;
#152 = DIRECTION ( 'NONE',  ( 0.000000000000000000, 0.000000000000000000, 1.000000000000000000 ) ) ;
#153 = ORIENTED_EDGE ( 'NONE', *, *, #111, .T. ) ;
#154 =( NAMED_UNIT ( * ) SI_UNIT ( $, .STERADIAN. ) SOLID_ANGLE_UNIT ( ) );
#155 = VERTEX_POINT ( 'NONE', #98 ) ;
#156 = APPLICATION_CONTEXT ( 'automotive_design' ) ;
#157 = ADVANCED_FACE ( 'NONE', ( #274 ), #260, .T. ) ;
#158 = ORIENTED_EDGE ( 'NONE', *, *, #235, .T. ) ;
#159 = FILL_AREA_STYLE_COLOUR ( '', #21 ) ;
#160 = CIRCLE ( 'NONE', #7, 0.4999999999999996114 ) ;
#161 = EDGE_LOOP ( 'NONE', ( #195, #158, #366, #47 ) ) ;
#162 = COLOUR_RGB ( '',1.000000000000000000, 0.000000000000000000, 0.000000000000000000 ) ;
#163 =( CONVERSION_BASED_UNIT ( 'INCH', #190 ) LENGTH_UNIT ( ) NAMED_UNIT ( #14 ) );
#164 = VERTEX_POINT ( 'NONE', #10 ) ;
#165 = ORIENTED_EDGE ( 'NONE', *, *, #170, .T. ) ;
#166 = DIRECTION ( 'NONE',  ( 1.224646799147353454E-16, -1.000000000000000000, 0.000000000000000000 ) ) ;
#167 = VERTEX_POINT ( 'NONE', #257 ) ;
#168 = FACE_OUTER_BOUND ( 'NONE', #51, .T. ) ;
#169 = PRESENTATION_STYLE_ASSIGNMENT (( #299 ) ) ;
#170 = EDGE_CURVE ( 'NONE', #267, #53, #174, .T. ) ;
#171 = DIRECTION ( 'NONE',  ( 1.000000000000000000, 1.224646799147353454E-16, 0.000000000000000000 ) ) ;
#172 = FACE_OUTER_BOUND ( 'NONE', #131, .T. ) ;
#173 =( NAMED_UNIT ( * ) PLANE_ANGLE_UNIT ( ) SI_UNIT ( $, .RADIAN. ) );
#174 = CIRCLE ( 'NONE', #8, 0.4999999999999996114 ) ;
#175 =( NAMED_UNIT ( * ) SI_UNIT ( $, .STERADIAN. ) SOLID_ANGLE_UNIT ( ) );
#176 = CARTESIAN_POINT ( 'NONE',  ( 0.000000000000000000, 0.000000000000000000, -0.4999999999999997780 ) ) ;
#177 =( NAMED_UNIT ( * ) PLANE_ANGLE_UNIT ( ) SI_UNIT ( $, .RADIAN. ) );
#178 = UNCERTAINTY_MEASURE_WITH_UNIT (LENGTH_MEASURE( 1.000000000000000082E-05 ), #243, 'distance_accuracy_value', 'NONE');
#179 = AXIS2_PLACEMENT_3D ( 'NONE', #129, #48, #103 ) ;
#180 = LENGTH_MEASURE_WITH_UNIT ( LENGTH_MEASURE( 0.02539999999999999897 ), #183 );
#181 = DIRECTION ( 'NONE',  ( -1.000000000000000000, 0.000000000000000000, 0.000000000000000000 ) ) ;
#182 = EDGE_CURVE ( 'NONE', #307, #164, #319, .T. ) ;
#183 =( LENGTH_UNIT ( ) NAMED_UNIT ( * ) SI_UNIT ( $, .METRE. ) );
#184 = EDGE_LOOP ( 'NONE', ( #292, #153, #321, #134 ) ) ;
#185 = APPLICATION_PROTOCOL_DEFINITION ( 'draft international standard', 'automotive_design', 1998, #156 ) ;
#186 = DIRECTION ( 'NONE',  ( -1.000000000000000000, -1.224646799147353454E-16, 0.000000000000000000 ) ) ;
#187 = SPHERICAL_SURFACE ( 'NONE', #102, 0.5000000000000000000 ) ;
#188 = SURFACE_SIDE_STYLE ('',( #76 ) ) ;
#189 = FACE_OUTER_BOUND ( 'NONE', #184, .T. ) ;
#190 = LENGTH_MEASURE_WITH_UNIT ( LENGTH_MEASURE( 0.02539999999999999897 ), #342 );
#191 = CARTESIAN_POINT ( 'NONE',  ( -0.5000000000000000000, 0.5000000000000000000, 6.123233995736764803E-17 ) ) ;
#192 = AXIS2_PLACEMENT_3D ( 'NONE', #288, #101, #106 ) ;
#193 = MANIFOLD_SOLID_BREP ( 'Revolve - Tool Body (Straight Shanked)', #135 ) ;
#194 = DIRECTION ( 'NONE',  ( 0.000000000000000000, 0.000000000000000000, -1.000000000000000000 ) ) ;
#195 = ORIENTED_EDGE ( 'NONE', *, *, #255, .F. ) ;
#196 = PLANE ( 'NONE',  #357 ) ;
#197 = DIRECTION ( 'NONE',  ( 0.000000000000000000, -0.000000000000000000, 1.000000000000000000 ) ) ;
#198 = EDGE_CURVE ( 'NONE', #3, #2, #351, .T. ) ;
#199 = MECHANICAL_DESIGN_GEOMETRIC_PRESENTATION_REPRESENTATION (  '', ( #136 ), #240 ) ;
#200 =( NAMED_UNIT ( * ) SI_UNIT ( $, .STERADIAN. ) SOLID_ANGLE_UNIT ( ) );
#201 = DIRECTION ( 'NONE',  ( 0.000000000000000000, 0.000000000000000000, -1.000000000000000000 ) ) ;
#202 = PRESENTATION_STYLE_ASSIGNMENT (( #298 ) ) ;
#203 = MANIFOLD_SOLID_BREP ( 'Revolve - Cutting Edge', #293 ) ;
#204 = CARTESIAN_POINT ( 'NONE',  ( 0.4999999999999996669, 6.000000000000000888, 6.123233995736762338E-17 ) ) ;
#205 =( NAMED_UNIT ( * ) SI_UNIT ( $, .STERADIAN. ) SOLID_ANGLE_UNIT ( ) );
#206 = CIRCLE ( 'NONE', #43, 0.5000000000000000000 ) ;
#207 = AXIS2_PLACEMENT_3D ( 'NONE', #348, #84, #137 ) ;
#208 = SURFACE_SIDE_STYLE ('',( #86 ) ) ;
#209 =( CONVERSION_BASED_UNIT ( 'INCH', #330 ) LENGTH_UNIT ( ) NAMED_UNIT ( #339 ) );
#210 = UNCERTAINTY_MEASURE_WITH_UNIT (LENGTH_MEASURE( 1.000000000000000082E-05 ), #209, 'distance_accuracy_value', 'NONE');
#211 = EDGE_LOOP ( 'NONE', ( #289, #322, #346, #79 ) ) ;
#212 =( NAMED_UNIT ( * ) PLANE_ANGLE_UNIT ( ) SI_UNIT ( $, .RADIAN. ) );
#213 = DIMENSIONAL_EXPONENTS ( 1.000000000000000000, 0.000000000000000000, 0.000000000000000000, 0.000000000000000000, 0.000000000000000000, 0.000000000000000000, 0.000000000000000000 ) ;
#214 = DIRECTION ( 'NONE',  ( -0.000000000000000000, -1.000000000000000000, -0.000000000000000000 ) ) ;
#215 = LENGTH_MEASURE_WITH_UNIT ( LENGTH_MEASURE( 0.02539999999999999897 ), #94 );
#216 = EDGE_LOOP ( 'NONE', ( #165, #73, #344, #369, #361 ) ) ;
#217 = DIRECTION ( 'NONE',  ( 1.000000000000000000, 0.000000000000000000, 0.000000000000000000 ) ) ;
#218 = CARTESIAN_POINT ( 'NONE',  ( -6.123233995736766036E-17, 0.5000000000000000000, 0.000000000000000000 ) ) ;
#219 = LINE ( 'NONE', #241, #49 ) ;
#220 = PRODUCT_RELATED_PRODUCT_CATEGORY ( 'part', '', ( #72 ) ) ;
#221 = PLANE ( 'NONE',  #356 ) ;
#222 = FILL_AREA_STYLE ('',( #159 ) ) ;
#223 = ORIENTED_EDGE ( 'NONE', *, *, #116, .F. ) ;
#224 = EDGE_CURVE ( 'NONE', #53, #3, #219, .T. ) ;
#225 = FILL_AREA_STYLE ('',( #340 ) ) ;
#226 = VERTEX_POINT ( 'NONE', #61 ) ;
#227 = DIMENSIONAL_EXPONENTS ( 1.000000000000000000, 0.000000000000000000, 0.000000000000000000, 0.000000000000000000, 0.000000000000000000, 0.000000000000000000, 0.000000000000000000 ) ;
#228 =( NAMED_UNIT ( * ) PLANE_ANGLE_UNIT ( ) SI_UNIT ( $, .RADIAN. ) );
#229 = PRESENTATION_LAYER_ASSIGNMENT (  '', '', ( #18 ) ) ;
#230 = COLOUR_RGB ( '',1.000000000000000000, 0.000000000000000000, 0.000000000000000000 ) ;
#231 = CARTESIAN_POINT ( 'NONE',  ( 0.000000000000000000, 0.5000000000000000000, 0.000000000000000000 ) ) ;
#232 = STYLED_ITEM ( 'NONE', ( #373 ), #193 ) ;
#233 = CARTESIAN_POINT ( 'NONE',  ( 0.000000000000000000, 3.250000000000000000, 0.000000000000000000 ) ) ;
#234 = ORIENTED_EDGE ( 'NONE', *, *, #39, .T. ) ;
#235 = EDGE_CURVE ( 'NONE', #2, #155, #316, .T. ) ;
#236 = LENGTH_MEASURE_WITH_UNIT ( LENGTH_MEASURE( 0.02539999999999999897 ), #66 );
#237 = LENGTH_MEASURE_WITH_UNIT ( LENGTH_MEASURE( 0.02539999999999999897 ), #329 );
#238 = PRESENTATION_STYLE_ASSIGNMENT (( #305 ) ) ;
#239 = AXIS2_PLACEMENT_3D ( 'NONE', #67, #68, #186 ) ;
#240 =( GEOMETRIC_REPRESENTATION_CONTEXT ( 3 ) GLOBAL_UNCERTAINTY_ASSIGNED_CONTEXT ( ( #332 ) ) GLOBAL_UNIT_ASSIGNED_CONTEXT ( ( #242, #40, #326 ) ) REPRESENTATION_CONTEXT ( 'NONE', 'WORKASPACE' ) );
#241 = CARTESIAN_POINT ( 'NONE',  ( 6.123233995736763571E-17, 0.000000000000000000, 0.4999999999999997780 ) ) ;
#242 =( CONVERSION_BASED_UNIT ( 'INCH', #237 ) LENGTH_UNIT ( ) NAMED_UNIT ( #227 ) );
#243 =( CONVERSION_BASED_UNIT ( 'INCH', #236 ) LENGTH_UNIT ( ) NAMED_UNIT ( #213 ) );
#244 = CARTESIAN_POINT ( 'NONE',  ( -0.4999999999999991673, 3.250000000000000000, 0.000000000000000000 ) ) ;
#245 = FACE_OUTER_BOUND ( 'NONE', #161, .T. ) ;
#246 = CIRCLE ( 'NONE', #265, 0.4999999999999997224 ) ;
#247 = AXIS2_PLACEMENT_3D ( 'NONE', #144, #138, #90 ) ;
#248 = SURFACE_STYLE_USAGE ( .BOTH. , #17 ) ;
#249 = UNCERTAINTY_MEASURE_WITH_UNIT (LENGTH_MEASURE( 1.000000000000000082E-05 ), #163, 'distance_accuracy_value', 'NONE');
#250 = CARTESIAN_POINT ( 'NONE',  ( 2.143131898507868297E-16, 3.250000000000000000, 0.000000000000000000 ) ) ;
#251 = DIRECTION ( 'NONE',  ( -1.000000000000000000, 0.000000000000000000, 0.000000000000000000 ) ) ;
#252 =( GEOMETRIC_REPRESENTATION_CONTEXT ( 3 ) GLOBAL_UNCERTAINTY_ASSIGNED_CONTEXT ( ( #358 ) ) GLOBAL_UNIT_ASSIGNED_CONTEXT ( ( #328, #65, #175 ) ) REPRESENTATION_CONTEXT ( 'NONE', 'WORKASPACE' ) );
#253 = PRESENTATION_LAYER_ASSIGNMENT (  '', '', ( #136 ) ) ;
#254 = ORIENTED_EDGE ( 'NONE', *, *, #198, .F. ) ;
#255 = EDGE_CURVE ( 'NONE', #2, #226, #37, .T. ) ;
#256 =( CONVERSION_BASED_UNIT ( 'INCH', #133 ) LENGTH_UNIT ( ) NAMED_UNIT ( #318 ) );
#257 = CARTESIAN_POINT ( 'NONE',  ( 0.4999999999999996669, 3.250000000000000000, 6.123233995736762338E-17 ) ) ;
#258 =( GEOMETRIC_REPRESENTATION_CONTEXT ( 3 ) GLOBAL_UNCERTAINTY_ASSIGNED_CONTEXT ( ( #12 ) ) GLOBAL_UNIT_ASSIGNED_CONTEXT ( ( #256, #83, #28 ) ) REPRESENTATION_CONTEXT ( 'NONE', 'WORKASPACE' ) );
#259 = FILL_AREA_STYLE_COLOUR ( '', #148 ) ;
#260 = SPHERICAL_SURFACE ( 'NONE', #271, 0.5000000000000000000 ) ;
#261 = CARTESIAN_POINT ( 'NONE',  ( 6.123233995736762338E-17, 3.250000000000000000, 0.4999999999999996114 ) ) ;
#262 = SURFACE_SIDE_STYLE ('',( #25 ) ) ;
#263 = VERTEX_POINT ( 'NONE', #204 ) ;
#264 = DIRECTION ( 'NONE',  ( 0.000000000000000000, 0.000000000000000000, 1.000000000000000000 ) ) ;
#265 = AXIS2_PLACEMENT_3D ( 'NONE', #26, #296, #31 ) ;
#266 = MECHANICAL_DESIGN_GEOMETRIC_PRESENTATION_REPRESENTATION (  '', ( #109 ), #325 ) ;
#267 = VERTEX_POINT ( 'NONE', #143 ) ;
#268 = CYLINDRICAL_SURFACE ( 'NONE', #179, 0.4999999999999996114 ) ;
#269 = CARTESIAN_POINT ( 'NONE',  ( 0.000000000000000000, 0.000000000000000000, 0.000000000000000000 ) ) ;
#270 = SURFACE_STYLE_USAGE ( .BOTH. , #117 ) ;
#271 = AXIS2_PLACEMENT_3D ( 'NONE', #291, #264, #285 ) ;
#272 =( LENGTH_UNIT ( ) NAMED_UNIT ( * ) SI_UNIT ( $, .METRE. ) );
#273 = CARTESIAN_POINT ( 'NONE',  ( 0.000000000000000000, 0.000000000000000000, 0.000000000000000000 ) ) ;
#274 = FACE_OUTER_BOUND ( 'NONE', #211, .T. ) ;
#275 = EDGE_CURVE ( 'NONE', #307, #167, #281, .T. ) ;
#276 = DIRECTION ( 'NONE',  ( -1.224646799147353454E-16, 1.000000000000000000, -0.000000000000000000 ) ) ;
#277 = DIRECTION ( 'NONE',  ( -0.000000000000000000, -1.000000000000000000, -0.000000000000000000 ) ) ;
#278 =( NAMED_UNIT ( * ) SI_UNIT ( $, .STERADIAN. ) SOLID_ANGLE_UNIT ( ) );
#279 = FILL_AREA_STYLE ('',( #13 ) ) ;
#280 = UNCERTAINTY_MEASURE_WITH_UNIT (LENGTH_MEASURE( 1.000000000000000082E-05 ), #337, 'distance_accuracy_value', 'NONE');
#281 = CIRCLE ( 'NONE', #336, 0.4999999999999993894 ) ;
#282 = STYLED_ITEM ( 'NONE', ( #46 ), #203 ) ;
#283 = DIRECTION ( 'NONE',  ( 0.000000000000000000, 0.000000000000000000, -1.000000000000000000 ) ) ;
#284 = ORIENTED_EDGE ( 'NONE', *, *, #119, .T. ) ;
#285 = DIRECTION ( 'NONE',  ( 1.000000000000000000, 0.000000000000000000, 0.000000000000000000 ) ) ;
#286 = CARTESIAN_POINT ( 'NONE',  ( 0.5000000000000000000, 0.5000000000000000000, 0.000000000000000000 ) ) ;
#287 = AXIS2_PLACEMENT_3D ( 'NONE', #150, #22, #181 ) ;
#288 = CARTESIAN_POINT ( 'NONE',  ( 0.000000000000000000, 0.5000000000000000000, 0.000000000000000000 ) ) ;
#289 = ORIENTED_EDGE ( 'NONE', *, *, #198, .T. ) ;
#290 = ORIENTED_EDGE ( 'NONE', *, *, #182, .T. ) ;
#291 = CARTESIAN_POINT ( 'NONE',  ( -6.123233995736766036E-17, 0.5000000000000000000, 0.000000000000000000 ) ) ;
#292 = ORIENTED_EDGE ( 'NONE', *, *, #275, .T. ) ;
#293 = CLOSED_SHELL ( 'NONE', ( #157, #59, #55, #306, #63 ) ) ;
#294 = PRESENTATION_LAYER_ASSIGNMENT (  '', '', ( #24 ) ) ;
#295 = VECTOR ( 'NONE', #277, 39.37007874015748143 ) ;
#296 = DIRECTION ( 'NONE',  ( -1.224646799147353454E-16, 1.000000000000000000, -0.000000000000000000 ) ) ;
#297 = CYLINDRICAL_SURFACE ( 'NONE', #75, 0.4999999999999996114 ) ;
#298 = SURFACE_STYLE_USAGE ( .BOTH. , #208 ) ;
#299 = SURFACE_STYLE_USAGE ( .BOTH. , #354 ) ;
#300 = DIRECTION ( 'NONE',  ( -1.224646799147353454E-16, 1.000000000000000000, -0.000000000000000000 ) ) ;
#301 = FACE_OUTER_BOUND ( 'NONE', #216, .T. ) ;
#302 = STYLED_ITEM ( 'NONE', ( #238 ), #55 ) ;
#303 = CIRCLE ( 'NONE', #207, 0.5000000000000000000 ) ;
#304 = CARTESIAN_POINT ( 'NONE',  ( 0.000000000000000000, 3.250000000000000000, 0.000000000000000000 ) ) ;
#305 = SURFACE_STYLE_USAGE ( .BOTH. , #314 ) ;
#306 = ADVANCED_FACE ( 'NONE', ( #88 ), #60, .T. ) ;
#307 = VERTEX_POINT ( 'NONE', #244 ) ;
#308 = PRODUCT_DEFINITION ( 'UNKNOWN', '', #57, #362 ) ;
#309 = DIMENSIONAL_EXPONENTS ( 1.000000000000000000, 0.000000000000000000, 0.000000000000000000, 0.000000000000000000, 0.000000000000000000, 0.000000000000000000, 0.000000000000000000 ) ;
#310 = MECHANICAL_DESIGN_GEOMETRIC_PRESENTATION_REPRESENTATION (  '', ( #282 ), #149 ) ;
#311 = ADVANCED_FACE ( 'NONE', ( #35 ), #196, .F. ) ;
#312 = SURFACE_STYLE_USAGE ( .BOTH. , #188 ) ;
#313 = ORIENTED_EDGE ( 'NONE', *, *, #32, .T. ) ;
#314 = SURFACE_SIDE_STYLE ('',( #78 ) ) ;
#315 = MECHANICAL_DESIGN_GEOMETRIC_PRESENTATION_REPRESENTATION (  '', ( #18 ), #335 ) ;
#316 = CIRCLE ( 'NONE', #363, 0.5000000000000000000 ) ;
#317 = FACE_OUTER_BOUND ( 'NONE', #341, .T. ) ;
#318 = DIMENSIONAL_EXPONENTS ( 1.000000000000000000, 0.000000000000000000, 0.000000000000000000, 0.000000000000000000, 0.000000000000000000, 0.000000000000000000, 0.000000000000000000 ) ;
#319 = LINE ( 'NONE', #50, #91 ) ;
#320 = EDGE_CURVE ( 'NONE', #19, #226, #303, .T. ) ;
#321 = ORIENTED_EDGE ( 'NONE', *, *, #39, .F. ) ;
#322 = ORIENTED_EDGE ( 'NONE', *, *, #255, .T. ) ;
#323 = DIRECTION ( 'NONE',  ( 0.000000000000000000, 0.000000000000000000, -1.000000000000000000 ) ) ;
#324 = CIRCLE ( 'NONE', #287, 0.4999999999999997224 ) ;
#325 =( GEOMETRIC_REPRESENTATION_CONTEXT ( 3 ) GLOBAL_UNCERTAINTY_ASSIGNED_CONTEXT ( ( #147 ) ) GLOBAL_UNIT_ASSIGNED_CONTEXT ( ( #99, #228, #154 ) ) REPRESENTATION_CONTEXT ( 'NONE', 'WORKASPACE' ) );
#326 =( NAMED_UNIT ( * ) SI_UNIT ( $, .STERADIAN. ) SOLID_ANGLE_UNIT ( ) );
#327 = PRESENTATION_STYLE_ASSIGNMENT (( #270 ) ) ;
#328 =( CONVERSION_BASED_UNIT ( 'INCH', #145 ) LENGTH_UNIT ( ) NAMED_UNIT ( #125 ) );
#329 =( LENGTH_UNIT ( ) NAMED_UNIT ( * ) SI_UNIT ( $, .METRE. ) );
#330 = LENGTH_MEASURE_WITH_UNIT ( LENGTH_MEASURE( 0.02539999999999999897 ), #272 );
#331 = FILL_AREA_STYLE_COLOUR ( '', #141 ) ;
#332 = UNCERTAINTY_MEASURE_WITH_UNIT (LENGTH_MEASURE( 1.000000000000000082E-05 ), #242, 'distance_accuracy_value', 'NONE');
#333 = DIRECTION ( 'NONE',  ( 0.000000000000000000, 0.000000000000000000, -1.000000000000000000 ) ) ;
#334 = LINE ( 'NONE', #151, #69 ) ;
#335 =( GEOMETRIC_REPRESENTATION_CONTEXT ( 3 ) GLOBAL_UNCERTAINTY_ASSIGNED_CONTEXT ( ( #210 ) ) GLOBAL_UNIT_ASSIGNED_CONTEXT ( ( #209, #87, #205 ) ) REPRESENTATION_CONTEXT ( 'NONE', 'WORKASPACE' ) );
#336 = AXIS2_PLACEMENT_3D ( 'NONE', #112, #300, #118 ) ;
#337 =( CONVERSION_BASED_UNIT ( 'INCH', #180 ) LENGTH_UNIT ( ) NAMED_UNIT ( #345 ) );
#338 =( NAMED_UNIT ( * ) SI_UNIT ( $, .STERADIAN. ) SOLID_ANGLE_UNIT ( ) );
#339 = DIMENSIONAL_EXPONENTS ( 1.000000000000000000, 0.000000000000000000, 0.000000000000000000, 0.000000000000000000, 0.000000000000000000, 0.000000000000000000, 0.000000000000000000 ) ;
#340 = FILL_AREA_STYLE_COLOUR ( '', #104 ) ;
#341 = EDGE_LOOP ( 'NONE', ( #27, #29 ) ) ;
#342 =( LENGTH_UNIT ( ) NAMED_UNIT ( * ) SI_UNIT ( $, .METRE. ) );
#343 = CARTESIAN_POINT ( 'NONE',  ( 6.123233995736767268E-17, 0.5000000000000000000, 0.5000000000000000000 ) ) ;
#344 = ORIENTED_EDGE ( 'NONE', *, *, #372, .F. ) ;
#345 = DIMENSIONAL_EXPONENTS ( 1.000000000000000000, 0.000000000000000000, 0.000000000000000000, 0.000000000000000000, 0.000000000000000000, 0.000000000000000000, 0.000000000000000000 ) ;
#346 = ORIENTED_EDGE ( 'NONE', *, *, #320, .F. ) ;
#347 = DIRECTION ( 'NONE',  ( -0.000000000000000000, -1.000000000000000000, -0.000000000000000000 ) ) ;
#348 = CARTESIAN_POINT ( 'NONE',  ( -6.123233995736766036E-17, 0.5000000000000000000, 0.000000000000000000 ) ) ;
#349 = FILL_AREA_STYLE_COLOUR ( '', #230 ) ;
#350 = DIRECTION ( 'NONE',  ( -1.000000000000000000, 0.000000000000000000, 0.000000000000000000 ) ) ;
#351 = CIRCLE ( 'NONE', #192, 0.5000000000000000000 ) ;
#352 = SURFACE_STYLE_FILL_AREA ( #5 ) ;
#353 = DIRECTION ( 'NONE',  ( -0.000000000000000000, -1.000000000000000000, -0.000000000000000000 ) ) ;
#354 = SURFACE_SIDE_STYLE ('',( #58 ) ) ;
#355 = CARTESIAN_POINT ( 'NONE',  ( 0.4999999999999996114, 6.000000000000000888, 0.000000000000000000 ) ) ;
#356 = AXIS2_PLACEMENT_3D ( 'NONE', #304, #85, #197 ) ;
#357 = AXIS2_PLACEMENT_3D ( 'NONE', #355, #166, #171 ) ;
#358 = UNCERTAINTY_MEASURE_WITH_UNIT (LENGTH_MEASURE( 1.000000000000000082E-05 ), #328, 'distance_accuracy_value', 'NONE');
#359 = SURFACE_STYLE_FILL_AREA ( #279 ) ;
#360 = ADVANCED_FACE ( 'NONE', ( #168 ), #297, .T. ) ;
#361 = ORIENTED_EDGE ( 'NONE', *, *, #368, .F. ) ;
#362 = PRODUCT_DEFINITION_CONTEXT ( 'detailed design', #156, 'design' ) ;
#363 = AXIS2_PLACEMENT_3D ( 'NONE', #34, #353, #9 ) ;
#364 = CARTESIAN_POINT ( 'NONE',  ( 0.000000000000000000, 0.5000000000000000000, 0.000000000000000000 ) ) ;
#365 = DIRECTION ( 'NONE',  ( -1.224646799147353454E-16, 1.000000000000000000, -0.000000000000000000 ) ) ;
#366 = ORIENTED_EDGE ( 'NONE', *, *, #15, .T. ) ;
#367 = DIRECTION ( 'NONE',  ( 1.000000000000000000, 0.000000000000000000, 0.000000000000000000 ) ) ;
#368 = EDGE_CURVE ( 'NONE', #267, #155, #16, .T. ) ;
#369 = ORIENTED_EDGE ( 'NONE', *, *, #15, .F. ) ;
#370 = COLOUR_RGB ( '',1.000000000000000000, 0.000000000000000000, 0.000000000000000000 ) ;
#371 =( LENGTH_UNIT ( ) NAMED_UNIT ( * ) SI_UNIT ( $, .METRE. ) );
#372 = EDGE_CURVE ( 'NONE', #19, #3, #70, .T. ) ;
#373 = PRESENTATION_STYLE_ASSIGNMENT (( #52 ) ) ;
ENDSEC;
END-ISO-10303-21;
