ISO-10303-21;
HEADER;
FILE_DESCRIPTION (( 'STEP AP214' ),
    '1' );
FILE_NAME ('59825.STEP',
    '2023-07-12T13:06:38',
    ( '' ),
    ( '' ),
    'SwSTEP 2.0',
    'SolidWorks 2023',
    '' );
FILE_SCHEMA (( 'AUTOMOTIVE_DESIGN' ));
ENDSEC;

DATA;
#1 =( LENGTH_UNIT ( ) NAMED_UNIT ( * ) SI_UNIT ( $, .METRE. ) );
#2 = MECHANICAL_DESIGN_GEOMETRIC_PRESENTATION_REPRESENTATION (  '', ( #260 ), #221 ) ;
#3 = UNCERTAINTY_MEASURE_WITH_UNIT (LENGTH_MEASURE( 1.000000000000000082E-05 ), #79, 'distance_accuracy_value', 'NONE');
#4 = ORIENTED_EDGE ( 'NONE', *, *, #289, .F. ) ;
#5 =( LENGTH_UNIT ( ) NAMED_UNIT ( * ) SI_UNIT ( $, .METRE. ) );
#6 = ORIENTED_EDGE ( 'NONE', *, *, #117, .F. ) ;
#7 = SURFACE_STYLE_FILL_AREA ( #225 ) ;
#8 = AXIS2_PLACEMENT_3D ( 'NONE', #214, #263, #162 ) ;
#9 = EDGE_LOOP ( 'NONE', ( #6, #130, #13, #272 ) ) ;
#10 = MECHANICAL_DESIGN_GEOMETRIC_PRESENTATION_REPRESENTATION (  '', ( #23 ), #69 ) ;
#11 = DIRECTION ( 'NONE',  ( 1.000000000000000000, 0.000000000000000000, 0.000000000000000000 ) ) ;
#12 = CARTESIAN_POINT ( 'NONE',  ( 0.1249999999999999445, 0.07971446496184123043, 1.530808498934189352E-17 ) ) ;
#13 = ORIENTED_EDGE ( 'NONE', *, *, #186, .T. ) ;
#14 = ADVANCED_FACE ( 'NONE', ( #211 ), #232, .T. ) ;
#15 = FACE_OUTER_BOUND ( 'NONE', #9, .T. ) ;
#16 =( NAMED_UNIT ( * ) PLANE_ANGLE_UNIT ( ) SI_UNIT ( $, .RADIAN. ) );
#17 = APPLICATION_CONTEXT ( 'automotive_design' ) ;
#18 = FACE_OUTER_BOUND ( 'NONE', #251, .T. ) ;
#19 = MANIFOLD_SOLID_BREP ( 'Revolve - Cutting Edge', #28 ) ;
#20 = PLANE ( 'NONE',  #42 ) ;
#21 = STYLED_ITEM ( 'NONE', ( #76 ), #245 ) ;
#22 = VECTOR ( 'NONE', #135, 39.37007874015748143 ) ;
#23 = STYLED_ITEM ( 'NONE', ( #37 ), #118 ) ;
#24 = DIMENSIONAL_EXPONENTS ( 1.000000000000000000, 0.000000000000000000, 0.000000000000000000, 0.000000000000000000, 0.000000000000000000, 0.000000000000000000, 0.000000000000000000 ) ;
#25 = PRESENTATION_STYLE_ASSIGNMENT (( #262 ) ) ;
#26 =( NAMED_UNIT ( * ) SI_UNIT ( $, .STERADIAN. ) SOLID_ANGLE_UNIT ( ) );
#27 = DIMENSIONAL_EXPONENTS ( 1.000000000000000000, 0.000000000000000000, 0.000000000000000000, 0.000000000000000000, 0.000000000000000000, 0.000000000000000000, 0.000000000000000000 ) ;
#28 = CLOSED_SHELL ( 'NONE', ( #14, #245, #41, #91 ) ) ;
#29 = CIRCLE ( 'NONE', #256, 0.1249999999999999029 ) ;
#30 =( NAMED_UNIT ( * ) PLANE_ANGLE_UNIT ( ) SI_UNIT ( $, .RADIAN. ) );
#31 = LINE ( 'NONE', #286, #90 ) ;
#32 =( LENGTH_UNIT ( ) NAMED_UNIT ( * ) SI_UNIT ( $, .METRE. ) );
#33 = ADVANCED_FACE ( 'NONE', ( #137 ), #20, .F. ) ;
#34 = ORIENTED_EDGE ( 'NONE', *, *, #172, .F. ) ;
#35 = CARTESIAN_POINT ( 'NONE',  ( 3.561586682121178504E-16, 0.07971446496184120267, 0.000000000000000000 ) ) ;
#36 = UNCERTAINTY_MEASURE_WITH_UNIT (LENGTH_MEASURE( 1.000000000000000082E-05 ), #144, 'distance_accuracy_value', 'NONE');
#37 = PRESENTATION_STYLE_ASSIGNMENT (( #204 ) ) ;
#38 = AXIS2_PLACEMENT_3D ( 'NONE', #267, #190, #248 ) ;
#39 = DIRECTION ( 'NONE',  ( 0.7660444431189791237, 0.6427876096865380307, 9.381338752702743107E-17 ) ) ;
#40 = FILL_AREA_STYLE ('',( #209 ) ) ;
#41 = ADVANCED_FACE ( 'NONE', ( #15 ), #154, .T. ) ;
#42 = AXIS2_PLACEMENT_3D ( 'NONE', #106, #179, #185 ) ;
#43 = MECHANICAL_DESIGN_GEOMETRIC_PRESENTATION_REPRESENTATION (  '', ( #226 ), #112 ) ;
#44 =( LENGTH_UNIT ( ) NAMED_UNIT ( * ) SI_UNIT ( $, .METRE. ) );
#45 = DIRECTION ( 'NONE',  ( -1.818964894551226470E-17, -1.000000000000000000, -0.000000000000000000 ) ) ;
#46 = FILL_AREA_STYLE_COLOUR ( '', #285 ) ;
#47 = DIMENSIONAL_EXPONENTS ( 1.000000000000000000, 0.000000000000000000, 0.000000000000000000, 0.000000000000000000, 0.000000000000000000, 0.000000000000000000, 0.000000000000000000 ) ;
#48 = LENGTH_MEASURE_WITH_UNIT ( LENGTH_MEASURE( 0.02539999999999999897 ), #265 );
#49 = APPLICATION_PROTOCOL_DEFINITION ( 'draft international standard', 'automotive_design', 1998, #222 ) ;
#50 =( NAMED_UNIT ( * ) PLANE_ANGLE_UNIT ( ) SI_UNIT ( $, .RADIAN. ) );
#51 = DIRECTION ( 'NONE',  ( -1.818964894551226470E-17, -1.000000000000000000, -0.000000000000000000 ) ) ;
#52 = FILL_AREA_STYLE_COLOUR ( '', #305 ) ;
#53 = DIRECTION ( 'NONE',  ( -1.218560058245773238E-16, 1.000000000000000000, -0.000000000000000000 ) ) ;
#54 = UNCERTAINTY_MEASURE_WITH_UNIT (LENGTH_MEASURE( 1.000000000000000082E-05 ), #110, 'distance_accuracy_value', 'NONE');
#55 = EDGE_LOOP ( 'NONE', ( #151, #202, #59, #146 ) ) ;
#56 = LENGTH_MEASURE_WITH_UNIT ( LENGTH_MEASURE( 0.02539999999999999897 ), #32 );
#57 = CIRCLE ( 'NONE', #109, 0.1249999999999996114 ) ;
#58 = UNCERTAINTY_MEASURE_WITH_UNIT (LENGTH_MEASURE( 1.000000000000000082E-05 ), #150, 'distance_accuracy_value', 'NONE');
#59 = ORIENTED_EDGE ( 'NONE', *, *, #172, .T. ) ;
#60 = LINE ( 'NONE', #233, #22 ) ;
#61 = DIRECTION ( 'NONE',  ( 1.818964894551226470E-17, 1.000000000000000000, 0.000000000000000000 ) ) ;
#62 = ADVANCED_FACE ( 'NONE', ( #140 ), #68, .T. ) ;
#63 = CIRCLE ( 'NONE', #143, 0.1249999999999996114 ) ;
#64 = ADVANCED_BREP_SHAPE_REPRESENTATION ( '59825', ( #19, #118, #8 ), #239 ) ;
#65 = PRESENTATION_STYLE_ASSIGNMENT (( #282 ) ) ;
#66 = CARTESIAN_POINT ( 'NONE',  ( 4.962949931414632229E-36, 2.728447341826840032E-19, 0.000000000000000000 ) ) ;
#67 = PRODUCT_DEFINITION_CONTEXT ( 'detailed design', #17, 'design' ) ;
#68 = CYLINDRICAL_SURFACE ( 'NONE', #38, 0.1249999999999997641 ) ;
#69 =( GEOMETRIC_REPRESENTATION_CONTEXT ( 3 ) GLOBAL_UNCERTAINTY_ASSIGNED_CONTEXT ( ( #77 ) ) GLOBAL_UNIT_ASSIGNED_CONTEXT ( ( #145, #291, #175 ) ) REPRESENTATION_CONTEXT ( 'NONE', 'WORKASPACE' ) );
#70 = COLOUR_RGB ( '',1.000000000000000000, 0.000000000000000000, 0.000000000000000000 ) ;
#71 = PRESENTATION_STYLE_ASSIGNMENT (( #187 ) ) ;
#72 = VERTEX_POINT ( 'NONE', #218 ) ;
#73 =( GEOMETRIC_REPRESENTATION_CONTEXT ( 3 ) GLOBAL_UNCERTAINTY_ASSIGNED_CONTEXT ( ( #58 ) ) GLOBAL_UNIT_ASSIGNED_CONTEXT ( ( #150, #250, #107 ) ) REPRESENTATION_CONTEXT ( 'NONE', 'WORKASPACE' ) );
#74 = PRESENTATION_LAYER_ASSIGNMENT (  '', '', ( #260 ) ) ;
#75 = CARTESIAN_POINT ( 'NONE',  ( 9.925899862829264458E-36, 5.456894683653680064E-19, 0.000000000000000000 ) ) ;
#76 = PRESENTATION_STYLE_ASSIGNMENT (( #297 ) ) ;
#77 = UNCERTAINTY_MEASURE_WITH_UNIT (LENGTH_MEASURE( 1.000000000000000082E-05 ), #145, 'distance_accuracy_value', 'NONE');
#78 = ORIENTED_EDGE ( 'NONE', *, *, #289, .T. ) ;
#79 =( CONVERSION_BASED_UNIT ( 'INCH', #303 ) LENGTH_UNIT ( ) NAMED_UNIT ( #196 ) );
#80 = VERTEX_POINT ( 'NONE', #188 ) ;
#81 = SURFACE_STYLE_FILL_AREA ( #40 ) ;
#82 = PLANE ( 'NONE',  #279 ) ;
#83 =( NAMED_UNIT ( * ) PLANE_ANGLE_UNIT ( ) SI_UNIT ( $, .RADIAN. ) );
#84 =( NAMED_UNIT ( * ) SI_UNIT ( $, .STERADIAN. ) SOLID_ANGLE_UNIT ( ) );
#85 = AXIS2_PLACEMENT_3D ( 'NONE', #280, #45, #155 ) ;
#86 =( NAMED_UNIT ( * ) SI_UNIT ( $, .STERADIAN. ) SOLID_ANGLE_UNIT ( ) );
#87 = SURFACE_SIDE_STYLE ('',( #93 ) ) ;
#88 = EDGE_CURVE ( 'NONE', #101, #95, #31, .T. ) ;
#89 = COLOUR_RGB ( '',0.7921568627450980005, 0.8196078431372548767, 0.9333333333333333481 ) ;
#90 = VECTOR ( 'NONE', #119, 39.37007874015748143 ) ;
#91 = ADVANCED_FACE ( 'NONE', ( #270 ), #308, .T. ) ;
#92 = DIRECTION ( 'NONE',  ( 1.000000000000000000, 0.000000000000000000, 0.000000000000000000 ) ) ;
#93 = SURFACE_STYLE_FILL_AREA ( #216 ) ;
#94 = CARTESIAN_POINT ( 'NONE',  ( 0.02999999999999999889, 0.000000000000000000, 3.673940397442059190E-18 ) ) ;
#95 = VERTEX_POINT ( 'NONE', #141 ) ;
#96 = AXIS2_PLACEMENT_3D ( 'NONE', #122, #149, #11 ) ;
#97 = LENGTH_MEASURE_WITH_UNIT ( LENGTH_MEASURE( 0.02539999999999999897 ), #5 );
#98 = CIRCLE ( 'NONE', #96, 0.1249999999999999584 ) ;
#99 = EDGE_LOOP ( 'NONE', ( #276, #34 ) ) ;
#100 = SURFACE_STYLE_FILL_AREA ( #170 ) ;
#101 = VERTEX_POINT ( 'NONE', #246 ) ;
#102 =( GEOMETRIC_REPRESENTATION_CONTEXT ( 3 ) GLOBAL_UNCERTAINTY_ASSIGNED_CONTEXT ( ( #148 ) ) GLOBAL_UNIT_ASSIGNED_CONTEXT ( ( #152, #16, #86 ) ) REPRESENTATION_CONTEXT ( 'NONE', 'WORKASPACE' ) );
#103 = DIRECTION ( 'NONE',  ( -1.000000000000000000, 0.000000000000000000, 0.000000000000000000 ) ) ;
#104 = ORIENTED_EDGE ( 'NONE', *, *, #147, .T. ) ;
#105 = CARTESIAN_POINT ( 'NONE',  ( 1.449978133535230861E-18, 0.07971446496184129982, 0.000000000000000000 ) ) ;
#106 = CARTESIAN_POINT ( 'NONE',  ( 3.561586682121178011E-16, 0.07971446496184127206, 0.000000000000000000 ) ) ;
#107 =( NAMED_UNIT ( * ) SI_UNIT ( $, .STERADIAN. ) SOLID_ANGLE_UNIT ( ) );
#108 = PRODUCT_DEFINITION_SHAPE ( 'NONE', 'NONE',  #242 ) ;
#109 = AXIS2_PLACEMENT_3D ( 'NONE', #35, #53, #254 ) ;
#110 =( CONVERSION_BASED_UNIT ( 'INCH', #160 ) LENGTH_UNIT ( ) NAMED_UNIT ( #24 ) );
#111 = PRESENTATION_LAYER_ASSIGNMENT (  '', '', ( #278 ) ) ;
#112 =( GEOMETRIC_REPRESENTATION_CONTEXT ( 3 ) GLOBAL_UNCERTAINTY_ASSIGNED_CONTEXT ( ( #189 ) ) GLOBAL_UNIT_ASSIGNED_CONTEXT ( ( #139, #50, #26 ) ) REPRESENTATION_CONTEXT ( 'NONE', 'WORKASPACE' ) );
#113 = EDGE_CURVE ( 'NONE', #234, #275, #134, .T. ) ;
#114 = DIRECTION ( 'NONE',  ( 1.218560058245773238E-16, -1.000000000000000000, 0.000000000000000000 ) ) ;
#115 = SURFACE_SIDE_STYLE ('',( #264 ) ) ;
#116 = PRODUCT_CONTEXT ( 'NONE', #222, 'mechanical' ) ;
#117 = EDGE_CURVE ( 'NONE', #72, #275, #288, .T. ) ;
#118 = MANIFOLD_SOLID_BREP ( 'Revolve - Tool Body (Tipped Off)', #217 ) ;
#119 = DIRECTION ( 'NONE',  ( -1.218560058245773238E-16, 1.000000000000000000, -0.000000000000000000 ) ) ;
#120 = AXIS2_PLACEMENT_3D ( 'NONE', #131, #287, #220 ) ;
#121 = EDGE_LOOP ( 'NONE', ( #178, #128 ) ) ;
#122 = CARTESIAN_POINT ( 'NONE',  ( 1.449978133535230669E-18, 0.07971446496184127206, 0.000000000000000000 ) ) ;
#123 = ORIENTED_EDGE ( 'NONE', *, *, #88, .T. ) ;
#124 = LINE ( 'NONE', #169, #200 ) ;
#125 = PRESENTATION_LAYER_ASSIGNMENT (  '', '', ( #238 ) ) ;
#126 = DIRECTION ( 'NONE',  ( -0.7660444431189791237, 0.6427876096865380307, 0.000000000000000000 ) ) ;
#127 = AXIS2_PLACEMENT_3D ( 'NONE', #75, #292, #173 ) ;
#128 = ORIENTED_EDGE ( 'NONE', *, *, #215, .T. ) ;
#129 = CARTESIAN_POINT ( 'NONE',  ( -0.1249999999999999445, 0.07971446496184127206, 0.000000000000000000 ) ) ;
#130 = ORIENTED_EDGE ( 'NONE', *, *, #258, .F. ) ;
#131 = CARTESIAN_POINT ( 'NONE',  ( 9.925899862829264458E-36, 5.456894683653680064E-19, 0.000000000000000000 ) ) ;
#132 = MECHANICAL_DESIGN_GEOMETRIC_PRESENTATION_REPRESENTATION (  '', ( #278 ), #166 ) ;
#133 = DIRECTION ( 'NONE',  ( -1.218560058245773238E-16, 1.000000000000000000, -0.000000000000000000 ) ) ;
#134 = CIRCLE ( 'NONE', #309, 0.1249999999999999584 ) ;
#135 = DIRECTION ( 'NONE',  ( -1.218560058245773238E-16, 1.000000000000000000, -0.000000000000000000 ) ) ;
#136 =( NAMED_UNIT ( * ) SI_UNIT ( $, .STERADIAN. ) SOLID_ANGLE_UNIT ( ) );
#137 = FACE_OUTER_BOUND ( 'NONE', #171, .T. ) ;
#138 = MECHANICAL_DESIGN_GEOMETRIC_PRESENTATION_REPRESENTATION (  '', ( #21 ), #73 ) ;
#139 =( CONVERSION_BASED_UNIT ( 'INCH', #48 ) LENGTH_UNIT ( ) NAMED_UNIT ( #27 ) );
#140 = FACE_OUTER_BOUND ( 'NONE', #199, .T. ) ;
#141 = CARTESIAN_POINT ( 'NONE',  ( -0.1249999999999998335, 2.500000000000000000, 0.000000000000000000 ) ) ;
#142 = DIMENSIONAL_EXPONENTS ( 1.000000000000000000, 0.000000000000000000, 0.000000000000000000, 0.000000000000000000, 0.000000000000000000, 0.000000000000000000, 0.000000000000000000 ) ;
#143 = AXIS2_PLACEMENT_3D ( 'NONE', #223, #198, #228 ) ;
#144 =( CONVERSION_BASED_UNIT ( 'INCH', #192 ) LENGTH_UNIT ( ) NAMED_UNIT ( #47 ) );
#145 =( CONVERSION_BASED_UNIT ( 'INCH', #97 ) LENGTH_UNIT ( ) NAMED_UNIT ( #142 ) );
#146 = ORIENTED_EDGE ( 'NONE', *, *, #186, .F. ) ;
#147 = EDGE_CURVE ( 'NONE', #95, #80, #29, .T. ) ;
#148 = UNCERTAINTY_MEASURE_WITH_UNIT (LENGTH_MEASURE( 1.000000000000000082E-05 ), #152, 'distance_accuracy_value', 'NONE');
#149 = DIRECTION ( 'NONE',  ( -1.818964894551226470E-17, -1.000000000000000000, -0.000000000000000000 ) ) ;
#150 =( CONVERSION_BASED_UNIT ( 'INCH', #56 ) LENGTH_UNIT ( ) NAMED_UNIT ( #163 ) );
#151 = ORIENTED_EDGE ( 'NONE', *, *, #215, .F. ) ;
#152 =( CONVERSION_BASED_UNIT ( 'INCH', #284 ) LENGTH_UNIT ( ) NAMED_UNIT ( #307 ) );
#153 = CIRCLE ( 'NONE', #85, 0.02999999999999999889 ) ;
#154 = CONICAL_SURFACE ( 'NONE', #120, 0.02999999999999999889, 0.8726646259971664321 ) ;
#155 = DIRECTION ( 'NONE',  ( 1.000000000000000000, -1.818964894551226778E-17, 0.000000000000000000 ) ) ;
#156 = DIRECTION ( 'NONE',  ( -1.000000000000000000, 1.818964894551226778E-17, 0.000000000000000000 ) ) ;
#157 = PRESENTATION_LAYER_ASSIGNMENT (  '', '', ( #226 ) ) ;
#158 = FILL_AREA_STYLE ('',( #283 ) ) ;
#159 = APPLICATION_PROTOCOL_DEFINITION ( 'draft international standard', 'automotive_design', 1998, #17 ) ;
#160 = LENGTH_MEASURE_WITH_UNIT ( LENGTH_MEASURE( 0.02539999999999999897 ), #44 );
#161 = DIRECTION ( 'NONE',  ( 1.000000000000000000, -1.818964894551226470E-17, 0.000000000000000000 ) ) ;
#162 = DIRECTION ( 'NONE',  ( 1.000000000000000000, 0.000000000000000000, 0.000000000000000000 ) ) ;
#163 = DIMENSIONAL_EXPONENTS ( 1.000000000000000000, 0.000000000000000000, 0.000000000000000000, 0.000000000000000000, 0.000000000000000000, 0.000000000000000000, 0.000000000000000000 ) ;
#164 = PRESENTATION_STYLE_ASSIGNMENT (( #243 ) ) ;
#165 = CIRCLE ( 'NONE', #299, 0.1249999999999999029 ) ;
#166 =( GEOMETRIC_REPRESENTATION_CONTEXT ( 3 ) GLOBAL_UNCERTAINTY_ASSIGNED_CONTEXT ( ( #54 ) ) GLOBAL_UNIT_ASSIGNED_CONTEXT ( ( #110, #83, #136 ) ) REPRESENTATION_CONTEXT ( 'NONE', 'WORKASPACE' ) );
#167 = PRESENTATION_LAYER_ASSIGNMENT (  '', '', ( #23 ) ) ;
#168 = EDGE_CURVE ( 'NONE', #101, #174, #57, .T. ) ;
#169 = CARTESIAN_POINT ( 'NONE',  ( -0.02999999999999999889, 1.091378936730736013E-18, 0.000000000000000000 ) ) ;
#170 = FILL_AREA_STYLE ('',( #201 ) ) ;
#171 = EDGE_LOOP ( 'NONE', ( #176, #293 ) ) ;
#172 = EDGE_CURVE ( 'NONE', #275, #234, #98, .T. ) ;
#173 = DIRECTION ( 'NONE',  ( 1.000000000000000000, -1.818964894551226778E-17, 0.000000000000000000 ) ) ;
#174 = VERTEX_POINT ( 'NONE', #12 ) ;
#175 =( NAMED_UNIT ( * ) SI_UNIT ( $, .STERADIAN. ) SOLID_ANGLE_UNIT ( ) );
#176 = ORIENTED_EDGE ( 'NONE', *, *, #168, .F. ) ;
#177 = DIRECTION ( 'NONE',  ( 1.000000000000000000, 1.218560058245773238E-16, 0.000000000000000000 ) ) ;
#178 = ORIENTED_EDGE ( 'NONE', *, *, #258, .T. ) ;
#179 = DIRECTION ( 'NONE',  ( -1.218560058245773238E-16, 1.000000000000000000, 0.000000000000000000 ) ) ;
#180 = CARTESIAN_POINT ( 'NONE',  ( -0.02999999999999999889, 1.091378936730736013E-18, 0.000000000000000000 ) ) ;
#181 = FILL_AREA_STYLE ('',( #46 ) ) ;
#182 = COLOUR_RGB ( '',0.7921568627450980005, 0.8196078431372548767, 0.9333333333333333481 ) ;
#183 = PRODUCT ( '59825', '59825', '', ( #116 ) ) ;
#184 =( LENGTH_UNIT ( ) NAMED_UNIT ( * ) SI_UNIT ( $, .METRE. ) );
#185 = DIRECTION ( 'NONE',  ( -1.000000000000000000, -1.218560058245773238E-16, 0.000000000000000000 ) ) ;
#186 = EDGE_CURVE ( 'NONE', #257, #234, #124, .T. ) ;
#187 = SURFACE_STYLE_USAGE ( .BOTH. , #115 ) ;
#188 = CARTESIAN_POINT ( 'NONE',  ( 0.1249999999999999445, 2.500000000000000000, 1.530808498934189352E-17 ) ) ;
#189 = UNCERTAINTY_MEASURE_WITH_UNIT (LENGTH_MEASURE( 1.000000000000000082E-05 ), #139, 'distance_accuracy_value', 'NONE');
#190 = DIRECTION ( 'NONE',  ( -1.218560058245773238E-16, 1.000000000000000000, -0.000000000000000000 ) ) ;
#191 = SHAPE_DEFINITION_REPRESENTATION ( #108, #64 ) ;
#192 = LENGTH_MEASURE_WITH_UNIT ( LENGTH_MEASURE( 0.02539999999999999897 ), #1 );
#193 = PRESENTATION_LAYER_ASSIGNMENT (  '', '', ( #21 ) ) ;
#194 = FILL_AREA_STYLE_COLOUR ( '', #70 ) ;
#195 = COLOUR_RGB ( '',1.000000000000000000, 0.000000000000000000, 0.000000000000000000 ) ;
#196 = DIMENSIONAL_EXPONENTS ( 1.000000000000000000, 0.000000000000000000, 0.000000000000000000, 0.000000000000000000, 0.000000000000000000, 0.000000000000000000, 0.000000000000000000 ) ;
#197 = EDGE_CURVE ( 'NONE', #174, #101, #63, .T. ) ;
#198 = DIRECTION ( 'NONE',  ( -1.218560058245773238E-16, 1.000000000000000000, -0.000000000000000000 ) ) ;
#199 = EDGE_LOOP ( 'NONE', ( #277, #78, #229, #296 ) ) ;
#200 = VECTOR ( 'NONE', #126, 39.37007874015748143 ) ;
#201 = FILL_AREA_STYLE_COLOUR ( '', #182 ) ;
#202 = ORIENTED_EDGE ( 'NONE', *, *, #117, .T. ) ;
#203 = FACE_OUTER_BOUND ( 'NONE', #99, .T. ) ;
#204 = SURFACE_STYLE_USAGE ( .BOTH. , #295 ) ;
#205 = MECHANICAL_DESIGN_GEOMETRIC_PRESENTATION_REPRESENTATION (  '', ( #238 ), #102 ) ;
#206 = CARTESIAN_POINT ( 'NONE',  ( 0.1249999999999999445, 0.07971446496184127206, 1.530808498934190893E-17 ) ) ;
#207 =( LENGTH_UNIT ( ) NAMED_UNIT ( * ) SI_UNIT ( $, .METRE. ) );
#208 = CARTESIAN_POINT ( 'NONE',  ( 6.123233995736772199E-17, 2.500000000000000000, 0.000000000000000000 ) ) ;
#209 = FILL_AREA_STYLE_COLOUR ( '', #89 ) ;
#210 = FACE_OUTER_BOUND ( 'NONE', #253, .T. ) ;
#211 = FACE_OUTER_BOUND ( 'NONE', #55, .T. ) ;
#212 = AXIS2_PLACEMENT_3D ( 'NONE', #301, #61, #156 ) ;
#213 = DIRECTION ( 'NONE',  ( 1.818964894551226470E-17, 1.000000000000000000, 0.000000000000000000 ) ) ;
#214 = CARTESIAN_POINT ( 'NONE',  ( 0.000000000000000000, 0.000000000000000000, 0.000000000000000000 ) ) ;
#215 = EDGE_CURVE ( 'NONE', #72, #257, #269, .T. ) ;
#216 = FILL_AREA_STYLE ('',( #194 ) ) ;
#217 = CLOSED_SHELL ( 'NONE', ( #62, #33, #249, #255 ) ) ;
#218 = CARTESIAN_POINT ( 'NONE',  ( 0.02999999999999999889, 0.000000000000000000, 9.491012693391984829E-18 ) ) ;
#219 = DIRECTION ( 'NONE',  ( -1.818964894551226470E-17, -1.000000000000000000, 0.000000000000000000 ) ) ;
#220 = DIRECTION ( 'NONE',  ( -1.000000000000000000, 1.818964894551226778E-17, 0.000000000000000000 ) ) ;
#221 =( GEOMETRIC_REPRESENTATION_CONTEXT ( 3 ) GLOBAL_UNCERTAINTY_ASSIGNED_CONTEXT ( ( #36 ) ) GLOBAL_UNIT_ASSIGNED_CONTEXT ( ( #144, #30, #290 ) ) REPRESENTATION_CONTEXT ( 'NONE', 'WORKASPACE' ) );
#222 = APPLICATION_CONTEXT ( 'automotive_design' ) ;
#223 = CARTESIAN_POINT ( 'NONE',  ( 3.561586682121178504E-16, 0.07971446496184120267, 0.000000000000000000 ) ) ;
#224 = ORIENTED_EDGE ( 'NONE', *, *, #266, .F. ) ;
#225 = FILL_AREA_STYLE ('',( #52 ) ) ;
#226 = STYLED_ITEM ( 'NONE', ( #164 ), #91 ) ;
#227 = AXIS2_PLACEMENT_3D ( 'NONE', #105, #213, #235 ) ;
#228 = DIRECTION ( 'NONE',  ( -1.000000000000000000, -1.365923996832135800E-16, 0.000000000000000000 ) ) ;
#229 = ORIENTED_EDGE ( 'NONE', *, *, #147, .F. ) ;
#230 = SURFACE_SIDE_STYLE ('',( #7 ) ) ;
#231 = ORIENTED_EDGE ( 'NONE', *, *, #197, .T. ) ;
#232 = CONICAL_SURFACE ( 'NONE', #212, 0.02999999999999999889, 0.8726646259971664321 ) ;
#233 = CARTESIAN_POINT ( 'NONE',  ( 0.1249999999999998335, 2.500000000000000000, 1.530808498934188736E-17 ) ) ;
#234 = VERTEX_POINT ( 'NONE', #129 ) ;
#235 = DIRECTION ( 'NONE',  ( -1.000000000000000000, 1.818964894551226470E-17, 0.000000000000000000 ) ) ;
#236 = CARTESIAN_POINT ( 'NONE',  ( 6.123233995736772199E-17, 2.500000000000000000, 0.000000000000000000 ) ) ;
#237 = SURFACE_SIDE_STYLE ('',( #259 ) ) ;
#238 = STYLED_ITEM ( 'NONE', ( #65 ), #14 ) ;
#239 =( GEOMETRIC_REPRESENTATION_CONTEXT ( 3 ) GLOBAL_UNCERTAINTY_ASSIGNED_CONTEXT ( ( #3 ) ) GLOBAL_UNIT_ASSIGNED_CONTEXT ( ( #79, #300, #84 ) ) REPRESENTATION_CONTEXT ( 'NONE', 'WORKASPACE' ) );
#240 = CARTESIAN_POINT ( 'NONE',  ( 0.1249999999999999584, 2.500000000000000000, 0.000000000000000000 ) ) ;
#241 = SURFACE_SIDE_STYLE ('',( #81 ) ) ;
#242 = PRODUCT_DEFINITION ( 'UNKNOWN', '', #244, #67 ) ;
#243 = SURFACE_STYLE_USAGE ( .BOTH. , #87 ) ;
#244 = PRODUCT_DEFINITION_FORMATION_WITH_SPECIFIED_SOURCE ( 'ANY', '', #183, .NOT_KNOWN. ) ;
#245 = ADVANCED_FACE ( 'NONE', ( #203 ), #274, .T. ) ;
#246 = CARTESIAN_POINT ( 'NONE',  ( -0.1249999999999992506, 0.07971446496184118879, 0.000000000000000000 ) ) ;
#247 = VECTOR ( 'NONE', #39, 39.37007874015748143 ) ;
#248 = DIRECTION ( 'NONE',  ( -1.000000000000000000, 0.000000000000000000, 0.000000000000000000 ) ) ;
#249 = ADVANCED_FACE ( 'NONE', ( #210 ), #306, .T. ) ;
#250 =( NAMED_UNIT ( * ) PLANE_ANGLE_UNIT ( ) SI_UNIT ( $, .RADIAN. ) );
#251 = EDGE_LOOP ( 'NONE', ( #104, #281 ) ) ;
#252 = CARTESIAN_POINT ( 'NONE',  ( 6.123233995736772199E-17, 2.500000000000000000, 0.000000000000000000 ) ) ;
#253 = EDGE_LOOP ( 'NONE', ( #4, #231, #123, #224 ) ) ;
#254 = DIRECTION ( 'NONE',  ( -1.000000000000000000, -1.365923996832135800E-16, 0.000000000000000000 ) ) ;
#255 = ADVANCED_FACE ( 'NONE', ( #18 ), #82, .F. ) ;
#256 = AXIS2_PLACEMENT_3D ( 'NONE', #252, #298, #271 ) ;
#257 = VERTEX_POINT ( 'NONE', #180 ) ;
#258 = EDGE_CURVE ( 'NONE', #257, #72, #153, .T. ) ;
#259 = SURFACE_STYLE_FILL_AREA ( #181 ) ;
#260 = STYLED_ITEM ( 'NONE', ( #71 ), #41 ) ;
#261 = DIRECTION ( 'NONE',  ( -1.000000000000000000, 0.000000000000000000, 0.000000000000000000 ) ) ;
#262 = SURFACE_STYLE_USAGE ( .BOTH. , #241 ) ;
#263 = DIRECTION ( 'NONE',  ( 0.000000000000000000, 0.000000000000000000, 1.000000000000000000 ) ) ;
#264 = SURFACE_STYLE_FILL_AREA ( #158 ) ;
#265 =( LENGTH_UNIT ( ) NAMED_UNIT ( * ) SI_UNIT ( $, .METRE. ) );
#266 = EDGE_CURVE ( 'NONE', #80, #95, #165, .T. ) ;
#267 = CARTESIAN_POINT ( 'NONE',  ( 6.123233995736772199E-17, 2.500000000000000000, 0.000000000000000000 ) ) ;
#268 = CARTESIAN_POINT ( 'NONE',  ( 1.449978133535230669E-18, 0.07971446496184127206, 0.000000000000000000 ) ) ;
#269 = CIRCLE ( 'NONE', #127, 0.02999999999999999889 ) ;
#270 = FACE_OUTER_BOUND ( 'NONE', #121, .T. ) ;
#271 = DIRECTION ( 'NONE',  ( -1.000000000000000000, 0.000000000000000000, 0.000000000000000000 ) ) ;
#272 = ORIENTED_EDGE ( 'NONE', *, *, #113, .T. ) ;
#273 = AXIS2_PLACEMENT_3D ( 'NONE', #66, #219, #161 ) ;
#274 = PLANE ( 'NONE',  #227 ) ;
#275 = VERTEX_POINT ( 'NONE', #206 ) ;
#276 = ORIENTED_EDGE ( 'NONE', *, *, #113, .F. ) ;
#277 = ORIENTED_EDGE ( 'NONE', *, *, #168, .T. ) ;
#278 = STYLED_ITEM ( 'NONE', ( #25 ), #19 ) ;
#279 = AXIS2_PLACEMENT_3D ( 'NONE', #240, #114, #177 ) ;
#280 = CARTESIAN_POINT ( 'NONE',  ( 9.925899862829264458E-36, 5.456894683653680064E-19, 0.000000000000000000 ) ) ;
#281 = ORIENTED_EDGE ( 'NONE', *, *, #266, .T. ) ;
#282 = SURFACE_STYLE_USAGE ( .BOTH. , #237 ) ;
#283 = FILL_AREA_STYLE_COLOUR ( '', #195 ) ;
#284 = LENGTH_MEASURE_WITH_UNIT ( LENGTH_MEASURE( 0.02539999999999999897 ), #207 );
#285 = COLOUR_RGB ( '',1.000000000000000000, 0.000000000000000000, 0.000000000000000000 ) ;
#286 = CARTESIAN_POINT ( 'NONE',  ( -0.1249999999999996947, 2.500000000000000000, 0.000000000000000000 ) ) ;
#287 = DIRECTION ( 'NONE',  ( 1.818964894551226470E-17, 1.000000000000000000, 0.000000000000000000 ) ) ;
#288 = LINE ( 'NONE', #94, #247 ) ;
#289 = EDGE_CURVE ( 'NONE', #174, #80, #60, .T. ) ;
#290 =( NAMED_UNIT ( * ) SI_UNIT ( $, .STERADIAN. ) SOLID_ANGLE_UNIT ( ) );
#291 =( NAMED_UNIT ( * ) PLANE_ANGLE_UNIT ( ) SI_UNIT ( $, .RADIAN. ) );
#292 = DIRECTION ( 'NONE',  ( -1.818964894551226470E-17, -1.000000000000000000, -0.000000000000000000 ) ) ;
#293 = ORIENTED_EDGE ( 'NONE', *, *, #197, .F. ) ;
#294 = PRODUCT_RELATED_PRODUCT_CATEGORY ( 'part', '', ( #183 ) ) ;
#295 = SURFACE_SIDE_STYLE ('',( #100 ) ) ;
#296 = ORIENTED_EDGE ( 'NONE', *, *, #88, .F. ) ;
#297 = SURFACE_STYLE_USAGE ( .BOTH. , #230 ) ;
#298 = DIRECTION ( 'NONE',  ( -1.218560058245773238E-16, 1.000000000000000000, -0.000000000000000000 ) ) ;
#299 = AXIS2_PLACEMENT_3D ( 'NONE', #236, #133, #261 ) ;
#300 =( NAMED_UNIT ( * ) PLANE_ANGLE_UNIT ( ) SI_UNIT ( $, .RADIAN. ) );
#301 = CARTESIAN_POINT ( 'NONE',  ( 9.925899862829264458E-36, 5.456894683653680064E-19, 0.000000000000000000 ) ) ;
#302 = DIRECTION ( 'NONE',  ( -1.218560058245773238E-16, 1.000000000000000000, -0.000000000000000000 ) ) ;
#303 = LENGTH_MEASURE_WITH_UNIT ( LENGTH_MEASURE( 0.02539999999999999897 ), #184 );
#304 = AXIS2_PLACEMENT_3D ( 'NONE', #208, #302, #103 ) ;
#305 = COLOUR_RGB ( '',1.000000000000000000, 0.000000000000000000, 0.000000000000000000 ) ;
#306 = CYLINDRICAL_SURFACE ( 'NONE', #304, 0.1249999999999997641 ) ;
#307 = DIMENSIONAL_EXPONENTS ( 1.000000000000000000, 0.000000000000000000, 0.000000000000000000, 0.000000000000000000, 0.000000000000000000, 0.000000000000000000, 0.000000000000000000 ) ;
#308 = PLANE ( 'NONE',  #273 ) ;
#309 = AXIS2_PLACEMENT_3D ( 'NONE', #268, #51, #92 ) ;
ENDSEC;
END-ISO-10303-21;
