ISO-10303-21;
HEADER;
FILE_DESCRIPTION (( 'STEP AP214' ),
    '1' );
FILE_NAME ('Micro_RSC-312-2X.STEP',
    '2021-09-03T17:51:29',
    ( '' ),
    ( '' ),
    'SwSTEP 2.0',
    'SolidWorks 2020',
    '' );
FILE_SCHEMA (( 'AUTOMOTIVE_DESIGN' ));
ENDSEC;

DATA;
#1 = CARTESIAN_POINT ( 'NONE',  ( 0.003999999999999999216, 0.0000000000000000000, 2.500000000000000000 ) ) ;
#2 = CARTESIAN_POINT ( 'NONE',  ( 0.0000000000000000000, 0.0000000000000000000, 2.236295264547639494 ) ) ;
#3 = ORIENTED_EDGE ( 'NONE', *, *, #24, .F. ) ;
#4 = CONICAL_SURFACE ( 'NONE', #140, 0.003999999999999999216, 0.5235987755983003700 ) ;
#5 = DIRECTION ( 'NONE',  ( 0.5000000000000012212, 0.0000000000000000000, -0.8660254037844377084 ) ) ;
#6 = DIRECTION ( 'NONE',  ( 0.0000000000000000000, 0.0000000000000000000, 1.000000000000000000 ) ) ;
#7 = LINE ( 'NONE', #182, #159 ) ;
#8 = LINE ( 'NONE', #29, #27 ) ;
#9 = LINE ( 'NONE', #62, #185 ) ;
#10 = STYLED_ITEM ( 'NONE', ( #79 ), #117 ) ;
#11 = FILL_AREA_STYLE ('',( #107 ) ) ;
#12 = DIRECTION ( 'NONE',  ( 1.000000000000000000, 0.0000000000000000000, 0.0000000000000000000 ) ) ;
#13 = VECTOR ( 'NONE', #121, 39.37007874015748143 ) ;
#14 = CIRCLE ( 'NONE', #72, 0.1562500000000000000 ) ;
#15 = APPLICATION_PROTOCOL_DEFINITION ( 'draft international standard', 'automotive_design', 1998, #241 ) ;
#16 = ORIENTED_EDGE ( 'NONE', *, *, #149, .F. ) ;
#17 = LINE ( 'NONE', #110, #152 ) ;
#18 = FACE_OUTER_BOUND ( 'NONE', #244, .T. ) ;
#19 = CIRCLE ( 'NONE', #194, 0.1562500000000000000 ) ;
#20 = EDGE_CURVE ( 'NONE', #45, #100, #94, .T. ) ;
#21 = ORIENTED_EDGE ( 'NONE', *, *, #28, .T. ) ;
#22 =( LENGTH_UNIT ( ) NAMED_UNIT ( * ) SI_UNIT ( $, .METRE. ) );
#23 = EDGE_LOOP ( 'NONE', ( #21, #196 ) ) ;
#24 = EDGE_CURVE ( 'NONE', #100, #45, #102, .T. ) ;
#25 = DIRECTION ( 'NONE',  ( -0.0000000000000000000, -0.0000000000000000000, -1.000000000000000000 ) ) ;
#26 = ORIENTED_EDGE ( 'NONE', *, *, #71, .T. ) ;
#27 = VECTOR ( 'NONE', #5, 39.37007874015748854 ) ;
#28 = EDGE_CURVE ( 'NONE', #97, #209, #125, .T. ) ;
#29 = CARTESIAN_POINT ( 'NONE',  ( 0.003999999999999999216, 0.0000000000000000000, 2.500000000000000000 ) ) ;
#30 = CARTESIAN_POINT ( 'NONE',  ( 0.0000000000000000000, 0.0000000000000000000, 2.500000000000000000 ) ) ;
#31 = DIRECTION ( 'NONE',  ( 1.000000000000000000, 0.0000000000000000000, -0.0000000000000000000 ) ) ;
#32 = EDGE_CURVE ( 'NONE', #209, #141, #17, .T. ) ;
#33 = DIRECTION ( 'NONE',  ( -1.000000000000000000, 0.0000000000000000000, 0.0000000000000000000 ) ) ;
#34 = CIRCLE ( 'NONE', #93, 0.1562500000000000000 ) ;
#35 = EDGE_CURVE ( 'NONE', #213, #80, #9, .T. ) ;
#36 =( GEOMETRIC_REPRESENTATION_CONTEXT ( 3 ) GLOBAL_UNCERTAINTY_ASSIGNED_CONTEXT ( ( #49 ) ) GLOBAL_UNIT_ASSIGNED_CONTEXT ( ( #161, #109, #240 ) ) REPRESENTATION_CONTEXT ( 'NONE', 'WORKASPACE' ) );
#37 = CARTESIAN_POINT ( 'NONE',  ( 0.0000000000000000000, 0.0000000000000000000, 0.2637047354523606724 ) ) ;
#38 =( CONVERSION_BASED_UNIT ( 'INCH', #120 ) LENGTH_UNIT ( ) NAMED_UNIT ( #96 ) );
#39 = ORIENTED_EDGE ( 'NONE', *, *, #32, .F. ) ;
#40 = CARTESIAN_POINT ( 'NONE',  ( 0.0000000000000000000, 0.0000000000000000000, 2.500000000000000000 ) ) ;
#41 = CARTESIAN_POINT ( 'NONE',  ( 0.0000000000000000000, 0.0000000000000000000, 2.500000000000000000 ) ) ;
#42 = AXIS2_PLACEMENT_3D ( 'NONE', #171, #153, #61 ) ;
#43 = DIRECTION ( 'NONE',  ( 0.0000000000000000000, 0.0000000000000000000, -1.000000000000000000 ) ) ;
#44 = DIRECTION ( 'NONE',  ( -0.0000000000000000000, -0.0000000000000000000, -1.000000000000000000 ) ) ;
#45 = VERTEX_POINT ( 'NONE', #1 ) ;
#46 = CARTESIAN_POINT ( 'NONE',  ( 0.0000000000000000000, 0.0000000000000000000, 0.0000000000000000000 ) ) ;
#47 = DIRECTION ( 'NONE',  ( -1.000000000000000000, 0.0000000000000000000, 0.0000000000000000000 ) ) ;
#48 = CIRCLE ( 'NONE', #175, 0.1562500000000000000 ) ;
#49 = UNCERTAINTY_MEASURE_WITH_UNIT (LENGTH_MEASURE( 1.000000000000000082E-05 ), #161, 'distance_accuracy_value', 'NONE');
#50 = PRODUCT ( 'Micro_RSC-312-2X', 'Micro_RSC-312-2X', '', ( #145 ) ) ;
#51 = CYLINDRICAL_SURFACE ( 'NONE', #236, 0.1562500000000000000 ) ;
#52 = DIRECTION ( 'NONE',  ( -1.000000000000000000, 0.0000000000000000000, 0.0000000000000000000 ) ) ;
#53 = CARTESIAN_POINT ( 'NONE',  ( 0.0000000000000000000, 0.0000000000000000000, 0.0000000000000000000 ) ) ;
#54 = ORIENTED_EDGE ( 'NONE', *, *, #71, .F. ) ;
#55 = FACE_OUTER_BOUND ( 'NONE', #23, .T. ) ;
#56 = CONICAL_SURFACE ( 'NONE', #90, 0.003999999999999999216, 0.5235987755983003700 ) ;
#57 = PRODUCT_RELATED_PRODUCT_CATEGORY ( 'part', '', ( #50 ) ) ;
#58 =( GEOMETRIC_REPRESENTATION_CONTEXT ( 3 ) GLOBAL_UNCERTAINTY_ASSIGNED_CONTEXT ( ( #215 ) ) GLOBAL_UNIT_ASSIGNED_CONTEXT ( ( #189, #247, #212 ) ) REPRESENTATION_CONTEXT ( 'NONE', 'WORKASPACE' ) );
#59 = SURFACE_STYLE_USAGE ( .BOTH. , #224 ) ;
#60 = CARTESIAN_POINT ( 'NONE',  ( -0.003999999999999999216, -9.812482478168168956E-18, 2.500000000000000000 ) ) ;
#61 = DIRECTION ( 'NONE',  ( -1.000000000000000000, 0.0000000000000000000, 0.0000000000000000000 ) ) ;
#62 = CARTESIAN_POINT ( 'NONE',  ( 0.1562500000000000000, 1.913510623667739463E-17, 2.500000000000000000 ) ) ;
#63 = AXIS2_PLACEMENT_3D ( 'NONE', #41, #44, #139 ) ;
#64 = EDGE_LOOP ( 'NONE', ( #211, #85, #130, #16 ) ) ;
#65 = DIRECTION ( 'NONE',  ( 1.000000000000000000, 0.0000000000000000000, 0.0000000000000000000 ) ) ;
#66 = AXIS2_PLACEMENT_3D ( 'NONE', #126, #199, #235 ) ;
#67 = DIRECTION ( 'NONE',  ( 0.0000000000000000000, 0.0000000000000000000, -1.000000000000000000 ) ) ;
#68 = ORIENTED_EDGE ( 'NONE', *, *, #137, .T. ) ;
#69 = FACE_OUTER_BOUND ( 'NONE', #214, .T. ) ;
#70 = AXIS2_PLACEMENT_3D ( 'NONE', #87, #164, #12 ) ;
#71 = EDGE_CURVE ( 'NONE', #80, #141, #14, .T. ) ;
#72 = AXIS2_PLACEMENT_3D ( 'NONE', #183, #138, #156 ) ;
#73 =( NAMED_UNIT ( * ) SI_UNIT ( $, .STERADIAN. ) SOLID_ANGLE_UNIT ( ) );
#74 = EDGE_LOOP ( 'NONE', ( #178, #3 ) ) ;
#75 = COLOUR_RGB ( '',0.7921568627450980005, 0.8196078431372548767, 0.9333333333333333481 ) ;
#76 = FILL_AREA_STYLE_COLOUR ( '', #198 ) ;
#77 = EDGE_LOOP ( 'NONE', ( #179, #225, #157, #172 ) ) ;
#78 = DIRECTION ( 'NONE',  ( 0.0000000000000000000, 0.0000000000000000000, -1.000000000000000000 ) ) ;
#79 = PRESENTATION_STYLE_ASSIGNMENT (( #59 ) ) ;
#80 = VERTEX_POINT ( 'NONE', #128 ) ;
#81 = CARTESIAN_POINT ( 'NONE',  ( 0.003999999999999999216, 0.0000000000000000000, 0.0000000000000000000 ) ) ;
#82 = CYLINDRICAL_SURFACE ( 'NONE', #63, 0.1562500000000000000 ) ;
#83 = ORIENTED_EDGE ( 'NONE', *, *, #32, .T. ) ;
#84 = DIRECTION ( 'NONE',  ( -0.5000000000000012212, 6.123233995736780827E-17, 0.8660254037844377084 ) ) ;
#85 = ORIENTED_EDGE ( 'NONE', *, *, #24, .T. ) ;
#86 = CARTESIAN_POINT ( 'NONE',  ( 0.0000000000000000000, 0.0000000000000000000, 2.236295264547639494 ) ) ;
#87 = CARTESIAN_POINT ( 'NONE',  ( 0.0000000000000000000, 0.0000000000000000000, 0.0000000000000000000 ) ) ;
#88 = DIRECTION ( 'NONE',  ( 1.000000000000000000, 0.0000000000000000000, 0.0000000000000000000 ) ) ;
#89 = CARTESIAN_POINT ( 'NONE',  ( 0.0000000000000000000, 0.0000000000000000000, 2.500000000000000000 ) ) ;
#90 = AXIS2_PLACEMENT_3D ( 'NONE', #144, #67, #221 ) ;
#91 = CARTESIAN_POINT ( 'NONE',  ( -0.1562500000000000000, 0.0000000000000000000, 2.236295264547639494 ) ) ;
#92 = DIRECTION ( 'NONE',  ( 0.0000000000000000000, 0.0000000000000000000, 1.000000000000000000 ) ) ;
#93 = AXIS2_PLACEMENT_3D ( 'NONE', #2, #119, #173 ) ;
#94 = CIRCLE ( 'NONE', #131, 0.003999999999999999216 ) ;
#95 = DIRECTION ( 'NONE',  ( -0.0000000000000000000, -0.0000000000000000000, -1.000000000000000000 ) ) ;
#96 = DIMENSIONAL_EXPONENTS ( 1.000000000000000000, 0.0000000000000000000, 0.0000000000000000000, 0.0000000000000000000, 0.0000000000000000000, 0.0000000000000000000, 0.0000000000000000000 ) ;
#97 = VERTEX_POINT ( 'NONE', #81 ) ;
#98 = CARTESIAN_POINT ( 'NONE',  ( 0.1562500000000000000, 1.913510623667739463E-17, 2.236295264547639494 ) ) ;
#99 = PRODUCT_DEFINITION_CONTEXT ( 'detailed design', #241, 'design' ) ;
#100 = VERTEX_POINT ( 'NONE', #60 ) ;
#101 = VERTEX_POINT ( 'NONE', #91 ) ;
#102 = CIRCLE ( 'NONE', #223, 0.003999999999999999216 ) ;
#103 = DIMENSIONAL_EXPONENTS ( 1.000000000000000000, 0.0000000000000000000, 0.0000000000000000000, 0.0000000000000000000, 0.0000000000000000000, 0.0000000000000000000, 0.0000000000000000000 ) ;
#104 = CARTESIAN_POINT ( 'NONE',  ( 0.0000000000000000000, 0.0000000000000000000, 0.0000000000000000000 ) ) ;
#105 = EDGE_CURVE ( 'NONE', #101, #141, #220, .T. ) ;
#106 = CONICAL_SURFACE ( 'NONE', #66, 0.003999999999999999216, 0.5235987755983003700 ) ;
#107 = FILL_AREA_STYLE_COLOUR ( '', #75 ) ;
#108 = PRESENTATION_STYLE_ASSIGNMENT (( #200 ) ) ;
#109 =( NAMED_UNIT ( * ) PLANE_ANGLE_UNIT ( ) SI_UNIT ( $, .RADIAN. ) );
#110 = CARTESIAN_POINT ( 'NONE',  ( -0.003999999999999999216, 4.898587196589411612E-19, 0.0000000000000000000 ) ) ;
#111 = AXIS2_PLACEMENT_3D ( 'NONE', #53, #92, #31 ) ;
#112 = FACE_OUTER_BOUND ( 'NONE', #74, .T. ) ;
#113 = DIRECTION ( 'NONE',  ( 0.0000000000000000000, 0.0000000000000000000, -1.000000000000000000 ) ) ;
#114 = ADVANCED_FACE ( 'NONE', ( #112 ), #192, .T. ) ;
#115 = STYLED_ITEM ( 'NONE', ( #108 ), #150 ) ;
#116 = DIMENSIONAL_EXPONENTS ( 1.000000000000000000, 0.0000000000000000000, 0.0000000000000000000, 0.0000000000000000000, 0.0000000000000000000, 0.0000000000000000000, 0.0000000000000000000 ) ;
#117 = ADVANCED_BREP_SHAPE_REPRESENTATION ( 'Micro_RSC-312-2X', ( #150, #169 ), #58 ) ;
#118 = MECHANICAL_DESIGN_GEOMETRIC_PRESENTATION_REPRESENTATION (  '', ( #115 ), #36 ) ;
#119 = DIRECTION ( 'NONE',  ( 0.0000000000000000000, 0.0000000000000000000, -1.000000000000000000 ) ) ;
#120 = LENGTH_MEASURE_WITH_UNIT ( LENGTH_MEASURE( 0.02539999999999999897 ), #206 );
#121 = DIRECTION ( 'NONE',  ( -0.0000000000000000000, -0.0000000000000000000, -1.000000000000000000 ) ) ;
#122 = ORIENTED_EDGE ( 'NONE', *, *, #105, .F. ) ;
#123 = LINE ( 'NONE', #142, #136 ) ;
#124 = EDGE_LOOP ( 'NONE', ( #227, #197, #154, #122 ) ) ;
#125 = CIRCLE ( 'NONE', #248, 0.003999999999999999216 ) ;
#126 = CARTESIAN_POINT ( 'NONE',  ( 0.0000000000000000000, 0.0000000000000000000, 0.0000000000000000000 ) ) ;
#127 = DIRECTION ( 'NONE',  ( -1.000000000000000000, 0.0000000000000000000, 0.0000000000000000000 ) ) ;
#128 = CARTESIAN_POINT ( 'NONE',  ( 0.1562500000000000000, 1.913510623667739463E-17, 0.2637047354523606724 ) ) ;
#129 = UNCERTAINTY_MEASURE_WITH_UNIT (LENGTH_MEASURE( 1.000000000000000082E-05 ), #38, 'distance_accuracy_value', 'NONE');
#130 = ORIENTED_EDGE ( 'NONE', *, *, #170, .T. ) ;
#131 = AXIS2_PLACEMENT_3D ( 'NONE', #147, #249, #230 ) ;
#132 = FACE_OUTER_BOUND ( 'NONE', #124, .T. ) ;
#133 = PRODUCT_DEFINITION_FORMATION_WITH_SPECIFIED_SOURCE ( 'ANY', '', #50, .NOT_KNOWN. ) ;
#134 = ADVANCED_FACE ( 'NONE', ( #239 ), #4, .T. ) ;
#135 = CIRCLE ( 'NONE', #42, 0.003999999999999999216 ) ;
#136 = VECTOR ( 'NONE', #184, 39.37007874015748854 ) ;
#137 = EDGE_CURVE ( 'NONE', #97, #80, #123, .T. ) ;
#138 = DIRECTION ( 'NONE',  ( -0.0000000000000000000, -0.0000000000000000000, -1.000000000000000000 ) ) ;
#139 = DIRECTION ( 'NONE',  ( -1.000000000000000000, 0.0000000000000000000, 0.0000000000000000000 ) ) ;
#140 = AXIS2_PLACEMENT_3D ( 'NONE', #40, #78, #65 ) ;
#141 = VERTEX_POINT ( 'NONE', #146 ) ;
#142 = CARTESIAN_POINT ( 'NONE',  ( 0.003999999999999999216, 0.0000000000000000000, 0.0000000000000000000 ) ) ;
#143 = LENGTH_MEASURE_WITH_UNIT ( LENGTH_MEASURE( 0.02539999999999999897 ), #168 );
#144 = CARTESIAN_POINT ( 'NONE',  ( 0.0000000000000000000, 0.0000000000000000000, 2.500000000000000000 ) ) ;
#145 = PRODUCT_CONTEXT ( 'NONE', #163, 'mechanical' ) ;
#146 = CARTESIAN_POINT ( 'NONE',  ( -0.1562500000000000000, 0.0000000000000000000, 0.2637047354523606724 ) ) ;
#147 = CARTESIAN_POINT ( 'NONE',  ( 0.0000000000000000000, 0.0000000000000000000, 2.500000000000000000 ) ) ;
#148 = DIRECTION ( 'NONE',  ( -0.0000000000000000000, -0.0000000000000000000, -1.000000000000000000 ) ) ;
#149 = EDGE_CURVE ( 'NONE', #101, #213, #48, .T. ) ;
#150 = MANIFOLD_SOLID_BREP ( 'Mirror1', #204 ) ;
#151 = SURFACE_STYLE_FILL_AREA ( #243 ) ;
#152 = VECTOR ( 'NONE', #84, 39.37007874015748854 ) ;
#153 = DIRECTION ( 'NONE',  ( -0.0000000000000000000, -0.0000000000000000000, -1.000000000000000000 ) ) ;
#154 = ORIENTED_EDGE ( 'NONE', *, *, #242, .F. ) ;
#155 = EDGE_CURVE ( 'NONE', #100, #101, #7, .T. ) ;
#156 = DIRECTION ( 'NONE',  ( -1.000000000000000000, 0.0000000000000000000, 0.0000000000000000000 ) ) ;
#157 = ORIENTED_EDGE ( 'NONE', *, *, #231, .F. ) ;
#158 = ORIENTED_EDGE ( 'NONE', *, *, #222, .F. ) ;
#159 = VECTOR ( 'NONE', #216, 39.37007874015748854 ) ;
#160 = DIRECTION ( 'NONE',  ( -0.0000000000000000000, -0.0000000000000000000, -1.000000000000000000 ) ) ;
#161 =( CONVERSION_BASED_UNIT ( 'INCH', #143 ) LENGTH_UNIT ( ) NAMED_UNIT ( #116 ) );
#162 = ADVANCED_FACE ( 'NONE', ( #69 ), #210, .T. ) ;
#163 = APPLICATION_CONTEXT ( 'automotive_design' ) ;
#164 = DIRECTION ( 'NONE',  ( 0.0000000000000000000, 0.0000000000000000000, 1.000000000000000000 ) ) ;
#165 = AXIS2_PLACEMENT_3D ( 'NONE', #207, #234, #176 ) ;
#166 = FACE_OUTER_BOUND ( 'NONE', #195, .T. ) ;
#167 = CARTESIAN_POINT ( 'NONE',  ( -0.1562500000000000000, 0.0000000000000000000, 2.500000000000000000 ) ) ;
#168 =( LENGTH_UNIT ( ) NAMED_UNIT ( * ) SI_UNIT ( $, .METRE. ) );
#169 = AXIS2_PLACEMENT_3D ( 'NONE', #46, #6, #88 ) ;
#170 = EDGE_CURVE ( 'NONE', #45, #213, #8, .T. ) ;
#171 = CARTESIAN_POINT ( 'NONE',  ( 0.0000000000000000000, 0.0000000000000000000, 0.0000000000000000000 ) ) ;
#172 = ORIENTED_EDGE ( 'NONE', *, *, #170, .F. ) ;
#173 = DIRECTION ( 'NONE',  ( -1.000000000000000000, 0.0000000000000000000, 0.0000000000000000000 ) ) ;
#174 = ORIENTED_EDGE ( 'NONE', *, *, #35, .F. ) ;
#175 = AXIS2_PLACEMENT_3D ( 'NONE', #86, #113, #127 ) ;
#176 = DIRECTION ( 'NONE',  ( 1.000000000000000000, 0.0000000000000000000, -0.0000000000000000000 ) ) ;
#177 =( NAMED_UNIT ( * ) PLANE_ANGLE_UNIT ( ) SI_UNIT ( $, .RADIAN. ) );
#178 = ORIENTED_EDGE ( 'NONE', *, *, #20, .F. ) ;
#179 = ORIENTED_EDGE ( 'NONE', *, *, #20, .T. ) ;
#180 = PRESENTATION_LAYER_ASSIGNMENT (  '', '', ( #115 ) ) ;
#181 = ADVANCED_FACE ( 'NONE', ( #132 ), #51, .T. ) ;
#182 = CARTESIAN_POINT ( 'NONE',  ( -0.003999999999999999216, -4.898587196589411612E-19, 2.500000000000000000 ) ) ;
#183 = CARTESIAN_POINT ( 'NONE',  ( 0.0000000000000000000, 0.0000000000000000000, 0.2637047354523606724 ) ) ;
#184 = DIRECTION ( 'NONE',  ( 0.5000000000000012212, 0.0000000000000000000, 0.8660254037844377084 ) ) ;
#185 = VECTOR ( 'NONE', #160, 39.37007874015748143 ) ;
#186 = ADVANCED_FACE ( 'NONE', ( #166 ), #106, .T. ) ;
#187 =( GEOMETRIC_REPRESENTATION_CONTEXT ( 3 ) GLOBAL_UNCERTAINTY_ASSIGNED_CONTEXT ( ( #129 ) ) GLOBAL_UNIT_ASSIGNED_CONTEXT ( ( #38, #177, #73 ) ) REPRESENTATION_CONTEXT ( 'NONE', 'WORKASPACE' ) );
#188 = ADVANCED_FACE ( 'NONE', ( #237 ), #56, .T. ) ;
#189 =( CONVERSION_BASED_UNIT ( 'INCH', #193 ) LENGTH_UNIT ( ) NAMED_UNIT ( #103 ) );
#190 = DIRECTION ( 'NONE',  ( -1.000000000000000000, 0.0000000000000000000, 0.0000000000000000000 ) ) ;
#191 = ORIENTED_EDGE ( 'NONE', *, *, #105, .T. ) ;
#192 = PLANE ( 'NONE',  #165 ) ;
#193 = LENGTH_MEASURE_WITH_UNIT ( LENGTH_MEASURE( 0.02539999999999999897 ), #22 );
#194 = AXIS2_PLACEMENT_3D ( 'NONE', #37, #95, #190 ) ;
#195 = EDGE_LOOP ( 'NONE', ( #158, #83, #202, #203 ) ) ;
#196 = ORIENTED_EDGE ( 'NONE', *, *, #222, .T. ) ;
#197 = ORIENTED_EDGE ( 'NONE', *, *, #35, .T. ) ;
#198 = COLOUR_RGB ( '',0.7921568627450980005, 0.8196078431372548767, 0.9333333333333333481 ) ;
#199 = DIRECTION ( 'NONE',  ( 0.0000000000000000000, 0.0000000000000000000, 1.000000000000000000 ) ) ;
#200 = SURFACE_STYLE_USAGE ( .BOTH. , #217 ) ;
#201 = ADVANCED_FACE ( 'NONE', ( #55 ), #219, .F. ) ;
#202 = ORIENTED_EDGE ( 'NONE', *, *, #242, .T. ) ;
#203 = ORIENTED_EDGE ( 'NONE', *, *, #137, .F. ) ;
#204 = CLOSED_SHELL ( 'NONE', ( #188, #186, #181, #245, #162, #201, #134, #114 ) ) ;
#205 = SURFACE_STYLE_FILL_AREA ( #11 ) ;
#206 =( LENGTH_UNIT ( ) NAMED_UNIT ( * ) SI_UNIT ( $, .METRE. ) );
#207 = CARTESIAN_POINT ( 'NONE',  ( 0.0000000000000000000, 0.0000000000000000000, 2.500000000000000000 ) ) ;
#208 = CARTESIAN_POINT ( 'NONE',  ( -0.003999999999999999216, 9.812482478168165875E-18, 0.0000000000000000000 ) ) ;
#209 = VERTEX_POINT ( 'NONE', #208 ) ;
#210 = CONICAL_SURFACE ( 'NONE', #70, 0.003999999999999999216, 0.5235987755983003700 ) ;
#211 = ORIENTED_EDGE ( 'NONE', *, *, #155, .F. ) ;
#212 =( NAMED_UNIT ( * ) SI_UNIT ( $, .STERADIAN. ) SOLID_ANGLE_UNIT ( ) );
#213 = VERTEX_POINT ( 'NONE', #98 ) ;
#214 = EDGE_LOOP ( 'NONE', ( #39, #232, #68, #26 ) ) ;
#215 = UNCERTAINTY_MEASURE_WITH_UNIT (LENGTH_MEASURE( 1.000000000000000082E-05 ), #189, 'distance_accuracy_value', 'NONE');
#216 = DIRECTION ( 'NONE',  ( -0.5000000000000012212, -6.123233995736780827E-17, -0.8660254037844377084 ) ) ;
#217 = SURFACE_SIDE_STYLE ('',( #205 ) ) ;
#218 = APPLICATION_PROTOCOL_DEFINITION ( 'draft international standard', 'automotive_design', 1998, #163 ) ;
#219 = PLANE ( 'NONE',  #111 ) ;
#220 = LINE ( 'NONE', #167, #13 ) ;
#221 = DIRECTION ( 'NONE',  ( 1.000000000000000000, 0.0000000000000000000, 0.0000000000000000000 ) ) ;
#222 = EDGE_CURVE ( 'NONE', #209, #97, #135, .T. ) ;
#223 = AXIS2_PLACEMENT_3D ( 'NONE', #30, #43, #33 ) ;
#224 = SURFACE_SIDE_STYLE ('',( #151 ) ) ;
#225 = ORIENTED_EDGE ( 'NONE', *, *, #155, .T. ) ;
#226 = MECHANICAL_DESIGN_GEOMETRIC_PRESENTATION_REPRESENTATION (  '', ( #10 ), #187 ) ;
#227 = ORIENTED_EDGE ( 'NONE', *, *, #149, .T. ) ;
#228 = PRODUCT_DEFINITION ( 'UNKNOWN', '', #133, #99 ) ;
#229 = ORIENTED_EDGE ( 'NONE', *, *, #231, .T. ) ;
#230 = DIRECTION ( 'NONE',  ( -1.000000000000000000, 0.0000000000000000000, 0.0000000000000000000 ) ) ;
#231 = EDGE_CURVE ( 'NONE', #213, #101, #34, .T. ) ;
#232 = ORIENTED_EDGE ( 'NONE', *, *, #28, .F. ) ;
#233 = PRESENTATION_LAYER_ASSIGNMENT (  '', '', ( #10 ) ) ;
#234 = DIRECTION ( 'NONE',  ( 0.0000000000000000000, 0.0000000000000000000, 1.000000000000000000 ) ) ;
#235 = DIRECTION ( 'NONE',  ( 1.000000000000000000, 0.0000000000000000000, 0.0000000000000000000 ) ) ;
#236 = AXIS2_PLACEMENT_3D ( 'NONE', #89, #148, #47 ) ;
#237 = FACE_OUTER_BOUND ( 'NONE', #77, .T. ) ;
#238 = PRODUCT_DEFINITION_SHAPE ( 'NONE', 'NONE',  #228 ) ;
#239 = FACE_OUTER_BOUND ( 'NONE', #64, .T. ) ;
#240 =( NAMED_UNIT ( * ) SI_UNIT ( $, .STERADIAN. ) SOLID_ANGLE_UNIT ( ) );
#241 = APPLICATION_CONTEXT ( 'automotive_design' ) ;
#242 = EDGE_CURVE ( 'NONE', #141, #80, #19, .T. ) ;
#243 = FILL_AREA_STYLE ('',( #76 ) ) ;
#244 = EDGE_LOOP ( 'NONE', ( #174, #229, #191, #54 ) ) ;
#245 = ADVANCED_FACE ( 'NONE', ( #18 ), #82, .T. ) ;
#246 = SHAPE_DEFINITION_REPRESENTATION ( #238, #117 ) ;
#247 =( NAMED_UNIT ( * ) PLANE_ANGLE_UNIT ( ) SI_UNIT ( $, .RADIAN. ) );
#248 = AXIS2_PLACEMENT_3D ( 'NONE', #104, #25, #52 ) ;
#249 = DIRECTION ( 'NONE',  ( 0.0000000000000000000, 0.0000000000000000000, -1.000000000000000000 ) ) ;
ENDSEC;
END-ISO-10303-21;
