ISO-10303-21;
HEADER;
FILE_DESCRIPTION (( 'STEP AP214' ),
    '1' );
FILE_NAME ('Micro_SPD-750-090.STEP',
    '2021-09-03T21:22:26',
    ( '' ),
    ( '' ),
    'SwSTEP 2.0',
    'SolidWorks 2020',
    '' );
FILE_SCHEMA (( 'AUTOMOTIVE_DESIGN' ));
ENDSEC;

DATA;
#1 = DIRECTION ( 'NONE',  ( 0.0000000000000000000, 0.0000000000000000000, 1.000000000000000000 ) ) ;
#2 = AXIS2_PLACEMENT_3D ( 'NONE', #89, #307, #60 ) ;
#3 = CARTESIAN_POINT ( 'NONE',  ( 0.3750000000000000555, 4.592425496802575451E-17, 2.500000000000000000 ) ) ;
#4 = AXIS2_PLACEMENT_3D ( 'NONE', #49, #272, #250 ) ;
#5 = CARTESIAN_POINT ( 'NONE',  ( 0.0000000000000000000, 0.0000000000000000000, 2.500000000000000000 ) ) ;
#6 = ORIENTED_EDGE ( 'NONE', *, *, #292, .F. ) ;
#7 = PRODUCT_CONTEXT ( 'NONE', #323, 'mechanical' ) ;
#8 = EDGE_LOOP ( 'NONE', ( #269, #271, #302, #16 ) ) ;
#9 = APPLICATION_PROTOCOL_DEFINITION ( 'draft international standard', 'automotive_design', 1998, #235 ) ;
#10 = CARTESIAN_POINT ( 'NONE',  ( 0.0000000000000000000, 0.0000000000000000000, 0.0000000000000000000 ) ) ;
#11 = COLOUR_RGB ( '',0.7921568627450980005, 0.8196078431372548767, 0.9333333333333333481 ) ;
#12 = CARTESIAN_POINT ( 'NONE',  ( 0.0000000000000000000, 0.0000000000000000000, 0.0000000000000000000 ) ) ;
#13 = ORIENTED_EDGE ( 'NONE', *, *, #316, .T. ) ;
#14 = UNCERTAINTY_MEASURE_WITH_UNIT (LENGTH_MEASURE( 1.000000000000000082E-05 ), #90, 'distance_accuracy_value', 'NONE');
#15 = ORIENTED_EDGE ( 'NONE', *, *, #76, .T. ) ;
#16 = ORIENTED_EDGE ( 'NONE', *, *, #342, .T. ) ;
#17 =( GEOMETRIC_REPRESENTATION_CONTEXT ( 3 ) GLOBAL_UNCERTAINTY_ASSIGNED_CONTEXT ( ( #68 ) ) GLOBAL_UNIT_ASSIGNED_CONTEXT ( ( #291, #158, #39 ) ) REPRESENTATION_CONTEXT ( 'NONE', 'WORKASPACE' ) );
#18 = ORIENTED_EDGE ( 'NONE', *, *, #167, .T. ) ;
#19 = CARTESIAN_POINT ( 'NONE',  ( 0.0000000000000000000, 0.0000000000000000000, 2.500000000000000000 ) ) ;
#20 = FACE_OUTER_BOUND ( 'NONE', #300, .T. ) ;
#21 = CONICAL_SURFACE ( 'NONE', #222, 0.3749500000000001165, 0.7853981633974501664 ) ;
#22 = CARTESIAN_POINT ( 'NONE',  ( 0.3749500000000001165, 0.0000000000000000000, 1.125000000000000000 ) ) ;
#23 = CONICAL_SURFACE ( 'NONE', #346, 0.04900000000000000189, 0.7853981633974503884 ) ;
#24 = FACE_OUTER_BOUND ( 'NONE', #217, .T. ) ;
#25 = ORIENTED_EDGE ( 'NONE', *, *, #103, .T. ) ;
#26 = DIRECTION ( 'NONE',  ( 0.0000000000000000000, 0.0000000000000000000, -1.000000000000000000 ) ) ;
#27 = ORIENTED_EDGE ( 'NONE', *, *, #161, .F. ) ;
#28 = AXIS2_PLACEMENT_3D ( 'NONE', #10, #117, #334 ) ;
#29 = PRODUCT_DEFINITION_FORMATION_WITH_SPECIFIED_SOURCE ( 'ANY', '', #182, .NOT_KNOWN. ) ;
#30 = FACE_OUTER_BOUND ( 'NONE', #143, .T. ) ;
#31 = LENGTH_MEASURE_WITH_UNIT ( LENGTH_MEASURE( 0.02539999999999999897 ), #57 );
#32 = VERTEX_POINT ( 'NONE', #196 ) ;
#33 = ORIENTED_EDGE ( 'NONE', *, *, #333, .F. ) ;
#34 = EDGE_LOOP ( 'NONE', ( #220, #18 ) ) ;
#35 =( NAMED_UNIT ( * ) SI_UNIT ( $, .STERADIAN. ) SOLID_ANGLE_UNIT ( ) );
#36 = AXIS2_PLACEMENT_3D ( 'NONE', #208, #318, #183 ) ;
#37 = ORIENTED_EDGE ( 'NONE', *, *, #221, .F. ) ;
#38 = EDGE_CURVE ( 'NONE', #32, #110, #74, .T. ) ;
#39 =( NAMED_UNIT ( * ) SI_UNIT ( $, .STERADIAN. ) SOLID_ANGLE_UNIT ( ) );
#40 = DIRECTION ( 'NONE',  ( -1.000000000000000000, 0.0000000000000000000, 0.0000000000000000000 ) ) ;
#41 = EDGE_CURVE ( 'NONE', #198, #328, #124, .T. ) ;
#42 = DIRECTION ( 'NONE',  ( 1.000000000000000000, 0.0000000000000000000, 0.0000000000000000000 ) ) ;
#43 = VECTOR ( 'NONE', #179, 39.37007874015748143 ) ;
#44 = STYLED_ITEM ( 'NONE', ( #203 ), #265 ) ;
#45 = FILL_AREA_STYLE_COLOUR ( '', #326 ) ;
#46 = DIRECTION ( 'NONE',  ( 0.7071067811865487940, 0.0000000000000000000, 0.7071067811865462405 ) ) ;
#47 = CARTESIAN_POINT ( 'NONE',  ( 0.0000000000000000000, 0.0000000000000000000, 1.125000000000000000 ) ) ;
#48 = ORIENTED_EDGE ( 'NONE', *, *, #209, .F. ) ;
#49 = CARTESIAN_POINT ( 'NONE',  ( 0.0000000000000000000, 0.0000000000000000000, 2.500000000000000000 ) ) ;
#50 = ORIENTED_EDGE ( 'NONE', *, *, #167, .F. ) ;
#51 = PLANE ( 'NONE',  #268 ) ;
#52 = ORIENTED_EDGE ( 'NONE', *, *, #127, .T. ) ;
#53 = AXIS2_PLACEMENT_3D ( 'NONE', #19, #160, #42 ) ;
#54 = CIRCLE ( 'NONE', #309, 0.3750000000000000555 ) ;
#55 = CARTESIAN_POINT ( 'NONE',  ( -0.04900000000000000189, 6.000769315822030524E-18, 0.0000000000000000000 ) ) ;
#56 = ADVANCED_FACE ( 'NONE', ( #147 ), #156, .T. ) ;
#57 =( LENGTH_UNIT ( ) NAMED_UNIT ( * ) SI_UNIT ( $, .METRE. ) );
#58 = EDGE_LOOP ( 'NONE', ( #295, #52, #112, #6 ) ) ;
#59 = ADVANCED_FACE ( 'NONE', ( #170 ), #23, .T. ) ;
#60 = DIRECTION ( 'NONE',  ( -1.000000000000000000, 0.0000000000000000000, 0.0000000000000000000 ) ) ;
#61 = AXIS2_PLACEMENT_3D ( 'NONE', #343, #284, #285 ) ;
#62 = ADVANCED_FACE ( 'NONE', ( #337 ), #146, .T. ) ;
#63 = CARTESIAN_POINT ( 'NONE',  ( -0.3600000000000002642, 0.0000000000000000000, 2.500000000000000000 ) ) ;
#64 = CARTESIAN_POINT ( 'NONE',  ( 0.0000000000000000000, 0.0000000000000000000, 1.125049999999999883 ) ) ;
#65 = LINE ( 'NONE', #176, #126 ) ;
#66 = VECTOR ( 'NONE', #218, 39.37007874015748143 ) ;
#67 =( LENGTH_UNIT ( ) NAMED_UNIT ( * ) SI_UNIT ( $, .METRE. ) );
#68 = UNCERTAINTY_MEASURE_WITH_UNIT (LENGTH_MEASURE( 1.000000000000000082E-05 ), #291, 'distance_accuracy_value', 'NONE');
#69 = EDGE_CURVE ( 'NONE', #151, #113, #211, .T. ) ;
#70 = SURFACE_STYLE_FILL_AREA ( #73 ) ;
#71 = EDGE_CURVE ( 'NONE', #153, #251, #108, .T. ) ;
#72 = CIRCLE ( 'NONE', #53, 0.3600000000000002642 ) ;
#73 = FILL_AREA_STYLE ('',( #45 ) ) ;
#74 = CIRCLE ( 'NONE', #227, 0.3750000000000000555 ) ;
#75 = CARTESIAN_POINT ( 'NONE',  ( 0.3600000000000002642, 4.500576986866523548E-17, 2.500000000000000000 ) ) ;
#76 = EDGE_CURVE ( 'NONE', #219, #153, #202, .T. ) ;
#77 = CARTESIAN_POINT ( 'NONE',  ( 0.3749500000000000055, 4.591813173403000728E-17, 0.3259499999999986297 ) ) ;
#78 = CARTESIAN_POINT ( 'NONE',  ( 0.3600000000000002642, 4.408728476930474110E-17, 2.500000000000000000 ) ) ;
#79 = CYLINDRICAL_SURFACE ( 'NONE', #319, 0.3750000000000000555 ) ;
#80 = ORIENTED_EDGE ( 'NONE', *, *, #231, .F. ) ;
#81 = CARTESIAN_POINT ( 'NONE',  ( 0.0000000000000000000, 0.0000000000000000000, 1.125049999999999883 ) ) ;
#82 = ORIENTED_EDGE ( 'NONE', *, *, #338, .T. ) ;
#83 = EDGE_CURVE ( 'NONE', #198, #278, #240, .T. ) ;
#84 = CIRCLE ( 'NONE', #128, 0.04900000000000000189 ) ;
#85 = DIRECTION ( 'NONE',  ( -1.000000000000000000, 0.0000000000000000000, 0.0000000000000000000 ) ) ;
#86 = FILL_AREA_STYLE ('',( #253 ) ) ;
#87 = ORIENTED_EDGE ( 'NONE', *, *, #187, .T. ) ;
#88 = EDGE_CURVE ( 'NONE', #113, #278, #65, .T. ) ;
#89 = CARTESIAN_POINT ( 'NONE',  ( 0.0000000000000000000, 0.0000000000000000000, 1.125000000000000000 ) ) ;
#90 =( CONVERSION_BASED_UNIT ( 'INCH', #31 ) LENGTH_UNIT ( ) NAMED_UNIT ( #188 ) );
#91 = DIRECTION ( 'NONE',  ( 1.000000000000000000, 0.0000000000000000000, 0.0000000000000000000 ) ) ;
#92 = AXIS2_PLACEMENT_3D ( 'NONE', #132, #1, #242 ) ;
#93 = PRODUCT_RELATED_PRODUCT_CATEGORY ( 'part', '', ( #182 ) ) ;
#94 = CARTESIAN_POINT ( 'NONE',  ( 0.0000000000000000000, 0.0000000000000000000, 2.484999999999999876 ) ) ;
#95 = PRODUCT_DEFINITION_CONTEXT ( 'detailed design', #235, 'design' ) ;
#96 = PRESENTATION_LAYER_ASSIGNMENT (  '', '', ( #273 ) ) ;
#97 = CYLINDRICAL_SURFACE ( 'NONE', #36, 0.3750000000000000555 ) ;
#98 = CARTESIAN_POINT ( 'NONE',  ( 0.0000000000000000000, 0.0000000000000000000, 1.125000000000000000 ) ) ;
#99 = CARTESIAN_POINT ( 'NONE',  ( -0.3749500000000001165, 4.591813173403002577E-17, 1.125000000000000000 ) ) ;
#100 = FACE_OUTER_BOUND ( 'NONE', #150, .T. ) ;
#101 = CIRCLE ( 'NONE', #248, 0.3749500000000000055 ) ;
#102 = CONICAL_SURFACE ( 'NONE', #200, 0.3600000000000002642, 0.7853981633974324028 ) ;
#103 = EDGE_CURVE ( 'NONE', #262, #219, #72, .T. ) ;
#104 = DIRECTION ( 'NONE',  ( -0.7071067811865490160, 8.659560562354951347E-17, 0.7071067811865460184 ) ) ;
#105 = CLOSED_SHELL ( 'NONE', ( #56, #289, #154, #322, #144, #281, #299, #256, #114, #62, #59, #310 ) ) ;
#106 = CARTESIAN_POINT ( 'NONE',  ( 0.0000000000000000000, 0.0000000000000000000, 0.0000000000000000000 ) ) ;
#107 = DIRECTION ( 'NONE',  ( 0.0000000000000000000, 0.0000000000000000000, 1.000000000000000000 ) ) ;
#108 = CIRCLE ( 'NONE', #308, 0.3750000000000000555 ) ;
#109 = DIRECTION ( 'NONE',  ( -1.000000000000000000, 0.0000000000000000000, 0.0000000000000000000 ) ) ;
#110 = VERTEX_POINT ( 'NONE', #234 ) ;
#111 = DIRECTION ( 'NONE',  ( -1.000000000000000000, 0.0000000000000000000, 0.0000000000000000000 ) ) ;
#112 = ORIENTED_EDGE ( 'NONE', *, *, #231, .T. ) ;
#113 = VERTEX_POINT ( 'NONE', #341 ) ;
#114 = ADVANCED_FACE ( 'NONE', ( #100 ), #21, .T. ) ;
#115 = VECTOR ( 'NONE', #276, 39.37007874015748143 ) ;
#116 = DIRECTION ( 'NONE',  ( -0.0000000000000000000, -0.0000000000000000000, -1.000000000000000000 ) ) ;
#117 = DIRECTION ( 'NONE',  ( -0.0000000000000000000, -0.0000000000000000000, -1.000000000000000000 ) ) ;
#118 = DIRECTION ( 'NONE',  ( 0.0000000000000000000, 0.0000000000000000000, 1.000000000000000000 ) ) ;
#119 = ORIENTED_EDGE ( 'NONE', *, *, #263, .F. ) ;
#120 = DIRECTION ( 'NONE',  ( 1.000000000000000000, 0.0000000000000000000, 0.0000000000000000000 ) ) ;
#121 =( NAMED_UNIT ( * ) PLANE_ANGLE_UNIT ( ) SI_UNIT ( $, .RADIAN. ) );
#122 = ORIENTED_EDGE ( 'NONE', *, *, #38, .F. ) ;
#123 = CARTESIAN_POINT ( 'NONE',  ( 0.0000000000000000000, 0.0000000000000000000, 0.0000000000000000000 ) ) ;
#124 = CIRCLE ( 'NONE', #243, 0.04900000000000000189 ) ;
#125 = DIRECTION ( 'NONE',  ( -0.0000000000000000000, -0.0000000000000000000, -1.000000000000000000 ) ) ;
#126 = VECTOR ( 'NONE', #320, 39.37007874015748143 ) ;
#127 = EDGE_CURVE ( 'NONE', #151, #110, #157, .T. ) ;
#128 = AXIS2_PLACEMENT_3D ( 'NONE', #238, #207, #317 ) ;
#129 = LINE ( 'NONE', #264, #336 ) ;
#130 = CARTESIAN_POINT ( 'NONE',  ( 0.0000000000000000000, 0.0000000000000000000, 0.0000000000000000000 ) ) ;
#131 = CIRCLE ( 'NONE', #4, 0.3600000000000002642 ) ;
#132 = CARTESIAN_POINT ( 'NONE',  ( 0.0000000000000000000, 0.0000000000000000000, 2.500000000000000000 ) ) ;
#133 = EDGE_CURVE ( 'NONE', #233, #278, #101, .T. ) ;
#134 = CYLINDRICAL_SURFACE ( 'NONE', #314, 0.3749500000000000610 ) ;
#135 = ORIENTED_EDGE ( 'NONE', *, *, #88, .T. ) ;
#136 = FACE_OUTER_BOUND ( 'NONE', #297, .T. ) ;
#137 = EDGE_LOOP ( 'NONE', ( #282, #25 ) ) ;
#138 =( GEOMETRIC_REPRESENTATION_CONTEXT ( 3 ) GLOBAL_UNCERTAINTY_ASSIGNED_CONTEXT ( ( #14 ) ) GLOBAL_UNIT_ASSIGNED_CONTEXT ( ( #90, #121, #171 ) ) REPRESENTATION_CONTEXT ( 'NONE', 'WORKASPACE' ) );
#139 = VECTOR ( 'NONE', #274, 39.37007874015748854 ) ;
#140 = CARTESIAN_POINT ( 'NONE',  ( -0.04900000000000000189, 2.595945052492601852E-17, 0.0000000000000000000 ) ) ;
#141 = ORIENTED_EDGE ( 'NONE', *, *, #338, .F. ) ;
#142 =( NAMED_UNIT ( * ) PLANE_ANGLE_UNIT ( ) SI_UNIT ( $, .RADIAN. ) );
#143 = EDGE_LOOP ( 'NONE', ( #330, #13, #304, #258 ) ) ;
#144 = ADVANCED_FACE ( 'NONE', ( #20 ), #97, .T. ) ;
#145 = MANIFOLD_SOLID_BREP ( 'Cut-Revolve2', #105 ) ;
#146 = CYLINDRICAL_SURFACE ( 'NONE', #28, 0.3749500000000000610 ) ;
#147 = FACE_OUTER_BOUND ( 'NONE', #226, .T. ) ;
#148 = SURFACE_STYLE_FILL_AREA ( #86 ) ;
#149 = PRODUCT_DEFINITION ( 'UNKNOWN', '', #29, #95 ) ;
#150 = EDGE_LOOP ( 'NONE', ( #332, #48, #247, #164 ) ) ;
#151 = VERTEX_POINT ( 'NONE', #206 ) ;
#152 = CIRCLE ( 'NONE', #344, 0.3749500000000000055 ) ;
#153 = VERTEX_POINT ( 'NONE', #315 ) ;
#154 = ADVANCED_FACE ( 'NONE', ( #177 ), #303, .T. ) ;
#155 = DIRECTION ( 'NONE',  ( 0.0000000000000000000, 0.0000000000000000000, 1.000000000000000000 ) ) ;
#156 = CONICAL_SURFACE ( 'NONE', #347, 0.04900000000000000189, 0.7853981633974503884 ) ;
#157 = LINE ( 'NONE', #99, #43 ) ;
#158 =( NAMED_UNIT ( * ) PLANE_ANGLE_UNIT ( ) SI_UNIT ( $, .RADIAN. ) );
#159 = SURFACE_SIDE_STYLE ('',( #70 ) ) ;
#160 = DIRECTION ( 'NONE',  ( 0.0000000000000000000, 0.0000000000000000000, 1.000000000000000000 ) ) ;
#161 = EDGE_CURVE ( 'NONE', #153, #110, #129, .T. ) ;
#162 = DIRECTION ( 'NONE',  ( -1.000000000000000000, 0.0000000000000000000, 0.0000000000000000000 ) ) ;
#163 = LINE ( 'NONE', #55, #215 ) ;
#164 = ORIENTED_EDGE ( 'NONE', *, *, #38, .T. ) ;
#165 = DIRECTION ( 'NONE',  ( 1.000000000000000000, 0.0000000000000000000, 0.0000000000000000000 ) ) ;
#166 = CARTESIAN_POINT ( 'NONE',  ( 0.0000000000000000000, 0.0000000000000000000, 2.500000000000000000 ) ) ;
#167 = EDGE_CURVE ( 'NONE', #328, #198, #84, .T. ) ;
#168 =( GEOMETRIC_REPRESENTATION_CONTEXT ( 3 ) GLOBAL_UNCERTAINTY_ASSIGNED_CONTEXT ( ( #223 ) ) GLOBAL_UNIT_ASSIGNED_CONTEXT ( ( #259, #142, #35 ) ) REPRESENTATION_CONTEXT ( 'NONE', 'WORKASPACE' ) );
#169 = DIRECTION ( 'NONE',  ( 0.0000000000000000000, 0.0000000000000000000, -1.000000000000000000 ) ) ;
#170 = FACE_OUTER_BOUND ( 'NONE', #8, .T. ) ;
#171 =( NAMED_UNIT ( * ) SI_UNIT ( $, .STERADIAN. ) SOLID_ANGLE_UNIT ( ) );
#172 = ORIENTED_EDGE ( 'NONE', *, *, #88, .F. ) ;
#173 = ORIENTED_EDGE ( 'NONE', *, *, #83, .F. ) ;
#174 = DIRECTION ( 'NONE',  ( -0.7071067811865362485, 0.0000000000000000000, -0.7071067811865586750 ) ) ;
#175 = EDGE_LOOP ( 'NONE', ( #204, #33, #15, #37 ) ) ;
#176 = CARTESIAN_POINT ( 'NONE',  ( 0.3749500000000000610, 4.591813173403001345E-17, 0.0000000000000000000 ) ) ;
#177 = FACE_OUTER_BOUND ( 'NONE', #58, .T. ) ;
#178 = MECHANICAL_DESIGN_GEOMETRIC_PRESENTATION_REPRESENTATION (  '', ( #273 ), #17 ) ;
#179 = DIRECTION ( 'NONE',  ( -0.7071067811865487940, 8.659560562354948882E-17, 0.7071067811865462405 ) ) ;
#180 = VECTOR ( 'NONE', #174, 39.37007874015748854 ) ;
#181 = CIRCLE ( 'NONE', #339, 0.3749500000000001165 ) ;
#182 = PRODUCT ( 'Micro_SPD-750-090', 'Micro_SPD-750-090', '', ( #7 ) ) ;
#183 = DIRECTION ( 'NONE',  ( -1.000000000000000000, 0.0000000000000000000, 0.0000000000000000000 ) ) ;
#184 = DIRECTION ( 'NONE',  ( -0.0000000000000000000, -0.0000000000000000000, -1.000000000000000000 ) ) ;
#185 = ORIENTED_EDGE ( 'NONE', *, *, #71, .T. ) ;
#186 = CIRCLE ( 'NONE', #261, 0.3750000000000000555 ) ;
#187 = EDGE_CURVE ( 'NONE', #328, #233, #163, .T. ) ;
#188 = DIMENSIONAL_EXPONENTS ( 1.000000000000000000, 0.0000000000000000000, 0.0000000000000000000, 0.0000000000000000000, 0.0000000000000000000, 0.0000000000000000000, 0.0000000000000000000 ) ;
#189 = CARTESIAN_POINT ( 'NONE',  ( 0.0000000000000000000, 0.0000000000000000000, 2.500000000000000000 ) ) ;
#190 = EDGE_LOOP ( 'NONE', ( #172, #325, #252, #254 ) ) ;
#191 = FACE_OUTER_BOUND ( 'NONE', #137, .T. ) ;
#192 = FACE_OUTER_BOUND ( 'NONE', #175, .T. ) ;
#193 = PRESENTATION_LAYER_ASSIGNMENT (  '', '', ( #44 ) ) ;
#194 = SURFACE_SIDE_STYLE ('',( #148 ) ) ;
#195 = CARTESIAN_POINT ( 'NONE',  ( 0.0000000000000000000, 0.0000000000000000000, 0.0000000000000000000 ) ) ;
#196 = CARTESIAN_POINT ( 'NONE',  ( 0.3750000000000000555, 4.592425496802575451E-17, 1.125049999999999883 ) ) ;
#197 = APPLICATION_PROTOCOL_DEFINITION ( 'draft international standard', 'automotive_design', 1998, #323 ) ;
#198 = VERTEX_POINT ( 'NONE', #329 ) ;
#199 = VECTOR ( 'NONE', #205, 39.37007874015748143 ) ;
#200 = AXIS2_PLACEMENT_3D ( 'NONE', #189, #216, #109 ) ;
#201 = LENGTH_MEASURE_WITH_UNIT ( LENGTH_MEASURE( 0.02539999999999999897 ), #232 );
#202 = LINE ( 'NONE', #63, #180 ) ;
#203 = PRESENTATION_STYLE_ASSIGNMENT (( #257 ) ) ;
#204 = ORIENTED_EDGE ( 'NONE', *, *, #316, .F. ) ;
#205 = DIRECTION ( 'NONE',  ( 0.7071067811865490160, 0.0000000000000000000, 0.7071067811865460184 ) ) ;
#206 = CARTESIAN_POINT ( 'NONE',  ( -0.3749500000000001165, 4.592119335102788706E-17, 1.125000000000000000 ) ) ;
#207 = DIRECTION ( 'NONE',  ( -0.0000000000000000000, -0.0000000000000000000, -1.000000000000000000 ) ) ;
#208 = CARTESIAN_POINT ( 'NONE',  ( 0.0000000000000000000, 0.0000000000000000000, 2.500000000000000000 ) ) ;
#209 = EDGE_CURVE ( 'NONE', #113, #151, #181, .T. ) ;
#210 = DIRECTION ( 'NONE',  ( -0.0000000000000000000, -0.0000000000000000000, -1.000000000000000000 ) ) ;
#211 = CIRCLE ( 'NONE', #2, 0.3749500000000001165 ) ;
#212 = CARTESIAN_POINT ( 'NONE',  ( -0.3600000000000002642, 0.0000000000000000000, 2.500000000000000000 ) ) ;
#213 = DIRECTION ( 'NONE',  ( -1.000000000000000000, 0.0000000000000000000, 0.0000000000000000000 ) ) ;
#214 = DIRECTION ( 'NONE',  ( 1.000000000000000000, 0.0000000000000000000, -0.0000000000000000000 ) ) ;
#215 = VECTOR ( 'NONE', #104, 39.37007874015748143 ) ;
#216 = DIRECTION ( 'NONE',  ( 0.0000000000000000000, 0.0000000000000000000, -1.000000000000000000 ) ) ;
#217 = EDGE_LOOP ( 'NONE', ( #311, #135, #279, #119 ) ) ;
#218 = DIRECTION ( 'NONE',  ( -0.0000000000000000000, -0.0000000000000000000, -1.000000000000000000 ) ) ;
#219 = VERTEX_POINT ( 'NONE', #212 ) ;
#220 = ORIENTED_EDGE ( 'NONE', *, *, #41, .T. ) ;
#221 = EDGE_CURVE ( 'NONE', #251, #153, #54, .T. ) ;
#222 = AXIS2_PLACEMENT_3D ( 'NONE', #98, #155, #236 ) ;
#223 = UNCERTAINTY_MEASURE_WITH_UNIT (LENGTH_MEASURE( 1.000000000000000082E-05 ), #259, 'distance_accuracy_value', 'NONE');
#224 = CONICAL_SURFACE ( 'NONE', #237, 0.3600000000000002642, 0.7853981633974324028 ) ;
#225 = DIMENSIONAL_EXPONENTS ( 1.000000000000000000, 0.0000000000000000000, 0.0000000000000000000, 0.0000000000000000000, 0.0000000000000000000, 0.0000000000000000000, 0.0000000000000000000 ) ;
#226 = EDGE_LOOP ( 'NONE', ( #50, #87, #245, #173 ) ) ;
#227 = AXIS2_PLACEMENT_3D ( 'NONE', #64, #305, #120 ) ;
#228 = DIRECTION ( 'NONE',  ( 1.000000000000000000, 0.0000000000000000000, 0.0000000000000000000 ) ) ;
#229 = DIRECTION ( 'NONE',  ( 1.000000000000000000, 0.0000000000000000000, 0.0000000000000000000 ) ) ;
#230 = DIRECTION ( 'NONE',  ( 0.0000000000000000000, 0.0000000000000000000, 1.000000000000000000 ) ) ;
#231 = EDGE_CURVE ( 'NONE', #110, #32, #186, .T. ) ;
#232 =( LENGTH_UNIT ( ) NAMED_UNIT ( * ) SI_UNIT ( $, .METRE. ) );
#233 = VERTEX_POINT ( 'NONE', #267 ) ;
#234 = CARTESIAN_POINT ( 'NONE',  ( -0.3750000000000000555, 0.0000000000000000000, 1.125049999999999883 ) ) ;
#235 = APPLICATION_CONTEXT ( 'automotive_design' ) ;
#236 = DIRECTION ( 'NONE',  ( 1.000000000000000000, 0.0000000000000000000, 0.0000000000000000000 ) ) ;
#237 = AXIS2_PLACEMENT_3D ( 'NONE', #5, #26, #111 ) ;
#238 = CARTESIAN_POINT ( 'NONE',  ( 0.0000000000000000000, 0.0000000000000000000, 0.0000000000000000000 ) ) ;
#239 = CARTESIAN_POINT ( 'NONE',  ( 0.04900000000000000189, 0.0000000000000000000, 0.0000000000000000000 ) ) ;
#240 = LINE ( 'NONE', #239, #199 ) ;
#241 = DIRECTION ( 'NONE',  ( -0.0000000000000000000, -0.0000000000000000000, -1.000000000000000000 ) ) ;
#242 = DIRECTION ( 'NONE',  ( 1.000000000000000000, 0.0000000000000000000, -0.0000000000000000000 ) ) ;
#243 = AXIS2_PLACEMENT_3D ( 'NONE', #123, #331, #85 ) ;
#244 = LINE ( 'NONE', #22, #288 ) ;
#245 = ORIENTED_EDGE ( 'NONE', *, *, #133, .T. ) ;
#246 = LINE ( 'NONE', #3, #115 ) ;
#247 = ORIENTED_EDGE ( 'NONE', *, *, #292, .T. ) ;
#248 = AXIS2_PLACEMENT_3D ( 'NONE', #290, #210, #40 ) ;
#249 = MECHANICAL_DESIGN_GEOMETRIC_PRESENTATION_REPRESENTATION (  '', ( #44 ), #138 ) ;
#250 = DIRECTION ( 'NONE',  ( 1.000000000000000000, 0.0000000000000000000, 0.0000000000000000000 ) ) ;
#251 = VERTEX_POINT ( 'NONE', #321 ) ;
#252 = ORIENTED_EDGE ( 'NONE', *, *, #263, .T. ) ;
#253 = FILL_AREA_STYLE_COLOUR ( '', #11 ) ;
#254 = ORIENTED_EDGE ( 'NONE', *, *, #342, .F. ) ;
#255 = AXIS2_PLACEMENT_3D ( 'NONE', #12, #118, #228 ) ;
#256 = ADVANCED_FACE ( 'NONE', ( #192 ), #224, .T. ) ;
#257 = SURFACE_STYLE_USAGE ( .BOTH. , #194 ) ;
#258 = ORIENTED_EDGE ( 'NONE', *, *, #76, .F. ) ;
#259 =( CONVERSION_BASED_UNIT ( 'INCH', #201 ) LENGTH_UNIT ( ) NAMED_UNIT ( #293 ) );
#260 = CARTESIAN_POINT ( 'NONE',  ( 0.0000000000000000000, 0.0000000000000000000, 0.0000000000000000000 ) ) ;
#261 = AXIS2_PLACEMENT_3D ( 'NONE', #81, #184, #165 ) ;
#262 = VERTEX_POINT ( 'NONE', #75 ) ;
#263 = EDGE_CURVE ( 'NONE', #151, #233, #345, .T. ) ;
#264 = CARTESIAN_POINT ( 'NONE',  ( -0.3750000000000000555, 0.0000000000000000000, 2.500000000000000000 ) ) ;
#265 = ADVANCED_BREP_SHAPE_REPRESENTATION ( 'Micro_SPD-750-090', ( #145, #255 ), #168 ) ;
#266 = SURFACE_STYLE_USAGE ( .BOTH. , #159 ) ;
#267 = CARTESIAN_POINT ( 'NONE',  ( -0.3749500000000000055, 0.0000000000000000000, 0.3259499999999986297 ) ) ;
#268 = AXIS2_PLACEMENT_3D ( 'NONE', #106, #107, #214 ) ;
#269 = ORIENTED_EDGE ( 'NONE', *, *, #187, .F. ) ;
#270 = DIRECTION ( 'NONE',  ( -1.000000000000000000, 0.0000000000000000000, 0.0000000000000000000 ) ) ;
#271 = ORIENTED_EDGE ( 'NONE', *, *, #41, .F. ) ;
#272 = DIRECTION ( 'NONE',  ( 0.0000000000000000000, 0.0000000000000000000, 1.000000000000000000 ) ) ;
#273 = STYLED_ITEM ( 'NONE', ( #340 ), #145 ) ;
#274 = DIRECTION ( 'NONE',  ( 0.7071067811865362485, 8.659560562354793575E-17, -0.7071067811865586750 ) ) ;
#275 = DIRECTION ( 'NONE',  ( -0.0000000000000000000, -0.0000000000000000000, -1.000000000000000000 ) ) ;
#276 = DIRECTION ( 'NONE',  ( -0.0000000000000000000, -0.0000000000000000000, -1.000000000000000000 ) ) ;
#277 = DIRECTION ( 'NONE',  ( 0.0000000000000000000, 0.0000000000000000000, 1.000000000000000000 ) ) ;
#278 = VERTEX_POINT ( 'NONE', #77 ) ;
#279 = ORIENTED_EDGE ( 'NONE', *, *, #133, .F. ) ;
#280 = CARTESIAN_POINT ( 'NONE',  ( 0.0000000000000000000, 0.0000000000000000000, 0.3259499999999986297 ) ) ;
#281 = ADVANCED_FACE ( 'NONE', ( #136 ), #79, .T. ) ;
#282 = ORIENTED_EDGE ( 'NONE', *, *, #333, .T. ) ;
#283 = ORIENTED_EDGE ( 'NONE', *, *, #161, .T. ) ;
#284 = DIRECTION ( 'NONE',  ( 0.0000000000000000000, 0.0000000000000000000, 1.000000000000000000 ) ) ;
#285 = DIRECTION ( 'NONE',  ( 1.000000000000000000, 0.0000000000000000000, 0.0000000000000000000 ) ) ;
#286 = PRODUCT_DEFINITION_SHAPE ( 'NONE', 'NONE',  #149 ) ;
#287 = LENGTH_MEASURE_WITH_UNIT ( LENGTH_MEASURE( 0.02539999999999999897 ), #67 );
#288 = VECTOR ( 'NONE', #46, 39.37007874015748143 ) ;
#289 = ADVANCED_FACE ( 'NONE', ( #24 ), #134, .T. ) ;
#290 = CARTESIAN_POINT ( 'NONE',  ( 0.0000000000000000000, 0.0000000000000000000, 0.3259499999999986297 ) ) ;
#291 =( CONVERSION_BASED_UNIT ( 'INCH', #287 ) LENGTH_UNIT ( ) NAMED_UNIT ( #225 ) );
#292 = EDGE_CURVE ( 'NONE', #113, #32, #244, .T. ) ;
#293 = DIMENSIONAL_EXPONENTS ( 1.000000000000000000, 0.0000000000000000000, 0.0000000000000000000, 0.0000000000000000000, 0.0000000000000000000, 0.0000000000000000000, 0.0000000000000000000 ) ;
#294 = PLANE ( 'NONE',  #92 ) ;
#295 = ORIENTED_EDGE ( 'NONE', *, *, #69, .F. ) ;
#296 = DIRECTION ( 'NONE',  ( 1.000000000000000000, 0.0000000000000000000, 0.0000000000000000000 ) ) ;
#297 = EDGE_LOOP ( 'NONE', ( #141, #349, #283, #122 ) ) ;
#298 = CARTESIAN_POINT ( 'NONE',  ( -0.3749500000000000610, 0.0000000000000000000, 0.0000000000000000000 ) ) ;
#299 = ADVANCED_FACE ( 'NONE', ( #191 ), #294, .T. ) ;
#300 = EDGE_LOOP ( 'NONE', ( #185, #82, #80, #27 ) ) ;
#301 = CARTESIAN_POINT ( 'NONE',  ( 0.0000000000000000000, 0.0000000000000000000, 2.484999999999999876 ) ) ;
#302 = ORIENTED_EDGE ( 'NONE', *, *, #83, .T. ) ;
#303 = CONICAL_SURFACE ( 'NONE', #61, 0.3749500000000001165, 0.7853981633974501664 ) ;
#304 = ORIENTED_EDGE ( 'NONE', *, *, #71, .F. ) ;
#305 = DIRECTION ( 'NONE',  ( -0.0000000000000000000, -0.0000000000000000000, -1.000000000000000000 ) ) ;
#306 = SHAPE_DEFINITION_REPRESENTATION ( #286, #265 ) ;
#307 = DIRECTION ( 'NONE',  ( -0.0000000000000000000, -0.0000000000000000000, -1.000000000000000000 ) ) ;
#308 = AXIS2_PLACEMENT_3D ( 'NONE', #94, #335, #91 ) ;
#309 = AXIS2_PLACEMENT_3D ( 'NONE', #301, #169, #296 ) ;
#310 = ADVANCED_FACE ( 'NONE', ( #348 ), #51, .F. ) ;
#311 = ORIENTED_EDGE ( 'NONE', *, *, #69, .T. ) ;
#312 = DIRECTION ( 'NONE',  ( -1.000000000000000000, 0.0000000000000000000, 0.0000000000000000000 ) ) ;
#313 = DIRECTION ( 'NONE',  ( 1.000000000000000000, 0.0000000000000000000, 0.0000000000000000000 ) ) ;
#314 = AXIS2_PLACEMENT_3D ( 'NONE', #130, #241, #162 ) ;
#315 = CARTESIAN_POINT ( 'NONE',  ( -0.3750000000000000555, 0.0000000000000000000, 2.484999999999999876 ) ) ;
#316 = EDGE_CURVE ( 'NONE', #262, #251, #327, .T. ) ;
#317 = DIRECTION ( 'NONE',  ( -1.000000000000000000, 0.0000000000000000000, 0.0000000000000000000 ) ) ;
#318 = DIRECTION ( 'NONE',  ( -0.0000000000000000000, -0.0000000000000000000, -1.000000000000000000 ) ) ;
#319 = AXIS2_PLACEMENT_3D ( 'NONE', #166, #275, #213 ) ;
#320 = DIRECTION ( 'NONE',  ( -0.0000000000000000000, -0.0000000000000000000, -1.000000000000000000 ) ) ;
#321 = CARTESIAN_POINT ( 'NONE',  ( 0.3750000000000000555, 4.592425496802575451E-17, 2.484999999999999876 ) ) ;
#322 = ADVANCED_FACE ( 'NONE', ( #30 ), #102, .T. ) ;
#323 = APPLICATION_CONTEXT ( 'automotive_design' ) ;
#324 = DIRECTION ( 'NONE',  ( -0.0000000000000000000, -0.0000000000000000000, -1.000000000000000000 ) ) ;
#325 = ORIENTED_EDGE ( 'NONE', *, *, #209, .T. ) ;
#326 = COLOUR_RGB ( '',0.7921568627450980005, 0.8196078431372548767, 0.9333333333333333481 ) ;
#327 = LINE ( 'NONE', #78, #139 ) ;
#328 = VERTEX_POINT ( 'NONE', #140 ) ;
#329 = CARTESIAN_POINT ( 'NONE',  ( 0.04900000000000000189, 0.0000000000000000000, 0.0000000000000000000 ) ) ;
#330 = ORIENTED_EDGE ( 'NONE', *, *, #103, .F. ) ;
#331 = DIRECTION ( 'NONE',  ( -0.0000000000000000000, -0.0000000000000000000, -1.000000000000000000 ) ) ;
#332 = ORIENTED_EDGE ( 'NONE', *, *, #127, .F. ) ;
#333 = EDGE_CURVE ( 'NONE', #219, #262, #131, .T. ) ;
#334 = DIRECTION ( 'NONE',  ( -1.000000000000000000, 0.0000000000000000000, 0.0000000000000000000 ) ) ;
#335 = DIRECTION ( 'NONE',  ( 0.0000000000000000000, 0.0000000000000000000, -1.000000000000000000 ) ) ;
#336 = VECTOR ( 'NONE', #125, 39.37007874015748143 ) ;
#337 = FACE_OUTER_BOUND ( 'NONE', #190, .T. ) ;
#338 = EDGE_CURVE ( 'NONE', #251, #32, #246, .T. ) ;
#339 = AXIS2_PLACEMENT_3D ( 'NONE', #47, #324, #270 ) ;
#340 = PRESENTATION_STYLE_ASSIGNMENT (( #266 ) ) ;
#341 = CARTESIAN_POINT ( 'NONE',  ( 0.3749500000000001165, 0.0000000000000000000, 1.125000000000000000 ) ) ;
#342 = EDGE_CURVE ( 'NONE', #278, #233, #152, .T. ) ;
#343 = CARTESIAN_POINT ( 'NONE',  ( 0.0000000000000000000, 0.0000000000000000000, 1.125000000000000000 ) ) ;
#344 = AXIS2_PLACEMENT_3D ( 'NONE', #280, #116, #312 ) ;
#345 = LINE ( 'NONE', #298, #66 ) ;
#346 = AXIS2_PLACEMENT_3D ( 'NONE', #260, #277, #229 ) ;
#347 = AXIS2_PLACEMENT_3D ( 'NONE', #195, #230, #313 ) ;
#348 = FACE_OUTER_BOUND ( 'NONE', #34, .T. ) ;
#349 = ORIENTED_EDGE ( 'NONE', *, *, #221, .T. ) ;
ENDSEC;
END-ISO-10303-21;
