ISO-10303-21;
HEADER;
FILE_DESCRIPTION (( 'STEP AP214' ),
    '1' );
FILE_NAME ('49391.STEP',
    '2023-06-30T22:02:28',
    ( '' ),
    ( '' ),
    'SwSTEP 2.0',
    'SolidWorks 2023',
    '' );
FILE_SCHEMA (( 'AUTOMOTIVE_DESIGN' ));
ENDSEC;

DATA;
#1 = EDGE_CURVE ( 'NONE', #41, #77, #135, .T. ) ;
#2 =( NAMED_UNIT ( * ) SI_UNIT ( $, .STERADIAN. ) SOLID_ANGLE_UNIT ( ) );
#3 = AXIS2_PLACEMENT_3D ( 'NONE', #306, #238, #206 ) ;
#4 = CIRCLE ( 'NONE', #218, 0.3749999999999998890 ) ;
#5 = DIRECTION ( 'NONE',  ( -1.000000000000000000, 0.000000000000000000, 0.000000000000000000 ) ) ;
#6 = CARTESIAN_POINT ( 'NONE',  ( -0.3749999999999996114, 3.000000000000000444, 0.000000000000000000 ) ) ;
#7 = EDGE_LOOP ( 'NONE', ( #327, #364 ) ) ;
#8 = LINE ( 'NONE', #336, #101 ) ;
#9 = MECHANICAL_DESIGN_GEOMETRIC_PRESENTATION_REPRESENTATION (  '', ( #16 ), #38 ) ;
#10 = PRODUCT_DEFINITION_FORMATION_WITH_SPECIFIED_SOURCE ( 'ANY', '', #138, .NOT_KNOWN. ) ;
#11 = EDGE_LOOP ( 'NONE', ( #154, #119, #242, #330 ) ) ;
#12 = LINE ( 'NONE', #360, #356 ) ;
#13 = ORIENTED_EDGE ( 'NONE', *, *, #187, .F. ) ;
#14 = LINE ( 'NONE', #75, #259 ) ;
#15 = VERTEX_POINT ( 'NONE', #346 ) ;
#16 = STYLED_ITEM ( 'NONE', ( #314 ), #32 ) ;
#17 = ORIENTED_EDGE ( 'NONE', *, *, #117, .F. ) ;
#18 = LINE ( 'NONE', #65, #223 ) ;
#19 = ADVANCED_FACE ( 'NONE', ( #191 ), #225, .T. ) ;
#20 =( CONVERSION_BASED_UNIT ( 'INCH', #342 ) LENGTH_UNIT ( ) NAMED_UNIT ( #253 ) );
#21 =( CONVERSION_BASED_UNIT ( 'INCH', #46 ) LENGTH_UNIT ( ) NAMED_UNIT ( #369 ) );
#22 = CARTESIAN_POINT ( 'NONE',  ( 0.000000000000000000, 0.3750000000000001110, 0.000000000000000000 ) ) ;
#23 = MECHANICAL_DESIGN_GEOMETRIC_PRESENTATION_REPRESENTATION (  '', ( #144 ), #107 ) ;
#24 = CARTESIAN_POINT ( 'NONE',  ( 0.3749999999999998890, 3.000000000000000444, 0.000000000000000000 ) ) ;
#25 = FILL_AREA_STYLE_COLOUR ( '', #363 ) ;
#26 = FILL_AREA_STYLE ('',( #162 ) ) ;
#27 = FILL_AREA_STYLE_COLOUR ( '', #56 ) ;
#28 = DIRECTION ( 'NONE',  ( 1.000000000000000000, 1.218744973043033064E-16, 0.000000000000000000 ) ) ;
#29 = DIRECTION ( 'NONE',  ( -1.218744973043033064E-16, 1.000000000000000000, -0.000000000000000000 ) ) ;
#30 = AXIS2_PLACEMENT_3D ( 'NONE', #168, #29, #315 ) ;
#31 = STYLED_ITEM ( 'NONE', ( #150 ), #294 ) ;
#32 = ADVANCED_FACE ( 'NONE', ( #53 ), #70, .T. ) ;
#33 = UNCERTAINTY_MEASURE_WITH_UNIT (LENGTH_MEASURE( 1.000000000000000082E-05 ), #176, 'distance_accuracy_value', 'NONE');
#34 = CYLINDRICAL_SURFACE ( 'NONE', #243, 0.3749999999999996669 ) ;
#35 = DIMENSIONAL_EXPONENTS ( 1.000000000000000000, 0.000000000000000000, 0.000000000000000000, 0.000000000000000000, 0.000000000000000000, 0.000000000000000000, 0.000000000000000000 ) ;
#36 = SURFACE_STYLE_USAGE ( .BOTH. , #230 ) ;
#37 = DIRECTION ( 'NONE',  ( -0.000000000000000000, -1.000000000000000000, -0.000000000000000000 ) ) ;
#38 =( GEOMETRIC_REPRESENTATION_CONTEXT ( 3 ) GLOBAL_UNCERTAINTY_ASSIGNED_CONTEXT ( ( #92 ) ) GLOBAL_UNIT_ASSIGNED_CONTEXT ( ( #20, #246, #74 ) ) REPRESENTATION_CONTEXT ( 'NONE', 'WORKASPACE' ) );
#39 =( GEOMETRIC_REPRESENTATION_CONTEXT ( 3 ) GLOBAL_UNCERTAINTY_ASSIGNED_CONTEXT ( ( #33 ) ) GLOBAL_UNIT_ASSIGNED_CONTEXT ( ( #176, #114, #355 ) ) REPRESENTATION_CONTEXT ( 'NONE', 'WORKASPACE' ) );
#40 = EDGE_CURVE ( 'NONE', #15, #359, #267, .T. ) ;
#41 = VERTEX_POINT ( 'NONE', #83 ) ;
#42 = FILL_AREA_STYLE ('',( #62 ) ) ;
#43 = VERTEX_POINT ( 'NONE', #141 ) ;
#44 = AXIS2_PLACEMENT_3D ( 'NONE', #155, #37, #131 ) ;
#45 = DIRECTION ( 'NONE',  ( 0.000000000000000000, 0.000000000000000000, 1.000000000000000000 ) ) ;
#46 = LENGTH_MEASURE_WITH_UNIT ( LENGTH_MEASURE( 0.02539999999999999897 ), #197 );
#47 = EDGE_LOOP ( 'NONE', ( #239, #64, #268, #61 ) ) ;
#48 = ORIENTED_EDGE ( 'NONE', *, *, #63, .F. ) ;
#49 = DIRECTION ( 'NONE',  ( -1.218744973043033064E-16, 1.000000000000000000, -0.000000000000000000 ) ) ;
#50 = DIRECTION ( 'NONE',  ( -0.000000000000000000, -1.000000000000000000, -0.000000000000000000 ) ) ;
#51 =( NAMED_UNIT ( * ) SI_UNIT ( $, .STERADIAN. ) SOLID_ANGLE_UNIT ( ) );
#52 = PRODUCT_DEFINITION_SHAPE ( 'NONE', 'NONE',  #112 ) ;
#53 = FACE_OUTER_BOUND ( 'NONE', #300, .T. ) ;
#54 =( LENGTH_UNIT ( ) NAMED_UNIT ( * ) SI_UNIT ( $, .METRE. ) );
#55 = EDGE_CURVE ( 'NONE', #182, #305, #255, .T. ) ;
#56 = COLOUR_RGB ( '',1.000000000000000000, 0.000000000000000000, 0.000000000000000000 ) ;
#57 = SPHERICAL_SURFACE ( 'NONE', #232, 0.3749999999999999445 ) ;
#58 = PRESENTATION_STYLE_ASSIGNMENT (( #264 ) ) ;
#59 = PRESENTATION_LAYER_ASSIGNMENT (  '', '', ( #179 ) ) ;
#60 = AXIS2_PLACEMENT_3D ( 'NONE', #234, #237, #357 ) ;
#61 = ORIENTED_EDGE ( 'NONE', *, *, #55, .F. ) ;
#62 = FILL_AREA_STYLE_COLOUR ( '', #348 ) ;
#63 = EDGE_CURVE ( 'NONE', #77, #41, #236, .T. ) ;
#64 = ORIENTED_EDGE ( 'NONE', *, *, #40, .T. ) ;
#65 = CARTESIAN_POINT ( 'NONE',  ( 0.3749999999999998335, 3.000000000000000444, 4.592425496802570521E-17 ) ) ;
#66 =( NAMED_UNIT ( * ) SI_UNIT ( $, .STERADIAN. ) SOLID_ANGLE_UNIT ( ) );
#67 = EDGE_LOOP ( 'NONE', ( #326, #186, #124, #273 ) ) ;
#68 =( LENGTH_UNIT ( ) NAMED_UNIT ( * ) SI_UNIT ( $, .METRE. ) );
#69 = AXIS2_PLACEMENT_3D ( 'NONE', #257, #286, #373 ) ;
#70 = CYLINDRICAL_SURFACE ( 'NONE', #291, 0.3749999999999998890 ) ;
#71 =( LENGTH_UNIT ( ) NAMED_UNIT ( * ) SI_UNIT ( $, .METRE. ) );
#72 = FILL_AREA_STYLE_COLOUR ( '', #169 ) ;
#73 = EDGE_CURVE ( 'NONE', #15, #182, #18, .T. ) ;
#74 =( NAMED_UNIT ( * ) SI_UNIT ( $, .STERADIAN. ) SOLID_ANGLE_UNIT ( ) );
#75 = CARTESIAN_POINT ( 'NONE',  ( -0.3749999999999995559, 3.000000000000000444, 0.000000000000000000 ) ) ;
#76 = CLOSED_SHELL ( 'NONE', ( #294, #278, #19, #32, #108 ) ) ;
#77 = VERTEX_POINT ( 'NONE', #157 ) ;
#78 = AXIS2_PLACEMENT_3D ( 'NONE', #158, #45, #215 ) ;
#79 = DIRECTION ( 'NONE',  ( 1.218744973043033064E-16, -1.000000000000000000, 0.000000000000000000 ) ) ;
#80 = EDGE_CURVE ( 'NONE', #77, #333, #8, .T. ) ;
#81 = SURFACE_STYLE_FILL_AREA ( #349 ) ;
#82 = PRESENTATION_STYLE_ASSIGNMENT (( #226 ) ) ;
#83 = CARTESIAN_POINT ( 'NONE',  ( 0.000000000000000000, 1.000000000000000000, -0.3749999999999998890 ) ) ;
#84 = AXIS2_PLACEMENT_3D ( 'NONE', #125, #152, #241 ) ;
#85 = SURFACE_SIDE_STYLE ('',( #316 ) ) ;
#86 = AXIS2_PLACEMENT_3D ( 'NONE', #220, #368, #104 ) ;
#87 = EDGE_CURVE ( 'NONE', #126, #333, #249, .T. ) ;
#88 = EDGE_LOOP ( 'NONE', ( #307, #205 ) ) ;
#89 = CARTESIAN_POINT ( 'NONE',  ( 0.000000000000000000, 0.3750000000000001110, 0.000000000000000000 ) ) ;
#90 = ORIENTED_EDGE ( 'NONE', *, *, #80, .T. ) ;
#91 = DIRECTION ( 'NONE',  ( -0.000000000000000000, -1.000000000000000000, -0.000000000000000000 ) ) ;
#92 = UNCERTAINTY_MEASURE_WITH_UNIT (LENGTH_MEASURE( 1.000000000000000082E-05 ), #20, 'distance_accuracy_value', 'NONE');
#93 = PRODUCT_CONTEXT ( 'NONE', #252, 'mechanical' ) ;
#94 = SURFACE_SIDE_STYLE ('',( #328 ) ) ;
#95 = MECHANICAL_DESIGN_GEOMETRIC_PRESENTATION_REPRESENTATION (  '', ( #179 ), #304 ) ;
#96 = PRESENTATION_LAYER_ASSIGNMENT (  '', '', ( #31 ) ) ;
#97 = SHAPE_DEFINITION_REPRESENTATION ( #52, #367 ) ;
#98 = SURFACE_STYLE_USAGE ( .BOTH. , #365 ) ;
#99 = ORIENTED_EDGE ( 'NONE', *, *, #80, .F. ) ;
#100 = PRESENTATION_STYLE_ASSIGNMENT (( #98 ) ) ;
#101 = VECTOR ( 'NONE', #265, 39.37007874015748143 ) ;
#102 = FILL_AREA_STYLE ('',( #25 ) ) ;
#103 = EDGE_CURVE ( 'NONE', #359, #15, #140, .T. ) ;
#104 = DIRECTION ( 'NONE',  ( 0.000000000000000000, 0.000000000000000000, -1.000000000000000000 ) ) ;
#105 = ORIENTED_EDGE ( 'NONE', *, *, #87, .F. ) ;
#106 = CARTESIAN_POINT ( 'NONE',  ( 0.3749999999999998890, 3.000000000000000444, 4.592425496802571754E-17 ) ) ;
#107 =( GEOMETRIC_REPRESENTATION_CONTEXT ( 3 ) GLOBAL_UNCERTAINTY_ASSIGNED_CONTEXT ( ( #170 ) ) GLOBAL_UNIT_ASSIGNED_CONTEXT ( ( #222, #347, #51 ) ) REPRESENTATION_CONTEXT ( 'NONE', 'WORKASPACE' ) );
#108 = ADVANCED_FACE ( 'NONE', ( #121 ), #275, .T. ) ;
#109 = CARTESIAN_POINT ( 'NONE',  ( 0.000000000000000000, 0.3750000000000001110, 0.000000000000000000 ) ) ;
#110 = DIRECTION ( 'NONE',  ( 0.000000000000000000, 0.000000000000000000, -1.000000000000000000 ) ) ;
#111 = DIRECTION ( 'NONE',  ( 1.000000000000000000, 0.000000000000000000, 0.000000000000000000 ) ) ;
#112 = PRODUCT_DEFINITION ( 'UNKNOWN', '', #10, #149 ) ;
#113 = CLOSED_SHELL ( 'NONE', ( #319, #322, #340, #210 ) ) ;
#114 =( NAMED_UNIT ( * ) PLANE_ANGLE_UNIT ( ) SI_UNIT ( $, .RADIAN. ) );
#115 = STYLED_ITEM ( 'NONE', ( #82 ), #278 ) ;
#116 = FACE_OUTER_BOUND ( 'NONE', #7, .T. ) ;
#117 = EDGE_CURVE ( 'NONE', #151, #126, #211, .T. ) ;
#118 = CYLINDRICAL_SURFACE ( 'NONE', #224, 0.3749999999999996669 ) ;
#119 = ORIENTED_EDGE ( 'NONE', *, *, #266, .T. ) ;
#120 = PRESENTATION_LAYER_ASSIGNMENT (  '', '', ( #144 ) ) ;
#121 = FACE_OUTER_BOUND ( 'NONE', #11, .T. ) ;
#122 = EDGE_LOOP ( 'NONE', ( #178, #133, #284, #13 ) ) ;
#123 = DIRECTION ( 'NONE',  ( -1.218744973043033064E-16, 1.000000000000000000, -0.000000000000000000 ) ) ;
#124 = ORIENTED_EDGE ( 'NONE', *, *, #159, .F. ) ;
#125 = CARTESIAN_POINT ( 'NONE',  ( -4.592425496802575451E-17, 0.3750000000000000555, 0.000000000000000000 ) ) ;
#126 = VERTEX_POINT ( 'NONE', #188 ) ;
#127 = CARTESIAN_POINT ( 'NONE',  ( 0.000000000000000000, 0.3750000000000001110, -0.3749999999999998890 ) ) ;
#128 = AXIS2_PLACEMENT_3D ( 'NONE', #219, #50, #281 ) ;
#129 =( CONVERSION_BASED_UNIT ( 'INCH', #335 ) LENGTH_UNIT ( ) NAMED_UNIT ( #323 ) );
#130 = VERTEX_POINT ( 'NONE', #183 ) ;
#131 = DIRECTION ( 'NONE',  ( 0.000000000000000000, 0.000000000000000000, -1.000000000000000000 ) ) ;
#132 =( NAMED_UNIT ( * ) PLANE_ANGLE_UNIT ( ) SI_UNIT ( $, .RADIAN. ) );
#133 = ORIENTED_EDGE ( 'NONE', *, *, #73, .T. ) ;
#134 =( NAMED_UNIT ( * ) SI_UNIT ( $, .STERADIAN. ) SOLID_ANGLE_UNIT ( ) );
#135 = CIRCLE ( 'NONE', #128, 0.3749999999999998890 ) ;
#136 = CIRCLE ( 'NONE', #353, 0.3749999999999999445 ) ;
#137 = DIMENSIONAL_EXPONENTS ( 1.000000000000000000, 0.000000000000000000, 0.000000000000000000, 0.000000000000000000, 0.000000000000000000, 0.000000000000000000, 0.000000000000000000 ) ;
#138 = PRODUCT ( '49391', '49391', '', ( #93 ) ) ;
#139 = CARTESIAN_POINT ( 'NONE',  ( 1.224646799147352714E-16, 3.000000000000000444, 0.000000000000000000 ) ) ;
#140 = CIRCLE ( 'NONE', #231, 0.3749999999999995004 ) ;
#141 = CARTESIAN_POINT ( 'NONE',  ( -2.296212748401288342E-17, 6.829619984160658046E-17, 0.000000000000000000 ) ) ;
#142 = CARTESIAN_POINT ( 'NONE',  ( 1.224646799147352714E-16, 3.000000000000000444, 0.000000000000000000 ) ) ;
#143 = LENGTH_MEASURE_WITH_UNIT ( LENGTH_MEASURE( 0.02539999999999999897 ), #351 );
#144 = STYLED_ITEM ( 'NONE', ( #331 ), #180 ) ;
#145 =( CONVERSION_BASED_UNIT ( 'INCH', #143 ) LENGTH_UNIT ( ) NAMED_UNIT ( #202 ) );
#146 =( GEOMETRIC_REPRESENTATION_CONTEXT ( 3 ) GLOBAL_UNCERTAINTY_ASSIGNED_CONTEXT ( ( #262 ) ) GLOBAL_UNIT_ASSIGNED_CONTEXT ( ( #21, #341, #134 ) ) REPRESENTATION_CONTEXT ( 'NONE', 'WORKASPACE' ) );
#147 = DIRECTION ( 'NONE',  ( 0.000000000000000000, 0.000000000000000000, 1.000000000000000000 ) ) ;
#148 = SURFACE_STYLE_FILL_AREA ( #345 ) ;
#149 = PRODUCT_DEFINITION_CONTEXT ( 'detailed design', #290, 'design' ) ;
#150 = PRESENTATION_STYLE_ASSIGNMENT (( #36 ) ) ;
#151 = VERTEX_POINT ( 'NONE', #127 ) ;
#152 = DIRECTION ( 'NONE',  ( 0.000000000000000000, 0.000000000000000000, 1.000000000000000000 ) ) ;
#153 = CARTESIAN_POINT ( 'NONE',  ( -0.3749999999999991673, 1.000000000000000000, 0.000000000000000000 ) ) ;
#154 = ORIENTED_EDGE ( 'NONE', *, *, #352, .F. ) ;
#155 = CARTESIAN_POINT ( 'NONE',  ( 0.000000000000000000, 0.3750000000000001110, 0.000000000000000000 ) ) ;
#156 = ORIENTED_EDGE ( 'NONE', *, *, #1, .T. ) ;
#157 = CARTESIAN_POINT ( 'NONE',  ( 4.592425496802572986E-17, 1.000000000000000000, 0.3749999999999998890 ) ) ;
#158 = CARTESIAN_POINT ( 'NONE',  ( 0.000000000000000000, 0.000000000000000000, 0.000000000000000000 ) ) ;
#159 = EDGE_CURVE ( 'NONE', #126, #43, #280, .T. ) ;
#160 = SURFACE_SIDE_STYLE ('',( #248 ) ) ;
#161 =( NAMED_UNIT ( * ) SI_UNIT ( $, .STERADIAN. ) SOLID_ANGLE_UNIT ( ) );
#162 = FILL_AREA_STYLE_COLOUR ( '', #287 ) ;
#163 =( GEOMETRIC_REPRESENTATION_CONTEXT ( 3 ) GLOBAL_UNCERTAINTY_ASSIGNED_CONTEXT ( ( #293 ) ) GLOBAL_UNIT_ASSIGNED_CONTEXT ( ( #344, #132, #161 ) ) REPRESENTATION_CONTEXT ( 'NONE', 'WORKASPACE' ) );
#164 = COLOUR_RGB ( '',0.7921568627450980005, 0.8196078431372548767, 0.9333333333333333481 ) ;
#165 = SURFACE_STYLE_USAGE ( .BOTH. , #160 ) ;
#166 = DIRECTION ( 'NONE',  ( -1.218744973043033064E-16, 1.000000000000000000, -0.000000000000000000 ) ) ;
#167 = DIRECTION ( 'NONE',  ( 0.000000000000000000, 0.000000000000000000, -1.000000000000000000 ) ) ;
#168 = CARTESIAN_POINT ( 'NONE',  ( 3.662136745233419088E-16, 1.000000000000000000, 0.000000000000000000 ) ) ;
#169 = COLOUR_RGB ( '',1.000000000000000000, 0.000000000000000000, 0.000000000000000000 ) ;
#170 = UNCERTAINTY_MEASURE_WITH_UNIT (LENGTH_MEASURE( 1.000000000000000082E-05 ), #222, 'distance_accuracy_value', 'NONE');
#171 = CARTESIAN_POINT ( 'NONE',  ( 4.592425496802572986E-17, 0.3750000000000001110, 0.3749999999999998890 ) ) ;
#172 = EDGE_CURVE ( 'NONE', #41, #151, #12, .T. ) ;
#173 = DIRECTION ( 'NONE',  ( -1.000000000000000000, 0.000000000000000000, 0.000000000000000000 ) ) ;
#174 = AXIS2_PLACEMENT_3D ( 'NONE', #190, #221, #338 ) ;
#175 =( GEOMETRIC_REPRESENTATION_CONTEXT ( 3 ) GLOBAL_UNCERTAINTY_ASSIGNED_CONTEXT ( ( #228 ) ) GLOBAL_UNIT_ASSIGNED_CONTEXT ( ( #145, #233, #2 ) ) REPRESENTATION_CONTEXT ( 'NONE', 'WORKASPACE' ) );
#176 =( CONVERSION_BASED_UNIT ( 'INCH', #320 ) LENGTH_UNIT ( ) NAMED_UNIT ( #35 ) );
#177 = ORIENTED_EDGE ( 'NONE', *, *, #172, .F. ) ;
#178 = ORIENTED_EDGE ( 'NONE', *, *, #103, .T. ) ;
#179 = STYLED_ITEM ( 'NONE', ( #100 ), #108 ) ;
#180 = MANIFOLD_SOLID_BREP ( 'Revolve - Cutting Edge', #76 ) ;
#181 = DIRECTION ( 'NONE',  ( -1.218744973043033064E-16, 1.000000000000000000, -0.000000000000000000 ) ) ;
#182 = VERTEX_POINT ( 'NONE', #106 ) ;
#183 = CARTESIAN_POINT ( 'NONE',  ( -0.3749999999999999445, 0.3750000000000001110, 4.592425496802572986E-17 ) ) ;
#184 = DIRECTION ( 'NONE',  ( 1.224646799147353207E-16, -0.000000000000000000, 1.000000000000000000 ) ) ;
#185 = EDGE_LOOP ( 'NONE', ( #156, #90, #105, #17, #177 ) ) ;
#186 = ORIENTED_EDGE ( 'NONE', *, *, #352, .T. ) ;
#187 = EDGE_CURVE ( 'NONE', #359, #305, #14, .T. ) ;
#188 = CARTESIAN_POINT ( 'NONE',  ( 0.3749999999999998890, 0.3750000000000001110, 0.000000000000000000 ) ) ;
#189 = PRESENTATION_LAYER_ASSIGNMENT (  '', '', ( #115 ) ) ;
#190 = CARTESIAN_POINT ( 'NONE',  ( 0.000000000000000000, 1.000000000000000000, 0.000000000000000000 ) ) ;
#191 = FACE_OUTER_BOUND ( 'NONE', #216, .T. ) ;
#192 = FACE_OUTER_BOUND ( 'NONE', #88, .T. ) ;
#193 = STYLED_ITEM ( 'NONE', ( #194 ), #19 ) ;
#194 = PRESENTATION_STYLE_ASSIGNMENT (( #165 ) ) ;
#195 = DIRECTION ( 'NONE',  ( -1.000000000000000000, 0.000000000000000000, 0.000000000000000000 ) ) ;
#196 = SURFACE_SIDE_STYLE ('',( #81 ) ) ;
#197 =( LENGTH_UNIT ( ) NAMED_UNIT ( * ) SI_UNIT ( $, .METRE. ) );
#198 = DIRECTION ( 'NONE',  ( -0.000000000000000000, -1.000000000000000000, -0.000000000000000000 ) ) ;
#199 = CIRCLE ( 'NONE', #372, 0.3749999999999998890 ) ;
#200 = FACE_OUTER_BOUND ( 'NONE', #122, .T. ) ;
#201 = DIRECTION ( 'NONE',  ( -1.218744973043033064E-16, 1.000000000000000000, -0.000000000000000000 ) ) ;
#202 = DIMENSIONAL_EXPONENTS ( 1.000000000000000000, 0.000000000000000000, 0.000000000000000000, 0.000000000000000000, 0.000000000000000000, 0.000000000000000000, 0.000000000000000000 ) ;
#203 = AXIS2_PLACEMENT_3D ( 'NONE', #229, #350, #217 ) ;
#204 = APPLICATION_PROTOCOL_DEFINITION ( 'draft international standard', 'automotive_design', 1998, #290 ) ;
#205 = ORIENTED_EDGE ( 'NONE', *, *, #55, .T. ) ;
#206 = DIRECTION ( 'NONE',  ( -1.000000000000000000, 0.000000000000000000, 0.000000000000000000 ) ) ;
#207 = UNCERTAINTY_MEASURE_WITH_UNIT (LENGTH_MEASURE( 1.000000000000000082E-05 ), #296, 'distance_accuracy_value', 'NONE');
#208 = ORIENTED_EDGE ( 'NONE', *, *, #1, .F. ) ;
#209 = FILL_AREA_STYLE_COLOUR ( '', #298 ) ;
#210 = ADVANCED_FACE ( 'NONE', ( #192 ), #309, .F. ) ;
#211 = CIRCLE ( 'NONE', #329, 0.3749999999999998890 ) ;
#212 = PRESENTATION_LAYER_ASSIGNMENT (  '', '', ( #250 ) ) ;
#213 = SURFACE_STYLE_USAGE ( .BOTH. , #94 ) ;
#214 = ORIENTED_EDGE ( 'NONE', *, *, #63, .T. ) ;
#215 = DIRECTION ( 'NONE',  ( 1.000000000000000000, 0.000000000000000000, 0.000000000000000000 ) ) ;
#216 = EDGE_LOOP ( 'NONE', ( #208, #48 ) ) ;
#217 = DIRECTION ( 'NONE',  ( 0.000000000000000000, 0.000000000000000000, -1.000000000000000000 ) ) ;
#218 = AXIS2_PLACEMENT_3D ( 'NONE', #22, #283, #167 ) ;
#219 = CARTESIAN_POINT ( 'NONE',  ( 0.000000000000000000, 1.000000000000000000, 0.000000000000000000 ) ) ;
#220 = CARTESIAN_POINT ( 'NONE',  ( 0.000000000000000000, 0.000000000000000000, 0.000000000000000000 ) ) ;
#221 = DIRECTION ( 'NONE',  ( 0.000000000000000000, 1.000000000000000000, 0.000000000000000000 ) ) ;
#222 =( CONVERSION_BASED_UNIT ( 'INCH', #247 ) LENGTH_UNIT ( ) NAMED_UNIT ( #312 ) );
#223 = VECTOR ( 'NONE', #181, 39.37007874015748143 ) ;
#224 = AXIS2_PLACEMENT_3D ( 'NONE', #261, #201, #5 ) ;
#225 = PLANE ( 'NONE',  #174 ) ;
#226 = SURFACE_STYLE_USAGE ( .BOTH. , #276 ) ;
#227 = EDGE_CURVE ( 'NONE', #305, #182, #260, .T. ) ;
#228 = UNCERTAINTY_MEASURE_WITH_UNIT (LENGTH_MEASURE( 1.000000000000000082E-05 ), #145, 'distance_accuracy_value', 'NONE');
#229 = CARTESIAN_POINT ( 'NONE',  ( 0.000000000000000000, 1.000000000000000000, 0.000000000000000000 ) ) ;
#230 = SURFACE_SIDE_STYLE ('',( #148 ) ) ;
#231 = AXIS2_PLACEMENT_3D ( 'NONE', #272, #123, #301 ) ;
#232 = AXIS2_PLACEMENT_3D ( 'NONE', #263, #147, #111 ) ;
#233 =( NAMED_UNIT ( * ) PLANE_ANGLE_UNIT ( ) SI_UNIT ( $, .RADIAN. ) );
#234 = CARTESIAN_POINT ( 'NONE',  ( 3.662136745233418595E-16, 1.000000000000000000, 0.000000000000000000 ) ) ;
#235 =( LENGTH_UNIT ( ) NAMED_UNIT ( * ) SI_UNIT ( $, .METRE. ) );
#236 = CIRCLE ( 'NONE', #203, 0.3749999999999998890 ) ;
#237 = DIRECTION ( 'NONE',  ( -1.218744973043033064E-16, 1.000000000000000000, 0.000000000000000000 ) ) ;
#238 = DIRECTION ( 'NONE',  ( 0.000000000000000000, 0.000000000000000000, -1.000000000000000000 ) ) ;
#239 = ORIENTED_EDGE ( 'NONE', *, *, #73, .F. ) ;
#240 = LENGTH_MEASURE_WITH_UNIT ( LENGTH_MEASURE( 0.02539999999999999897 ), #68 );
#241 = DIRECTION ( 'NONE',  ( 1.000000000000000000, 0.000000000000000000, 0.000000000000000000 ) ) ;
#242 = ORIENTED_EDGE ( 'NONE', *, *, #117, .T. ) ;
#243 = AXIS2_PLACEMENT_3D ( 'NONE', #142, #318, #173 ) ;
#244 = SURFACE_STYLE_FILL_AREA ( #42 ) ;
#245 = DIRECTION ( 'NONE',  ( 0.000000000000000000, 0.000000000000000000, -1.000000000000000000 ) ) ;
#246 =( NAMED_UNIT ( * ) PLANE_ANGLE_UNIT ( ) SI_UNIT ( $, .RADIAN. ) );
#247 = LENGTH_MEASURE_WITH_UNIT ( LENGTH_MEASURE( 0.02539999999999999897 ), #371 );
#248 = SURFACE_STYLE_FILL_AREA ( #102 ) ;
#249 = CIRCLE ( 'NONE', #44, 0.3749999999999998890 ) ;
#250 = STYLED_ITEM ( 'NONE', ( #58 ), #303 ) ;
#251 = CYLINDRICAL_SURFACE ( 'NONE', #86, 0.3749999999999998890 ) ;
#252 = APPLICATION_CONTEXT ( 'automotive_design' ) ;
#253 = DIMENSIONAL_EXPONENTS ( 1.000000000000000000, 0.000000000000000000, 0.000000000000000000, 0.000000000000000000, 0.000000000000000000, 0.000000000000000000, 0.000000000000000000 ) ;
#254 = LENGTH_MEASURE_WITH_UNIT ( LENGTH_MEASURE( 0.02539999999999999897 ), #71 );
#255 = CIRCLE ( 'NONE', #69, 0.3749999999999997780 ) ;
#256 = EDGE_CURVE ( 'NONE', #333, #130, #199, .T. ) ;
#257 = CARTESIAN_POINT ( 'NONE',  ( 1.224646799147352714E-16, 3.000000000000000444, 0.000000000000000000 ) ) ;
#258 = FILL_AREA_STYLE_COLOUR ( '', #164 ) ;
#259 = VECTOR ( 'NONE', #166, 39.37007874015748143 ) ;
#260 = CIRCLE ( 'NONE', #311, 0.3749999999999997780 ) ;
#261 = CARTESIAN_POINT ( 'NONE',  ( 1.224646799147352714E-16, 3.000000000000000444, 0.000000000000000000 ) ) ;
#262 = UNCERTAINTY_MEASURE_WITH_UNIT (LENGTH_MEASURE( 1.000000000000000082E-05 ), #21, 'distance_accuracy_value', 'NONE');
#263 = CARTESIAN_POINT ( 'NONE',  ( -4.592425496802575451E-17, 0.3750000000000000555, 0.000000000000000000 ) ) ;
#264 = SURFACE_STYLE_USAGE ( .BOTH. , #85 ) ;
#265 = DIRECTION ( 'NONE',  ( -0.000000000000000000, -1.000000000000000000, -0.000000000000000000 ) ) ;
#266 = EDGE_CURVE ( 'NONE', #130, #151, #4, .T. ) ;
#267 = CIRCLE ( 'NONE', #30, 0.3749999999999995004 ) ;
#268 = ORIENTED_EDGE ( 'NONE', *, *, #187, .T. ) ;
#269 = DIRECTION ( 'NONE',  ( -0.000000000000000000, -1.000000000000000000, -0.000000000000000000 ) ) ;
#270 = ORIENTED_EDGE ( 'NONE', *, *, #172, .T. ) ;
#271 = ORIENTED_EDGE ( 'NONE', *, *, #266, .F. ) ;
#272 = CARTESIAN_POINT ( 'NONE',  ( 3.662136745233419088E-16, 1.000000000000000000, 0.000000000000000000 ) ) ;
#273 = ORIENTED_EDGE ( 'NONE', *, *, #87, .T. ) ;
#274 =( GEOMETRIC_REPRESENTATION_CONTEXT ( 3 ) GLOBAL_UNCERTAINTY_ASSIGNED_CONTEXT ( ( #297 ) ) GLOBAL_UNIT_ASSIGNED_CONTEXT ( ( #129, #332, #66 ) ) REPRESENTATION_CONTEXT ( 'NONE', 'WORKASPACE' ) );
#275 = SPHERICAL_SURFACE ( 'NONE', #84, 0.3749999999999999445 ) ;
#276 = SURFACE_SIDE_STYLE ('',( #279 ) ) ;
#277 = CARTESIAN_POINT ( 'NONE',  ( 0.000000000000000000, 0.000000000000000000, 0.000000000000000000 ) ) ;
#278 = ADVANCED_FACE ( 'NONE', ( #285 ), #251, .T. ) ;
#279 = SURFACE_STYLE_FILL_AREA ( #26 ) ;
#280 = CIRCLE ( 'NONE', #3, 0.3749999999999999445 ) ;
#281 = DIRECTION ( 'NONE',  ( 0.000000000000000000, 0.000000000000000000, -1.000000000000000000 ) ) ;
#282 = DIMENSIONAL_EXPONENTS ( 1.000000000000000000, 0.000000000000000000, 0.000000000000000000, 0.000000000000000000, 0.000000000000000000, 0.000000000000000000, 0.000000000000000000 ) ;
#283 = DIRECTION ( 'NONE',  ( -0.000000000000000000, -1.000000000000000000, -0.000000000000000000 ) ) ;
#284 = ORIENTED_EDGE ( 'NONE', *, *, #227, .F. ) ;
#285 = FACE_OUTER_BOUND ( 'NONE', #185, .T. ) ;
#286 = DIRECTION ( 'NONE',  ( -1.218744973043033064E-16, 1.000000000000000000, -0.000000000000000000 ) ) ;
#287 = COLOUR_RGB ( '',1.000000000000000000, 0.000000000000000000, 0.000000000000000000 ) ;
#288 = FACE_OUTER_BOUND ( 'NONE', #47, .T. ) ;
#289 = CARTESIAN_POINT ( 'NONE',  ( -4.592425496802575451E-17, 0.3750000000000000555, 0.000000000000000000 ) ) ;
#290 = APPLICATION_CONTEXT ( 'automotive_design' ) ;
#291 = AXIS2_PLACEMENT_3D ( 'NONE', #277, #198, #110 ) ;
#292 = PLANE ( 'NONE',  #60 ) ;
#293 = UNCERTAINTY_MEASURE_WITH_UNIT (LENGTH_MEASURE( 1.000000000000000082E-05 ), #344, 'distance_accuracy_value', 'NONE');
#294 = ADVANCED_FACE ( 'NONE', ( #343 ), #57, .T. ) ;
#295 = DIRECTION ( 'NONE',  ( 1.000000000000000000, 0.000000000000000000, -1.224646799147353207E-16 ) ) ;
#296 =( CONVERSION_BASED_UNIT ( 'INCH', #240 ) LENGTH_UNIT ( ) NAMED_UNIT ( #282 ) );
#297 = UNCERTAINTY_MEASURE_WITH_UNIT (LENGTH_MEASURE( 1.000000000000000082E-05 ), #129, 'distance_accuracy_value', 'NONE');
#298 = COLOUR_RGB ( '',0.7921568627450980005, 0.8196078431372548767, 0.9333333333333333481 ) ;
#299 = MECHANICAL_DESIGN_GEOMETRIC_PRESENTATION_REPRESENTATION (  '', ( #115 ), #146 ) ;
#300 = EDGE_LOOP ( 'NONE', ( #99, #214, #270, #271, #358 ) ) ;
#301 = DIRECTION ( 'NONE',  ( -1.000000000000000000, 0.000000000000000000, 0.000000000000000000 ) ) ;
#302 =( NAMED_UNIT ( * ) SI_UNIT ( $, .STERADIAN. ) SOLID_ANGLE_UNIT ( ) );
#303 = MANIFOLD_SOLID_BREP ( 'Revolve - Tool Body (Straight Shanked)', #113 ) ;
#304 =( GEOMETRIC_REPRESENTATION_CONTEXT ( 3 ) GLOBAL_UNCERTAINTY_ASSIGNED_CONTEXT ( ( #207 ) ) GLOBAL_UNIT_ASSIGNED_CONTEXT ( ( #296, #334, #302 ) ) REPRESENTATION_CONTEXT ( 'NONE', 'WORKASPACE' ) );
#305 = VERTEX_POINT ( 'NONE', #6 ) ;
#306 = CARTESIAN_POINT ( 'NONE',  ( -4.592425496802575451E-17, 0.3750000000000000555, 0.000000000000000000 ) ) ;
#307 = ORIENTED_EDGE ( 'NONE', *, *, #227, .T. ) ;
#308 = SURFACE_STYLE_USAGE ( .BOTH. , #196 ) ;
#309 = PLANE ( 'NONE',  #337 ) ;
#310 = DIRECTION ( 'NONE',  ( -0.000000000000000000, -1.000000000000000000, -0.000000000000000000 ) ) ;
#311 = AXIS2_PLACEMENT_3D ( 'NONE', #139, #49, #195 ) ;
#312 = DIMENSIONAL_EXPONENTS ( 1.000000000000000000, 0.000000000000000000, 0.000000000000000000, 0.000000000000000000, 0.000000000000000000, 0.000000000000000000, 0.000000000000000000 ) ;
#313 = DIRECTION ( 'NONE',  ( 0.000000000000000000, 0.000000000000000000, -1.000000000000000000 ) ) ;
#314 = PRESENTATION_STYLE_ASSIGNMENT (( #308 ) ) ;
#315 = DIRECTION ( 'NONE',  ( -1.000000000000000000, 0.000000000000000000, 0.000000000000000000 ) ) ;
#316 = SURFACE_STYLE_FILL_AREA ( #354 ) ;
#317 = MECHANICAL_DESIGN_GEOMETRIC_PRESENTATION_REPRESENTATION (  '', ( #193 ), #163 ) ;
#318 = DIRECTION ( 'NONE',  ( -1.218744973043033064E-16, 1.000000000000000000, -0.000000000000000000 ) ) ;
#319 = ADVANCED_FACE ( 'NONE', ( #200 ), #118, .T. ) ;
#320 = LENGTH_MEASURE_WITH_UNIT ( LENGTH_MEASURE( 0.02539999999999999897 ), #235 );
#321 = PRESENTATION_LAYER_ASSIGNMENT (  '', '', ( #193 ) ) ;
#322 = ADVANCED_FACE ( 'NONE', ( #116 ), #292, .F. ) ;
#323 = DIMENSIONAL_EXPONENTS ( 1.000000000000000000, 0.000000000000000000, 0.000000000000000000, 0.000000000000000000, 0.000000000000000000, 0.000000000000000000, 0.000000000000000000 ) ;
#324 = PRODUCT_RELATED_PRODUCT_CATEGORY ( 'part', '', ( #138 ) ) ;
#325 = APPLICATION_PROTOCOL_DEFINITION ( 'draft international standard', 'automotive_design', 1998, #252 ) ;
#326 = ORIENTED_EDGE ( 'NONE', *, *, #256, .T. ) ;
#327 = ORIENTED_EDGE ( 'NONE', *, *, #103, .F. ) ;
#328 = SURFACE_STYLE_FILL_AREA ( #362 ) ;
#329 = AXIS2_PLACEMENT_3D ( 'NONE', #89, #269, #245 ) ;
#330 = ORIENTED_EDGE ( 'NONE', *, *, #159, .T. ) ;
#331 = PRESENTATION_STYLE_ASSIGNMENT (( #213 ) ) ;
#332 =( NAMED_UNIT ( * ) PLANE_ANGLE_UNIT ( ) SI_UNIT ( $, .RADIAN. ) );
#333 = VERTEX_POINT ( 'NONE', #171 ) ;
#334 =( NAMED_UNIT ( * ) PLANE_ANGLE_UNIT ( ) SI_UNIT ( $, .RADIAN. ) );
#335 = LENGTH_MEASURE_WITH_UNIT ( LENGTH_MEASURE( 0.02539999999999999897 ), #361 );
#336 = CARTESIAN_POINT ( 'NONE',  ( 4.592425496802572986E-17, 0.000000000000000000, 0.3749999999999998890 ) ) ;
#337 = AXIS2_PLACEMENT_3D ( 'NONE', #24, #79, #28 ) ;
#338 = DIRECTION ( 'NONE',  ( 0.000000000000000000, -0.000000000000000000, 1.000000000000000000 ) ) ;
#339 = MECHANICAL_DESIGN_GEOMETRIC_PRESENTATION_REPRESENTATION (  '', ( #250 ), #39 ) ;
#340 = ADVANCED_FACE ( 'NONE', ( #288 ), #34, .T. ) ;
#341 =( NAMED_UNIT ( * ) PLANE_ANGLE_UNIT ( ) SI_UNIT ( $, .RADIAN. ) );
#342 = LENGTH_MEASURE_WITH_UNIT ( LENGTH_MEASURE( 0.02539999999999999897 ), #54 );
#343 = FACE_OUTER_BOUND ( 'NONE', #67, .T. ) ;
#344 =( CONVERSION_BASED_UNIT ( 'INCH', #254 ) LENGTH_UNIT ( ) NAMED_UNIT ( #137 ) );
#345 = FILL_AREA_STYLE ('',( #72 ) ) ;
#346 = CARTESIAN_POINT ( 'NONE',  ( 0.3749999999999998335, 1.000000000000000000, 4.592425496802570521E-17 ) ) ;
#347 =( NAMED_UNIT ( * ) PLANE_ANGLE_UNIT ( ) SI_UNIT ( $, .RADIAN. ) );
#348 = COLOUR_RGB ( '',1.000000000000000000, 0.000000000000000000, 0.000000000000000000 ) ;
#349 = FILL_AREA_STYLE ('',( #27 ) ) ;
#350 = DIRECTION ( 'NONE',  ( -0.000000000000000000, -1.000000000000000000, -0.000000000000000000 ) ) ;
#351 =( LENGTH_UNIT ( ) NAMED_UNIT ( * ) SI_UNIT ( $, .METRE. ) );
#352 = EDGE_CURVE ( 'NONE', #130, #43, #136, .T. ) ;
#353 = AXIS2_PLACEMENT_3D ( 'NONE', #289, #184, #295 ) ;
#354 = FILL_AREA_STYLE ('',( #258 ) ) ;
#355 =( NAMED_UNIT ( * ) SI_UNIT ( $, .STERADIAN. ) SOLID_ANGLE_UNIT ( ) );
#356 = VECTOR ( 'NONE', #91, 39.37007874015748143 ) ;
#357 = DIRECTION ( 'NONE',  ( -1.000000000000000000, -1.218744973043033064E-16, 0.000000000000000000 ) ) ;
#358 = ORIENTED_EDGE ( 'NONE', *, *, #256, .F. ) ;
#359 = VERTEX_POINT ( 'NONE', #153 ) ;
#360 = CARTESIAN_POINT ( 'NONE',  ( 0.000000000000000000, 0.000000000000000000, -0.3749999999999998890 ) ) ;
#361 =( LENGTH_UNIT ( ) NAMED_UNIT ( * ) SI_UNIT ( $, .METRE. ) );
#362 = FILL_AREA_STYLE ('',( #209 ) ) ;
#363 = COLOUR_RGB ( '',1.000000000000000000, 0.000000000000000000, 0.000000000000000000 ) ;
#364 = ORIENTED_EDGE ( 'NONE', *, *, #40, .F. ) ;
#365 = SURFACE_SIDE_STYLE ('',( #244 ) ) ;
#366 = MECHANICAL_DESIGN_GEOMETRIC_PRESENTATION_REPRESENTATION (  '', ( #31 ), #175 ) ;
#367 = ADVANCED_BREP_SHAPE_REPRESENTATION ( '49391', ( #180, #303, #78 ), #274 ) ;
#368 = DIRECTION ( 'NONE',  ( -0.000000000000000000, -1.000000000000000000, -0.000000000000000000 ) ) ;
#369 = DIMENSIONAL_EXPONENTS ( 1.000000000000000000, 0.000000000000000000, 0.000000000000000000, 0.000000000000000000, 0.000000000000000000, 0.000000000000000000, 0.000000000000000000 ) ;
#370 = PRESENTATION_LAYER_ASSIGNMENT (  '', '', ( #16 ) ) ;
#371 =( LENGTH_UNIT ( ) NAMED_UNIT ( * ) SI_UNIT ( $, .METRE. ) );
#372 = AXIS2_PLACEMENT_3D ( 'NONE', #109, #310, #313 ) ;
#373 = DIRECTION ( 'NONE',  ( -1.000000000000000000, 0.000000000000000000, 0.000000000000000000 ) ) ;
ENDSEC;
END-ISO-10303-21;
