ISO-10303-21;
HEADER;
FILE_DESCRIPTION (( 'STEP AP214' ),
    '1' );
FILE_NAME ('Micro_SME-031-2X.STEP',
    '2021-09-02T11:45:08',
    ( '' ),
    ( '' ),
    'SwSTEP 2.0',
    'SolidWorks 2020',
    '' );
FILE_SCHEMA (( 'AUTOMOTIVE_DESIGN' ));
ENDSEC;

DATA;
#1 = ORIENTED_EDGE ( 'NONE', *, *, #269, .T. ) ;
#2 = CIRCLE ( 'NONE', #271, 0.06250000000000002776 ) ;
#3 = AXIS2_PLACEMENT_3D ( 'NONE', #81, #51, #284 ) ;
#4 = PLANE ( 'NONE',  #3 ) ;
#5 = ORIENTED_EDGE ( 'NONE', *, *, #168, .F. ) ;
#6 = DIRECTION ( 'NONE',  ( -1.224646799147353700E-16, -0.0000000000000000000, -1.000000000000000000 ) ) ;
#7 = FACE_OUTER_BOUND ( 'NONE', #270, .T. ) ;
#8 = VERTEX_POINT ( 'NONE', #145 ) ;
#9 = ORIENTED_EDGE ( 'NONE', *, *, #56, .F. ) ;
#10 = ADVANCED_FACE ( 'NONE', ( #106 ), #98, .T. ) ;
#11 = DIRECTION ( 'NONE',  ( 0.7071067811865462405, 8.659560562354916834E-17, -0.7071067811865486830 ) ) ;
#12 = COLOUR_RGB ( '',0.7921568627450980005, 0.8196078431372548767, 0.9333333333333333481 ) ;
#13 = CARTESIAN_POINT ( 'NONE',  ( -0.06250000000000002776, 0.0000000000000000000, 1.500000000000000222 ) ) ;
#14 = EDGE_CURVE ( 'NONE', #285, #59, #2, .T. ) ;
#15 = CARTESIAN_POINT ( 'NONE',  ( 0.0000000000000000000, 0.0000000000000000000, 1.500000000000000222 ) ) ;
#16 = FACE_OUTER_BOUND ( 'NONE', #191, .T. ) ;
#17 = PRESENTATION_LAYER_ASSIGNMENT (  '', '', ( #294 ) ) ;
#18 = SURFACE_STYLE_FILL_AREA ( #175 ) ;
#19 = EDGE_CURVE ( 'NONE', #50, #8, #88, .T. ) ;
#20 = AXIS2_PLACEMENT_3D ( 'NONE', #55, #133, #108 ) ;
#21 = CARTESIAN_POINT ( 'NONE',  ( 0.01548450000000000694, 0.0000000000000000000, 0.04700000000000000705 ) ) ;
#22 = LENGTH_MEASURE_WITH_UNIT ( LENGTH_MEASURE( 0.02539999999999999897 ), #95 );
#23 = SHAPE_DEFINITION_REPRESENTATION ( #293, #27 ) ;
#24 = EDGE_CURVE ( 'NONE', #8, #50, #131, .T. ) ;
#25 = MECHANICAL_DESIGN_GEOMETRIC_PRESENTATION_REPRESENTATION (  '', ( #84 ), #287 ) ;
#26 = CLOSED_SHELL ( 'NONE', ( #259, #72, #10, #219, #82, #107, #54, #123, #210, #130 ) ) ;
#27 = ADVANCED_BREP_SHAPE_REPRESENTATION ( 'Micro_SME-031-2X', ( #112, #31 ), #110 ) ;
#28 = EDGE_LOOP ( 'NONE', ( #35, #148, #196, #251 ) ) ;
#29 = APPLICATION_CONTEXT ( 'automotive_design' ) ;
#30 =( LENGTH_UNIT ( ) NAMED_UNIT ( * ) SI_UNIT ( $, .METRE. ) );
#31 = AXIS2_PLACEMENT_3D ( 'NONE', #92, #247, #69 ) ;
#32 = CARTESIAN_POINT ( 'NONE',  ( 3.840959569658977750E-17, 0.0000000000000000000, 0.3136381503902351264 ) ) ;
#33 = ORIENTED_EDGE ( 'NONE', *, *, #207, .T. ) ;
#34 =( NAMED_UNIT ( * ) PLANE_ANGLE_UNIT ( ) SI_UNIT ( $, .RADIAN. ) );
#35 = ORIENTED_EDGE ( 'NONE', *, *, #221, .F. ) ;
#36 = CIRCLE ( 'NONE', #203, 0.01548450000000000173 ) ;
#37 = DIRECTION ( 'NONE',  ( -1.224646799147353700E-16, -0.0000000000000000000, -1.000000000000000000 ) ) ;
#38 = EDGE_LOOP ( 'NONE', ( #142, #240, #122, #162 ) ) ;
#39 = CARTESIAN_POINT ( 'NONE',  ( 0.01548450000000000173, 1.896304336139719238E-18, 0.0000000000000000000 ) ) ;
#40 = FILL_AREA_STYLE_COLOUR ( '', #12 ) ;
#41 = FACE_OUTER_BOUND ( 'NONE', #28, .T. ) ;
#42 = CARTESIAN_POINT ( 'NONE',  ( 0.06250000000000002776, 7.654042494670959086E-18, 1.500000000000000222 ) ) ;
#43 = UNCERTAINTY_MEASURE_WITH_UNIT (LENGTH_MEASURE( 1.000000000000000082E-05 ), #71, 'distance_accuracy_value', 'NONE');
#44 = DIRECTION ( 'NONE',  ( -0.0000000000000000000, -0.0000000000000000000, -1.000000000000000000 ) ) ;
#45 = EDGE_LOOP ( 'NONE', ( #151, #167, #234, #5 ) ) ;
#46 = DIMENSIONAL_EXPONENTS ( 1.000000000000000000, 0.0000000000000000000, 0.0000000000000000000, 0.0000000000000000000, 0.0000000000000000000, 0.0000000000000000000, 0.0000000000000000000 ) ;
#47 = EDGE_CURVE ( 'NONE', #253, #59, #101, .T. ) ;
#48 = AXIS2_PLACEMENT_3D ( 'NONE', #65, #154, #156 ) ;
#49 = EDGE_CURVE ( 'NONE', #295, #188, #290, .T. ) ;
#50 = VERTEX_POINT ( 'NONE', #166 ) ;
#51 = DIRECTION ( 'NONE',  ( 0.0000000000000000000, 0.0000000000000000000, 1.000000000000000000 ) ) ;
#52 = ORIENTED_EDGE ( 'NONE', *, *, #24, .T. ) ;
#53 = AXIS2_PLACEMENT_3D ( 'NONE', #187, #102, #278 ) ;
#54 = ADVANCED_FACE ( 'NONE', ( #256 ), #296, .T. ) ;
#55 = CARTESIAN_POINT ( 'NONE',  ( 0.0000000000000000000, 0.0000000000000000000, 1.500000000000000222 ) ) ;
#56 = EDGE_CURVE ( 'NONE', #59, #285, #150, .T. ) ;
#57 = LENGTH_MEASURE_WITH_UNIT ( LENGTH_MEASURE( 0.02539999999999999897 ), #30 );
#58 = ORIENTED_EDGE ( 'NONE', *, *, #47, .F. ) ;
#59 = VERTEX_POINT ( 'NONE', #224 ) ;
#60 = ORIENTED_EDGE ( 'NONE', *, *, #19, .T. ) ;
#61 = CARTESIAN_POINT ( 'NONE',  ( 5.755839955992562736E-18, 0.0000000000000000000, 0.04700000000000000705 ) ) ;
#62 = EDGE_CURVE ( 'NONE', #262, #253, #181, .T. ) ;
#63 = DIRECTION ( 'NONE',  ( -1.000000000000000000, 0.0000000000000000000, 0.0000000000000000000 ) ) ;
#64 = AXIS2_PLACEMENT_3D ( 'NONE', #244, #220, #245 ) ;
#65 = CARTESIAN_POINT ( 'NONE',  ( 0.0000000000000000000, 0.0000000000000000000, 1.500000000000000222 ) ) ;
#66 = DIRECTION ( 'NONE',  ( 0.0000000000000000000, 0.0000000000000000000, 1.000000000000000000 ) ) ;
#67 = CYLINDRICAL_SURFACE ( 'NONE', #48, 0.06250000000000002776 ) ;
#68 = DIRECTION ( 'NONE',  ( -1.000000000000000000, 0.0000000000000000000, 1.224646799147353947E-16 ) ) ;
#69 = DIRECTION ( 'NONE',  ( 1.000000000000000000, 0.0000000000000000000, 0.0000000000000000000 ) ) ;
#70 = CONICAL_SURFACE ( 'NONE', #136, 0.01548450000000000000, 0.1745329251994338637 ) ;
#71 =( CONVERSION_BASED_UNIT ( 'INCH', #274 ) LENGTH_UNIT ( ) NAMED_UNIT ( #46 ) );
#72 = ADVANCED_FACE ( 'NONE', ( #289 ), #77, .T. ) ;
#73 = DIRECTION ( 'NONE',  ( 0.1736481776669313581, 0.0000000000000000000, 0.9848077530122077983 ) ) ;
#74 = VERTEX_POINT ( 'NONE', #39 ) ;
#75 = CARTESIAN_POINT ( 'NONE',  ( -0.01548450000000000173, 0.0000000000000000000, 3.792608672279440787E-18 ) ) ;
#76 = CARTESIAN_POINT ( 'NONE',  ( 0.04750000000000064587, 5.817072295950006528E-18, 1.500000000000000222 ) ) ;
#77 = CONICAL_SURFACE ( 'NONE', #254, 0.01548450000000000000, 0.1745329251994338637 ) ;
#78 = EDGE_CURVE ( 'NONE', #179, #74, #36, .T. ) ;
#79 = ORIENTED_EDGE ( 'NONE', *, *, #62, .F. ) ;
#80 = CARTESIAN_POINT ( 'NONE',  ( 0.0000000000000000000, 0.0000000000000000000, 1.485000000000000764 ) ) ;
#81 = CARTESIAN_POINT ( 'NONE',  ( 0.0000000000000000000, 0.0000000000000000000, 0.0000000000000000000 ) ) ;
#82 = ADVANCED_FACE ( 'NONE', ( #41 ), #85, .T. ) ;
#83 = ORIENTED_EDGE ( 'NONE', *, *, #168, .T. ) ;
#84 = STYLED_ITEM ( 'NONE', ( #205 ), #112 ) ;
#85 = CYLINDRICAL_SURFACE ( 'NONE', #157, 0.06250000000000002776 ) ;
#86 = FILL_AREA_STYLE_COLOUR ( '', #297 ) ;
#87 = FACE_OUTER_BOUND ( 'NONE', #38, .T. ) ;
#88 = CIRCLE ( 'NONE', #176, 0.06250000000000002776 ) ;
#89 = CARTESIAN_POINT ( 'NONE',  ( 5.755839955992562736E-18, 0.0000000000000000000, 0.04700000000000000705 ) ) ;
#90 = LINE ( 'NONE', #42, #117 ) ;
#91 =( GEOMETRIC_REPRESENTATION_CONTEXT ( 3 ) GLOBAL_UNCERTAINTY_ASSIGNED_CONTEXT ( ( #43 ) ) GLOBAL_UNIT_ASSIGNED_CONTEXT ( ( #71, #214, #250 ) ) REPRESENTATION_CONTEXT ( 'NONE', 'WORKASPACE' ) );
#92 = CARTESIAN_POINT ( 'NONE',  ( 0.0000000000000000000, 0.0000000000000000000, 0.0000000000000000000 ) ) ;
#93 = AXIS2_PLACEMENT_3D ( 'NONE', #212, #6, #260 ) ;
#94 = EDGE_LOOP ( 'NONE', ( #139, #125 ) ) ;
#95 =( LENGTH_UNIT ( ) NAMED_UNIT ( * ) SI_UNIT ( $, .METRE. ) );
#96 = PRESENTATION_STYLE_ASSIGNMENT (( #248 ) ) ;
#97 = ORIENTED_EDGE ( 'NONE', *, *, #147, .T. ) ;
#98 = CONICAL_SURFACE ( 'NONE', #126, 0.04750000000000064587, 0.7853981633974466137 ) ;
#99 = CARTESIAN_POINT ( 'NONE',  ( 0.01548450000000000694, 0.0000000000000000000, 0.04700000000000000705 ) ) ;
#100 = ORIENTED_EDGE ( 'NONE', *, *, #299, .T. ) ;
#101 = LINE ( 'NONE', #76, #261 ) ;
#102 = DIRECTION ( 'NONE',  ( 0.0000000000000000000, 0.0000000000000000000, 1.000000000000000000 ) ) ;
#103 = ORIENTED_EDGE ( 'NONE', *, *, #78, .T. ) ;
#104 = VECTOR ( 'NONE', #132, 39.37007874015748143 ) ;
#105 = DIRECTION ( 'NONE',  ( 1.224646799147353700E-16, 0.0000000000000000000, 1.000000000000000000 ) ) ;
#106 = FACE_OUTER_BOUND ( 'NONE', #45, .T. ) ;
#107 = ADVANCED_FACE ( 'NONE', ( #241 ), #226, .T. ) ;
#108 = DIRECTION ( 'NONE',  ( -1.000000000000000000, 0.0000000000000000000, 0.0000000000000000000 ) ) ;
#109 = DIRECTION ( 'NONE',  ( 1.000000000000000000, 0.0000000000000000000, 0.0000000000000000000 ) ) ;
#110 =( GEOMETRIC_REPRESENTATION_CONTEXT ( 3 ) GLOBAL_UNCERTAINTY_ASSIGNED_CONTEXT ( ( #155 ) ) GLOBAL_UNIT_ASSIGNED_CONTEXT ( ( #180, #272, #159 ) ) REPRESENTATION_CONTEXT ( 'NONE', 'WORKASPACE' ) );
#111 = CARTESIAN_POINT ( 'NONE',  ( 5.755839955992562736E-18, 0.0000000000000000000, 0.04700000000000000705 ) ) ;
#112 = MANIFOLD_SOLID_BREP ( 'Cut-Revolve1', #26 ) ;
#113 = DIRECTION ( 'NONE',  ( -0.0000000000000000000, -0.0000000000000000000, -1.000000000000000000 ) ) ;
#114 = DIMENSIONAL_EXPONENTS ( 1.000000000000000000, 0.0000000000000000000, 0.0000000000000000000, 0.0000000000000000000, 0.0000000000000000000, 0.0000000000000000000, 0.0000000000000000000 ) ;
#115 = SURFACE_SIDE_STYLE ('',( #18 ) ) ;
#116 = SURFACE_STYLE_FILL_AREA ( #291 ) ;
#117 = VECTOR ( 'NONE', #44, 39.37007874015748143 ) ;
#118 = SURFACE_STYLE_USAGE ( .BOTH. , #115 ) ;
#119 = CYLINDRICAL_SURFACE ( 'NONE', #171, 0.01548450000000000173 ) ;
#120 = CARTESIAN_POINT ( 'NONE',  ( 0.0000000000000000000, 0.0000000000000000000, 0.0000000000000000000 ) ) ;
#121 = VECTOR ( 'NONE', #124, 39.37007874015748143 ) ;
#122 = ORIENTED_EDGE ( 'NONE', *, *, #24, .F. ) ;
#123 = ADVANCED_FACE ( 'NONE', ( #7 ), #70, .T. ) ;
#124 = DIRECTION ( 'NONE',  ( -1.224646799147353700E-16, -0.0000000000000000000, -1.000000000000000000 ) ) ;
#125 = ORIENTED_EDGE ( 'NONE', *, *, #153, .T. ) ;
#126 = AXIS2_PLACEMENT_3D ( 'NONE', #170, #233, #280 ) ;
#127 = DIRECTION ( 'NONE',  ( 1.000000000000000000, 0.0000000000000000000, 0.0000000000000000000 ) ) ;
#128 = ORIENTED_EDGE ( 'NONE', *, *, #147, .F. ) ;
#129 = ORIENTED_EDGE ( 'NONE', *, *, #140, .F. ) ;
#130 = ADVANCED_FACE ( 'NONE', ( #255 ), #4, .F. ) ;
#131 = CIRCLE ( 'NONE', #93, 0.06250000000000002776 ) ;
#132 = DIRECTION ( 'NONE',  ( -1.224646799147353700E-16, -0.0000000000000000000, -1.000000000000000000 ) ) ;
#133 = DIRECTION ( 'NONE',  ( 0.0000000000000000000, 0.0000000000000000000, -1.000000000000000000 ) ) ;
#134 = CARTESIAN_POINT ( 'NONE',  ( 2.322303035462755967E-34, 0.0000000000000000000, 1.896304336139720394E-18 ) ) ;
#135 = CYLINDRICAL_SURFACE ( 'NONE', #238, 0.01548450000000000173 ) ;
#136 = AXIS2_PLACEMENT_3D ( 'NONE', #89, #105, #195 ) ;
#137 = EDGE_CURVE ( 'NONE', #295, #50, #215, .T. ) ;
#138 = PRODUCT_CONTEXT ( 'NONE', #29, 'mechanical' ) ;
#139 = ORIENTED_EDGE ( 'NONE', *, *, #62, .T. ) ;
#140 = EDGE_CURVE ( 'NONE', #295, #74, #258, .T. ) ;
#141 = CIRCLE ( 'NONE', #53, 0.04750000000000064587 ) ;
#142 = ORIENTED_EDGE ( 'NONE', *, *, #14, .T. ) ;
#143 = CARTESIAN_POINT ( 'NONE',  ( -0.01548450000000000173, 0.0000000000000000000, 1.896304336139720394E-18 ) ) ;
#144 = CARTESIAN_POINT ( 'NONE',  ( -0.04750000000000064587, 0.0000000000000000000, 1.500000000000000222 ) ) ;
#145 = CARTESIAN_POINT ( 'NONE',  ( -0.06249999999999999306, 0.0000000000000000000, 0.3136381503902351264 ) ) ;
#146 = ORIENTED_EDGE ( 'NONE', *, *, #49, .F. ) ;
#147 = EDGE_CURVE ( 'NONE', #188, #179, #161, .T. ) ;
#148 = ORIENTED_EDGE ( 'NONE', *, *, #56, .T. ) ;
#149 = CARTESIAN_POINT ( 'NONE',  ( 5.755839955992562736E-18, 0.0000000000000000000, 0.04700000000000000705 ) ) ;
#150 = CIRCLE ( 'NONE', #185, 0.06250000000000002776 ) ;
#151 = ORIENTED_EDGE ( 'NONE', *, *, #153, .F. ) ;
#152 = VECTOR ( 'NONE', #232, 39.37007874015748854 ) ;
#153 = EDGE_CURVE ( 'NONE', #253, #262, #141, .T. ) ;
#154 = DIRECTION ( 'NONE',  ( -0.0000000000000000000, -0.0000000000000000000, -1.000000000000000000 ) ) ;
#155 = UNCERTAINTY_MEASURE_WITH_UNIT (LENGTH_MEASURE( 1.000000000000000082E-05 ), #180, 'distance_accuracy_value', 'NONE');
#156 = DIRECTION ( 'NONE',  ( -1.000000000000000000, 0.0000000000000000000, 0.0000000000000000000 ) ) ;
#157 = AXIS2_PLACEMENT_3D ( 'NONE', #173, #113, #63 ) ;
#158 = PRODUCT_DEFINITION_CONTEXT ( 'detailed design', #183, 'design' ) ;
#159 =( NAMED_UNIT ( * ) SI_UNIT ( $, .STERADIAN. ) SOLID_ANGLE_UNIT ( ) );
#160 = PRODUCT_DEFINITION ( 'UNKNOWN', '', #189, #158 ) ;
#161 = LINE ( 'NONE', #143, #121 ) ;
#162 = ORIENTED_EDGE ( 'NONE', *, *, #192, .F. ) ;
#163 = PRODUCT_RELATED_PRODUCT_CATEGORY ( 'part', '', ( #276 ) ) ;
#164 = CARTESIAN_POINT ( 'NONE',  ( -0.01548449999999999480, 4.775173415405339547E-18, 0.04700000000000000705 ) ) ;
#165 = PRESENTATION_LAYER_ASSIGNMENT (  '', '', ( #84 ) ) ;
#166 = CARTESIAN_POINT ( 'NONE',  ( 0.06250000000000005551, 7.654042494670963708E-18, 0.3136381503902351264 ) ) ;
#167 = ORIENTED_EDGE ( 'NONE', *, *, #47, .T. ) ;
#168 = EDGE_CURVE ( 'NONE', #262, #285, #252, .T. ) ;
#169 = DIRECTION ( 'NONE',  ( 1.000000000000000000, 0.0000000000000000000, 0.0000000000000000000 ) ) ;
#170 = CARTESIAN_POINT ( 'NONE',  ( 0.0000000000000000000, 0.0000000000000000000, 1.500000000000000222 ) ) ;
#171 = AXIS2_PLACEMENT_3D ( 'NONE', #206, #225, #266 ) ;
#172 = DIRECTION ( 'NONE',  ( -1.224646799147353700E-16, -0.0000000000000000000, -1.000000000000000000 ) ) ;
#173 = CARTESIAN_POINT ( 'NONE',  ( 0.0000000000000000000, 0.0000000000000000000, 1.500000000000000222 ) ) ;
#174 = MECHANICAL_DESIGN_GEOMETRIC_PRESENTATION_REPRESENTATION (  '', ( #294 ), #91 ) ;
#175 = FILL_AREA_STYLE ('',( #86 ) ) ;
#176 = AXIS2_PLACEMENT_3D ( 'NONE', #32, #239, #127 ) ;
#177 = CARTESIAN_POINT ( 'NONE',  ( -0.06250000000000002776, 0.0000000000000000000, 1.485000000000000764 ) ) ;
#178 = CARTESIAN_POINT ( 'NONE',  ( 0.04750000000000064587, 6.735557395310483192E-18, 1.500000000000000222 ) ) ;
#179 = VERTEX_POINT ( 'NONE', #75 ) ;
#180 =( CONVERSION_BASED_UNIT ( 'INCH', #22 ) LENGTH_UNIT ( ) NAMED_UNIT ( #267 ) );
#181 = CIRCLE ( 'NONE', #64, 0.04750000000000064587 ) ;
#182 = ORIENTED_EDGE ( 'NONE', *, *, #78, .F. ) ;
#183 = APPLICATION_CONTEXT ( 'automotive_design' ) ;
#184 =( LENGTH_UNIT ( ) NAMED_UNIT ( * ) SI_UNIT ( $, .METRE. ) );
#185 = AXIS2_PLACEMENT_3D ( 'NONE', #218, #263, #109 ) ;
#186 = ORIENTED_EDGE ( 'NONE', *, *, #299, .F. ) ;
#187 = CARTESIAN_POINT ( 'NONE',  ( 0.0000000000000000000, 0.0000000000000000000, 1.500000000000000222 ) ) ;
#188 = VERTEX_POINT ( 'NONE', #164 ) ;
#189 = PRODUCT_DEFINITION_FORMATION_WITH_SPECIFIED_SOURCE ( 'ANY', '', #276, .NOT_KNOWN. ) ;
#190 = CARTESIAN_POINT ( 'NONE',  ( 0.01548450000000000173, 1.896304336139719238E-18, -1.896304336139720394E-18 ) ) ;
#191 = EDGE_LOOP ( 'NONE', ( #33, #283, #182, #128 ) ) ;
#192 = EDGE_CURVE ( 'NONE', #285, #8, #193, .T. ) ;
#193 = LINE ( 'NONE', #13, #281 ) ;
#194 = ORIENTED_EDGE ( 'NONE', *, *, #137, .T. ) ;
#195 = DIRECTION ( 'NONE',  ( 1.000000000000000000, 0.0000000000000000000, 0.0000000000000000000 ) ) ;
#196 = ORIENTED_EDGE ( 'NONE', *, *, #192, .T. ) ;
#197 = DIRECTION ( 'NONE',  ( -1.000000000000000000, 0.0000000000000000000, 0.0000000000000000000 ) ) ;
#198 = VECTOR ( 'NONE', #246, 39.37007874015747433 ) ;
#199 = DIRECTION ( 'NONE',  ( -1.000000000000000000, 0.0000000000000000000, 1.224646799147353947E-16 ) ) ;
#200 = DIRECTION ( 'NONE',  ( 1.000000000000000000, 0.0000000000000000000, -0.0000000000000000000 ) ) ;
#201 = DIRECTION ( 'NONE',  ( -1.224646799147353700E-16, -0.0000000000000000000, -1.000000000000000000 ) ) ;
#202 = UNCERTAINTY_MEASURE_WITH_UNIT (LENGTH_MEASURE( 1.000000000000000082E-05 ), #235, 'distance_accuracy_value', 'NONE');
#203 = AXIS2_PLACEMENT_3D ( 'NONE', #134, #222, #199 ) ;
#204 = SURFACE_SIDE_STYLE ('',( #116 ) ) ;
#205 = PRESENTATION_STYLE_ASSIGNMENT (( #118 ) ) ;
#206 = CARTESIAN_POINT ( 'NONE',  ( 0.0000000000000000000, 0.0000000000000000000, 0.0000000000000000000 ) ) ;
#207 = EDGE_CURVE ( 'NONE', #188, #295, #223, .T. ) ;
#208 = EDGE_LOOP ( 'NONE', ( #103, #1 ) ) ;
#209 = AXIS2_PLACEMENT_3D ( 'NONE', #149, #37, #197 ) ;
#210 = ADVANCED_FACE ( 'NONE', ( #292 ), #119, .T. ) ;
#211 = EDGE_LOOP ( 'NONE', ( #129, #213, #97, #217 ) ) ;
#212 = CARTESIAN_POINT ( 'NONE',  ( 3.840959569658977750E-17, 0.0000000000000000000, 0.3136381503902351264 ) ) ;
#213 = ORIENTED_EDGE ( 'NONE', *, *, #49, .T. ) ;
#214 =( NAMED_UNIT ( * ) PLANE_ANGLE_UNIT ( ) SI_UNIT ( $, .RADIAN. ) );
#215 = LINE ( 'NONE', #99, #249 ) ;
#216 = CIRCLE ( 'NONE', #275, 0.01548450000000000173 ) ;
#217 = ORIENTED_EDGE ( 'NONE', *, *, #269, .F. ) ;
#218 = CARTESIAN_POINT ( 'NONE',  ( 0.0000000000000000000, 0.0000000000000000000, 1.485000000000000764 ) ) ;
#219 = ADVANCED_FACE ( 'NONE', ( #87 ), #67, .T. ) ;
#220 = DIRECTION ( 'NONE',  ( 0.0000000000000000000, 0.0000000000000000000, 1.000000000000000000 ) ) ;
#221 = EDGE_CURVE ( 'NONE', #59, #50, #90, .T. ) ;
#222 = DIRECTION ( 'NONE',  ( -1.224646799147353700E-16, -0.0000000000000000000, -1.000000000000000000 ) ) ;
#223 = CIRCLE ( 'NONE', #264, 0.01548450000000000000 ) ;
#224 = CARTESIAN_POINT ( 'NONE',  ( 0.06250000000000002776, 7.654042494670959086E-18, 1.485000000000000764 ) ) ;
#225 = DIRECTION ( 'NONE',  ( -1.224646799147353700E-16, -0.0000000000000000000, -1.000000000000000000 ) ) ;
#226 = PLANE ( 'NONE',  #242 ) ;
#227 = APPLICATION_PROTOCOL_DEFINITION ( 'draft international standard', 'automotive_design', 1998, #29 ) ;
#228 = DIRECTION ( 'NONE',  ( 1.224646799147353700E-16, 0.0000000000000000000, 1.000000000000000000 ) ) ;
#229 = CARTESIAN_POINT ( 'NONE',  ( 2.322303035462755967E-34, 0.0000000000000000000, 1.896304336139720394E-18 ) ) ;
#230 = APPLICATION_PROTOCOL_DEFINITION ( 'draft international standard', 'automotive_design', 1998, #183 ) ;
#231 = DIRECTION ( 'NONE',  ( -1.000000000000000000, 0.0000000000000000000, 0.0000000000000000000 ) ) ;
#232 = DIRECTION ( 'NONE',  ( -0.7071067811865462405, 0.0000000000000000000, -0.7071067811865486830 ) ) ;
#233 = DIRECTION ( 'NONE',  ( 0.0000000000000000000, 0.0000000000000000000, -1.000000000000000000 ) ) ;
#234 = ORIENTED_EDGE ( 'NONE', *, *, #14, .F. ) ;
#235 =( CONVERSION_BASED_UNIT ( 'INCH', #57 ) LENGTH_UNIT ( ) NAMED_UNIT ( #114 ) );
#236 = DIRECTION ( 'NONE',  ( 0.0000000000000000000, 0.0000000000000000000, -1.000000000000000000 ) ) ;
#237 =( NAMED_UNIT ( * ) SI_UNIT ( $, .STERADIAN. ) SOLID_ANGLE_UNIT ( ) );
#238 = AXIS2_PLACEMENT_3D ( 'NONE', #120, #201, #298 ) ;
#239 = DIRECTION ( 'NONE',  ( -1.224646799147353700E-16, -0.0000000000000000000, -1.000000000000000000 ) ) ;
#240 = ORIENTED_EDGE ( 'NONE', *, *, #221, .T. ) ;
#241 = FACE_OUTER_BOUND ( 'NONE', #94, .T. ) ;
#242 = AXIS2_PLACEMENT_3D ( 'NONE', #15, #66, #200 ) ;
#243 = CARTESIAN_POINT ( 'NONE',  ( -0.01548449999999999480, 1.896304336139719238E-18, 0.04700000000000000705 ) ) ;
#244 = CARTESIAN_POINT ( 'NONE',  ( 0.0000000000000000000, 0.0000000000000000000, 1.500000000000000222 ) ) ;
#245 = DIRECTION ( 'NONE',  ( 1.000000000000000000, 0.0000000000000000000, 0.0000000000000000000 ) ) ;
#246 = DIRECTION ( 'NONE',  ( -0.1736481776669311639, 2.126576849575783008E-17, 0.9848077530122080203 ) ) ;
#247 = DIRECTION ( 'NONE',  ( 0.0000000000000000000, 0.0000000000000000000, 1.000000000000000000 ) ) ;
#248 = SURFACE_STYLE_USAGE ( .BOTH. , #204 ) ;
#249 = VECTOR ( 'NONE', #73, 39.37007874015748143 ) ;
#250 =( NAMED_UNIT ( * ) SI_UNIT ( $, .STERADIAN. ) SOLID_ANGLE_UNIT ( ) );
#251 = ORIENTED_EDGE ( 'NONE', *, *, #19, .F. ) ;
#252 = LINE ( 'NONE', #144, #152 ) ;
#253 = VERTEX_POINT ( 'NONE', #178 ) ;
#254 = AXIS2_PLACEMENT_3D ( 'NONE', #61, #228, #288 ) ;
#255 = FACE_OUTER_BOUND ( 'NONE', #208, .T. ) ;
#256 = FACE_OUTER_BOUND ( 'NONE', #282, .T. ) ;
#257 = ORIENTED_EDGE ( 'NONE', *, *, #207, .F. ) ;
#258 = LINE ( 'NONE', #190, #104 ) ;
#259 = ADVANCED_FACE ( 'NONE', ( #16 ), #135, .T. ) ;
#260 = DIRECTION ( 'NONE',  ( 1.000000000000000000, 0.0000000000000000000, 0.0000000000000000000 ) ) ;
#261 = VECTOR ( 'NONE', #11, 39.37007874015748854 ) ;
#262 = VERTEX_POINT ( 'NONE', #273 ) ;
#263 = DIRECTION ( 'NONE',  ( 0.0000000000000000000, 0.0000000000000000000, -1.000000000000000000 ) ) ;
#264 = AXIS2_PLACEMENT_3D ( 'NONE', #111, #172, #231 ) ;
#265 = LINE ( 'NONE', #243, #198 ) ;
#266 = DIRECTION ( 'NONE',  ( -1.000000000000000000, 0.0000000000000000000, 1.224646799147353947E-16 ) ) ;
#267 = DIMENSIONAL_EXPONENTS ( 1.000000000000000000, 0.0000000000000000000, 0.0000000000000000000, 0.0000000000000000000, 0.0000000000000000000, 0.0000000000000000000, 0.0000000000000000000 ) ;
#268 = DIRECTION ( 'NONE',  ( -1.224646799147353700E-16, -0.0000000000000000000, -1.000000000000000000 ) ) ;
#269 = EDGE_CURVE ( 'NONE', #74, #179, #216, .T. ) ;
#270 = EDGE_LOOP ( 'NONE', ( #186, #146, #194, #60 ) ) ;
#271 = AXIS2_PLACEMENT_3D ( 'NONE', #80, #236, #169 ) ;
#272 =( NAMED_UNIT ( * ) PLANE_ANGLE_UNIT ( ) SI_UNIT ( $, .RADIAN. ) );
#273 = CARTESIAN_POINT ( 'NONE',  ( -0.04750000000000064587, 0.0000000000000000000, 1.500000000000000222 ) ) ;
#274 = LENGTH_MEASURE_WITH_UNIT ( LENGTH_MEASURE( 0.02539999999999999897 ), #184 );
#275 = AXIS2_PLACEMENT_3D ( 'NONE', #229, #268, #68 ) ;
#276 = PRODUCT ( 'Micro_SME-031-2X', 'Micro_SME-031-2X', '', ( #138 ) ) ;
#277 = EDGE_LOOP ( 'NONE', ( #257, #100, #52, #279 ) ) ;
#278 = DIRECTION ( 'NONE',  ( 1.000000000000000000, 0.0000000000000000000, 0.0000000000000000000 ) ) ;
#279 = ORIENTED_EDGE ( 'NONE', *, *, #137, .F. ) ;
#280 = DIRECTION ( 'NONE',  ( -1.000000000000000000, 0.0000000000000000000, 0.0000000000000000000 ) ) ;
#281 = VECTOR ( 'NONE', #286, 39.37007874015748143 ) ;
#282 = EDGE_LOOP ( 'NONE', ( #58, #79, #83, #9 ) ) ;
#283 = ORIENTED_EDGE ( 'NONE', *, *, #140, .T. ) ;
#284 = DIRECTION ( 'NONE',  ( 1.000000000000000000, 0.0000000000000000000, -0.0000000000000000000 ) ) ;
#285 = VERTEX_POINT ( 'NONE', #177 ) ;
#286 = DIRECTION ( 'NONE',  ( -0.0000000000000000000, -0.0000000000000000000, -1.000000000000000000 ) ) ;
#287 =( GEOMETRIC_REPRESENTATION_CONTEXT ( 3 ) GLOBAL_UNCERTAINTY_ASSIGNED_CONTEXT ( ( #202 ) ) GLOBAL_UNIT_ASSIGNED_CONTEXT ( ( #235, #34, #237 ) ) REPRESENTATION_CONTEXT ( 'NONE', 'WORKASPACE' ) );
#288 = DIRECTION ( 'NONE',  ( 1.000000000000000000, 0.0000000000000000000, 0.0000000000000000000 ) ) ;
#289 = FACE_OUTER_BOUND ( 'NONE', #277, .T. ) ;
#290 = CIRCLE ( 'NONE', #209, 0.01548450000000000000 ) ;
#291 = FILL_AREA_STYLE ('',( #40 ) ) ;
#292 = FACE_OUTER_BOUND ( 'NONE', #211, .T. ) ;
#293 = PRODUCT_DEFINITION_SHAPE ( 'NONE', 'NONE',  #160 ) ;
#294 = STYLED_ITEM ( 'NONE', ( #96 ), #27 ) ;
#295 = VERTEX_POINT ( 'NONE', #21 ) ;
#296 = CONICAL_SURFACE ( 'NONE', #20, 0.04750000000000064587, 0.7853981633974466137 ) ;
#297 = COLOUR_RGB ( '',0.7921568627450980005, 0.8196078431372548767, 0.9333333333333333481 ) ;
#298 = DIRECTION ( 'NONE',  ( -1.000000000000000000, 0.0000000000000000000, 1.224646799147353947E-16 ) ) ;
#299 = EDGE_CURVE ( 'NONE', #188, #8, #265, .T. ) ;
ENDSEC;
END-ISO-10303-21;
