ISO-10303-21;
HEADER;
FILE_DESCRIPTION (( 'STEP AP214' ),
    '1' );
FILE_NAME ('59808.STEP',
    '2023-07-12T13:05:39',
    ( '' ),
    ( '' ),
    'SwSTEP 2.0',
    'SolidWorks 2023',
    '' );
FILE_SCHEMA (( 'AUTOMOTIVE_DESIGN' ));
ENDSEC;

DATA;
#1 =( NAMED_UNIT ( * ) SI_UNIT ( $, .STERADIAN. ) SOLID_ANGLE_UNIT ( ) );
#2 = CLOSED_SHELL ( 'NONE', ( #20, #282, #175, #91 ) ) ;
#3 = CARTESIAN_POINT ( 'NONE',  ( 0.1250000000000000278, 2.500000000000000000, 0.000000000000000000 ) ) ;
#4 = SURFACE_SIDE_STYLE ('',( #139 ) ) ;
#5 = CARTESIAN_POINT ( 'NONE',  ( 9.491012693391986370E-18, 0.000000000000000000, -0.02999999999999999889 ) ) ;
#6 = DIRECTION ( 'NONE',  ( 0.000000000000000000, 0.000000000000000000, -1.000000000000000000 ) ) ;
#7 = PRODUCT_CONTEXT ( 'NONE', #179, 'mechanical' ) ;
#8 = LINE ( 'NONE', #82, #225 ) ;
#9 = DIRECTION ( 'NONE',  ( -9.742233209408326421E-17, 1.000000000000000000, -0.000000000000000000 ) ) ;
#10 = PRODUCT_DEFINITION_SHAPE ( 'NONE', 'NONE',  #49 ) ;
#11 = CARTESIAN_POINT ( 'NONE',  ( 0.1249999999999999861, 0.05484827557301411721, 1.530808498934190276E-17 ) ) ;
#12 =( NAMED_UNIT ( * ) SI_UNIT ( $, .STERADIAN. ) SOLID_ANGLE_UNIT ( ) );
#13 = SURFACE_STYLE_USAGE ( .BOTH. , #131 ) ;
#14 = EDGE_LOOP ( 'NONE', ( #249, #92, #134, #151 ) ) ;
#15 = CARTESIAN_POINT ( 'NONE',  ( 0.000000000000000000, 0.000000000000000000, 0.000000000000000000 ) ) ;
#16 = CIRCLE ( 'NONE', #259, 0.1249999999999999584 ) ;
#17 = AXIS2_PLACEMENT_3D ( 'NONE', #3, #100, #125 ) ;
#18 = ORIENTED_EDGE ( 'NONE', *, *, #120, .F. ) ;
#19 = STYLED_ITEM ( 'NONE', ( #288 ), #69 ) ;
#20 = ADVANCED_FACE ( 'NONE', ( #128 ), #158, .T. ) ;
#21 = SURFACE_STYLE_USAGE ( .BOTH. , #257 ) ;
#22 = AXIS2_PLACEMENT_3D ( 'NONE', #130, #299, #40 ) ;
#23 = VECTOR ( 'NONE', #87, 39.37007874015748854 ) ;
#24 = DIRECTION ( 'NONE',  ( -9.742233209408326421E-17, 1.000000000000000000, -0.000000000000000000 ) ) ;
#25 =( LENGTH_UNIT ( ) NAMED_UNIT ( * ) SI_UNIT ( $, .METRE. ) );
#26 =( LENGTH_UNIT ( ) NAMED_UNIT ( * ) SI_UNIT ( $, .METRE. ) );
#27 = AXIS2_PLACEMENT_3D ( 'NONE', #223, #154, #68 ) ;
#28 = FILL_AREA_STYLE ('',( #206 ) ) ;
#29 = CARTESIAN_POINT ( 'NONE',  ( 6.123233995736772199E-17, 2.500000000000000000, 0.000000000000000000 ) ) ;
#30 = CARTESIAN_POINT ( 'NONE',  ( -0.1249999999999993616, 0.05484827557301409640, 0.000000000000000000 ) ) ;
#31 = DIRECTION ( 'NONE',  ( 0.000000000000000000, 0.000000000000000000, -1.000000000000000000 ) ) ;
#32 = PRODUCT_DEFINITION_FORMATION_WITH_SPECIFIED_SOURCE ( 'ANY', '', #286, .NOT_KNOWN. ) ;
#33 = FILL_AREA_STYLE_COLOUR ( '', #149 ) ;
#34 = VERTEX_POINT ( 'NONE', #11 ) ;
#35 =( CONVERSION_BASED_UNIT ( 'INCH', #85 ) LENGTH_UNIT ( ) NAMED_UNIT ( #253 ) );
#36 = ORIENTED_EDGE ( 'NONE', *, *, #274, .F. ) ;
#37 = MECHANICAL_DESIGN_GEOMETRIC_PRESENTATION_REPRESENTATION (  '', ( #19 ), #279 ) ;
#38 = PRESENTATION_LAYER_ASSIGNMENT (  '', '', ( #229 ) ) ;
#39 = SURFACE_STYLE_FILL_AREA ( #153 ) ;
#40 = DIRECTION ( 'NONE',  ( 0.000000000000000000, -0.000000000000000000, 1.000000000000000000 ) ) ;
#41 = VERTEX_POINT ( 'NONE', #43 ) ;
#42 = SURFACE_SIDE_STYLE ('',( #107 ) ) ;
#43 = CARTESIAN_POINT ( 'NONE',  ( 1.530808498934191509E-17, 0.05484827557301415885, -0.1250000000000000278 ) ) ;
#44 = CIRCLE ( 'NONE', #294, 0.1250000000000000000 ) ;
#45 =( LENGTH_UNIT ( ) NAMED_UNIT ( * ) SI_UNIT ( $, .METRE. ) );
#46 = CLOSED_SHELL ( 'NONE', ( #69, #264, #214, #64 ) ) ;
#47 = MECHANICAL_DESIGN_GEOMETRIC_PRESENTATION_REPRESENTATION (  '', ( #266 ), #111 ) ;
#48 = DIMENSIONAL_EXPONENTS ( 1.000000000000000000, 0.000000000000000000, 0.000000000000000000, 0.000000000000000000, 0.000000000000000000, 0.000000000000000000, 0.000000000000000000 ) ;
#49 = PRODUCT_DEFINITION ( 'UNKNOWN', '', #32, #178 ) ;
#50 = APPLICATION_CONTEXT ( 'automotive_design' ) ;
#51 = AXIS2_PLACEMENT_3D ( 'NONE', #126, #88, #216 ) ;
#52 = SURFACE_STYLE_USAGE ( .BOTH. , #4 ) ;
#53 = CARTESIAN_POINT ( 'NONE',  ( 0.000000000000000000, 0.05484827557301415885, 0.1250000000000000278 ) ) ;
#54 = SURFACE_SIDE_STYLE ('',( #190 ) ) ;
#55 = EDGE_CURVE ( 'NONE', #296, #300, #170, .T. ) ;
#56 = AXIS2_PLACEMENT_3D ( 'NONE', #235, #75, #284 ) ;
#57 = CARTESIAN_POINT ( 'NONE',  ( 0.000000000000000000, 0.000000000000000000, 0.000000000000000000 ) ) ;
#58 = PLANE ( 'NONE',  #17 ) ;
#59 = EDGE_CURVE ( 'NONE', #34, #296, #161, .T. ) ;
#60 =( NAMED_UNIT ( * ) SI_UNIT ( $, .STERADIAN. ) SOLID_ANGLE_UNIT ( ) );
#61 = STYLED_ITEM ( 'NONE', ( #143 ), #287 ) ;
#62 = AXIS2_PLACEMENT_3D ( 'NONE', #215, #236, #31 ) ;
#63 = DIRECTION ( 'NONE',  ( -9.742233209408326421E-17, 1.000000000000000000, -0.000000000000000000 ) ) ;
#64 = ADVANCED_FACE ( 'NONE', ( #268 ), #89, .T. ) ;
#65 = ORIENTED_EDGE ( 'NONE', *, *, #98, .T. ) ;
#66 =( CONVERSION_BASED_UNIT ( 'INCH', #307 ) LENGTH_UNIT ( ) NAMED_UNIT ( #199 ) );
#67 = EDGE_LOOP ( 'NONE', ( #65, #156 ) ) ;
#68 = DIRECTION ( 'NONE',  ( 0.000000000000000000, 0.000000000000000000, -1.000000000000000000 ) ) ;
#69 = ADVANCED_FACE ( 'NONE', ( #140 ), #271, .T. ) ;
#70 = EDGE_LOOP ( 'NONE', ( #112, #197 ) ) ;
#71 = DIMENSIONAL_EXPONENTS ( 1.000000000000000000, 0.000000000000000000, 0.000000000000000000, 0.000000000000000000, 0.000000000000000000, 0.000000000000000000, 0.000000000000000000 ) ;
#72 = CIRCLE ( 'NONE', #27, 0.1250000000000000000 ) ;
#73 = SURFACE_STYLE_FILL_AREA ( #135 ) ;
#74 = ORIENTED_EDGE ( 'NONE', *, *, #252, .T. ) ;
#75 = DIRECTION ( 'NONE',  ( -9.742233209408326421E-17, 1.000000000000000000, 0.000000000000000000 ) ) ;
#76 = UNCERTAINTY_MEASURE_WITH_UNIT (LENGTH_MEASURE( 1.000000000000000082E-05 ), #205, 'distance_accuracy_value', 'NONE');
#77 = STYLED_ITEM ( 'NONE', ( #233 ), #281 ) ;
#78 =( NAMED_UNIT ( * ) PLANE_ANGLE_UNIT ( ) SI_UNIT ( $, .RADIAN. ) );
#79 =( LENGTH_UNIT ( ) NAMED_UNIT ( * ) SI_UNIT ( $, .METRE. ) );
#80 = CARTESIAN_POINT ( 'NONE',  ( 0.000000000000000000, 0.05484827557301415885, 0.000000000000000000 ) ) ;
#81 = COLOUR_RGB ( '',0.7921568627450980005, 0.8196078431372548767, 0.9333333333333333481 ) ;
#82 = CARTESIAN_POINT ( 'NONE',  ( 0.1249999999999999029, 2.500000000000000000, 1.530808498934189352E-17 ) ) ;
#83 = EDGE_CURVE ( 'NONE', #247, #275, #289, .T. ) ;
#84 = CARTESIAN_POINT ( 'NONE',  ( 6.123233995736772199E-17, 2.500000000000000000, 0.000000000000000000 ) ) ;
#85 = LENGTH_MEASURE_WITH_UNIT ( LENGTH_MEASURE( 0.02539999999999999897 ), #45 );
#86 = PRESENTATION_LAYER_ASSIGNMENT (  '', '', ( #77 ) ) ;
#87 = DIRECTION ( 'NONE',  ( 1.060575238724908024E-16, 0.4999999999999979461, -0.8660254037844397068 ) ) ;
#88 = DIRECTION ( 'NONE',  ( -9.742233209408326421E-17, 1.000000000000000000, -0.000000000000000000 ) ) ;
#89 = PLANE ( 'NONE',  #283 ) ;
#90 = LENGTH_MEASURE_WITH_UNIT ( LENGTH_MEASURE( 0.02539999999999999897 ), #113 );
#91 = ADVANCED_FACE ( 'NONE', ( #262 ), #58, .F. ) ;
#92 = ORIENTED_EDGE ( 'NONE', *, *, #59, .T. ) ;
#93 = VECTOR ( 'NONE', #121, 39.37007874015748854 ) ;
#94 = PRESENTATION_LAYER_ASSIGNMENT (  '', '', ( #255 ) ) ;
#95 = SURFACE_SIDE_STYLE ('',( #73 ) ) ;
#96 = DIMENSIONAL_EXPONENTS ( 1.000000000000000000, 0.000000000000000000, 0.000000000000000000, 0.000000000000000000, 0.000000000000000000, 0.000000000000000000, 0.000000000000000000 ) ;
#97 = ORIENTED_EDGE ( 'NONE', *, *, #55, .F. ) ;
#98 = EDGE_CURVE ( 'NONE', #247, #152, #185, .T. ) ;
#99 =( GEOMETRIC_REPRESENTATION_CONTEXT ( 3 ) GLOBAL_UNCERTAINTY_ASSIGNED_CONTEXT ( ( #221 ) ) GLOBAL_UNIT_ASSIGNED_CONTEXT ( ( #297, #157, #12 ) ) REPRESENTATION_CONTEXT ( 'NONE', 'WORKASPACE' ) );
#100 = DIRECTION ( 'NONE',  ( 9.742233209408326421E-17, -1.000000000000000000, 0.000000000000000000 ) ) ;
#101 = ADVANCED_BREP_SHAPE_REPRESENTATION ( '59808', ( #281, #287, #309 ), #122 ) ;
#102 = EDGE_CURVE ( 'NONE', #34, #180, #8, .T. ) ;
#103 = UNCERTAINTY_MEASURE_WITH_UNIT (LENGTH_MEASURE( 1.000000000000000082E-05 ), #66, 'distance_accuracy_value', 'NONE');
#104 = LINE ( 'NONE', #194, #23 ) ;
#105 = CARTESIAN_POINT ( 'NONE',  ( -0.1249999999999997641, 2.500000000000000000, 0.000000000000000000 ) ) ;
#106 = AXIS2_PLACEMENT_3D ( 'NONE', #119, #234, #238 ) ;
#107 = SURFACE_STYLE_FILL_AREA ( #171 ) ;
#108 = CARTESIAN_POINT ( 'NONE',  ( 2.994447232749139215E-16, 0.05484827557301410333, 0.000000000000000000 ) ) ;
#109 = ORIENTED_EDGE ( 'NONE', *, *, #147, .F. ) ;
#110 = FILL_AREA_STYLE_COLOUR ( '', #280 ) ;
#111 =( GEOMETRIC_REPRESENTATION_CONTEXT ( 3 ) GLOBAL_UNCERTAINTY_ASSIGNED_CONTEXT ( ( #103 ) ) GLOBAL_UNIT_ASSIGNED_CONTEXT ( ( #66, #243, #127 ) ) REPRESENTATION_CONTEXT ( 'NONE', 'WORKASPACE' ) );
#112 = ORIENTED_EDGE ( 'NONE', *, *, #241, .F. ) ;
#113 =( LENGTH_UNIT ( ) NAMED_UNIT ( * ) SI_UNIT ( $, .METRE. ) );
#114 =( GEOMETRIC_REPRESENTATION_CONTEXT ( 3 ) GLOBAL_UNCERTAINTY_ASSIGNED_CONTEXT ( ( #76 ) ) GLOBAL_UNIT_ASSIGNED_CONTEXT ( ( #205, #308, #232 ) ) REPRESENTATION_CONTEXT ( 'NONE', 'WORKASPACE' ) );
#115 = ORIENTED_EDGE ( 'NONE', *, *, #274, .T. ) ;
#116 = LENGTH_MEASURE_WITH_UNIT ( LENGTH_MEASURE( 0.02539999999999999897 ), #250 );
#117 = CIRCLE ( 'NONE', #293, 0.02999999999999999889 ) ;
#118 =( GEOMETRIC_REPRESENTATION_CONTEXT ( 3 ) GLOBAL_UNCERTAINTY_ASSIGNED_CONTEXT ( ( #292 ) ) GLOBAL_UNIT_ASSIGNED_CONTEXT ( ( #160, #78, #1 ) ) REPRESENTATION_CONTEXT ( 'NONE', 'WORKASPACE' ) );
#119 = CARTESIAN_POINT ( 'NONE',  ( 0.000000000000000000, 0.000000000000000000, 0.000000000000000000 ) ) ;
#120 = EDGE_CURVE ( 'NONE', #275, #41, #44, .T. ) ;
#121 = DIRECTION ( 'NONE',  ( 0.000000000000000000, 0.4999999999999979461, 0.8660254037844397068 ) ) ;
#122 =( GEOMETRIC_REPRESENTATION_CONTEXT ( 3 ) GLOBAL_UNCERTAINTY_ASSIGNED_CONTEXT ( ( #302 ) ) GLOBAL_UNIT_ASSIGNED_CONTEXT ( ( #35, #295, #290 ) ) REPRESENTATION_CONTEXT ( 'NONE', 'WORKASPACE' ) );
#123 = DIRECTION ( 'NONE',  ( 0.000000000000000000, 0.000000000000000000, -1.000000000000000000 ) ) ;
#124 = MECHANICAL_DESIGN_GEOMETRIC_PRESENTATION_REPRESENTATION (  '', ( #255 ), #114 ) ;
#125 = DIRECTION ( 'NONE',  ( 1.000000000000000000, 9.742233209408326421E-17, 0.000000000000000000 ) ) ;
#126 = CARTESIAN_POINT ( 'NONE',  ( 6.123233995736772199E-17, 2.500000000000000000, 0.000000000000000000 ) ) ;
#127 =( NAMED_UNIT ( * ) SI_UNIT ( $, .STERADIAN. ) SOLID_ANGLE_UNIT ( ) );
#128 = FACE_OUTER_BOUND ( 'NONE', #222, .T. ) ;
#129 = AXIS2_PLACEMENT_3D ( 'NONE', #29, #189, #276 ) ;
#130 = CARTESIAN_POINT ( 'NONE',  ( 0.000000000000000000, 0.05484827557301415191, 0.000000000000000000 ) ) ;
#131 = SURFACE_SIDE_STYLE ('',( #39 ) ) ;
#132 =( LENGTH_UNIT ( ) NAMED_UNIT ( * ) SI_UNIT ( $, .METRE. ) );
#133 = ORIENTED_EDGE ( 'NONE', *, *, #83, .F. ) ;
#134 = ORIENTED_EDGE ( 'NONE', *, *, #55, .T. ) ;
#135 = FILL_AREA_STYLE ('',( #110 ) ) ;
#136 = CIRCLE ( 'NONE', #191, 0.1249999999999996808 ) ;
#137 = CARTESIAN_POINT ( 'NONE',  ( -0.1249999999999999029, 2.500000000000000000, 0.000000000000000000 ) ) ;
#138 = EDGE_CURVE ( 'NONE', #180, #300, #142, .T. ) ;
#139 = SURFACE_STYLE_FILL_AREA ( #230 ) ;
#140 = FACE_OUTER_BOUND ( 'NONE', #217, .T. ) ;
#141 = PRESENTATION_LAYER_ASSIGNMENT (  '', '', ( #61 ) ) ;
#142 = CIRCLE ( 'NONE', #182, 0.1249999999999999584 ) ;
#143 = PRESENTATION_STYLE_ASSIGNMENT (( #21 ) ) ;
#144 = CYLINDRICAL_SURFACE ( 'NONE', #129, 0.1249999999999998335 ) ;
#145 = FILL_AREA_STYLE ('',( #33 ) ) ;
#146 =( CONVERSION_BASED_UNIT ( 'INCH', #210 ) LENGTH_UNIT ( ) NAMED_UNIT ( #48 ) );
#147 = EDGE_CURVE ( 'NONE', #152, #41, #104, .T. ) ;
#148 = DIRECTION ( 'NONE',  ( -1.000000000000000000, 0.000000000000000000, 0.000000000000000000 ) ) ;
#149 = COLOUR_RGB ( '',1.000000000000000000, 0.000000000000000000, 0.000000000000000000 ) ;
#150 = DIRECTION ( 'NONE',  ( 0.000000000000000000, 0.000000000000000000, 1.000000000000000000 ) ) ;
#151 = ORIENTED_EDGE ( 'NONE', *, *, #138, .F. ) ;
#152 = VERTEX_POINT ( 'NONE', #5 ) ;
#153 = FILL_AREA_STYLE ('',( #269 ) ) ;
#154 = DIRECTION ( 'NONE',  ( -0.000000000000000000, -1.000000000000000000, -0.000000000000000000 ) ) ;
#155 = CONICAL_SURFACE ( 'NONE', #162, 0.02999999999999999889, 1.047197551196600074 ) ;
#156 = ORIENTED_EDGE ( 'NONE', *, *, #301, .T. ) ;
#157 =( NAMED_UNIT ( * ) PLANE_ANGLE_UNIT ( ) SI_UNIT ( $, .RADIAN. ) );
#158 = CYLINDRICAL_SURFACE ( 'NONE', #51, 0.1249999999999998335 ) ;
#159 = SURFACE_STYLE_USAGE ( .BOTH. , #95 ) ;
#160 =( CONVERSION_BASED_UNIT ( 'INCH', #258 ) LENGTH_UNIT ( ) NAMED_UNIT ( #251 ) );
#161 = CIRCLE ( 'NONE', #305, 0.1249999999999996808 ) ;
#162 = AXIS2_PLACEMENT_3D ( 'NONE', #15, #267, #273 ) ;
#163 = COLOUR_RGB ( '',1.000000000000000000, 0.000000000000000000, 0.000000000000000000 ) ;
#164 = CARTESIAN_POINT ( 'NONE',  ( 0.000000000000000000, 0.000000000000000000, 0.000000000000000000 ) ) ;
#165 = UNCERTAINTY_MEASURE_WITH_UNIT (LENGTH_MEASURE( 1.000000000000000082E-05 ), #209, 'distance_accuracy_value', 'NONE');
#166 = APPLICATION_PROTOCOL_DEFINITION ( 'draft international standard', 'automotive_design', 1998, #179 ) ;
#167 = FACE_OUTER_BOUND ( 'NONE', #14, .T. ) ;
#168 = COLOUR_RGB ( '',1.000000000000000000, 0.000000000000000000, 0.000000000000000000 ) ;
#169 = SHAPE_DEFINITION_REPRESENTATION ( #10, #101 ) ;
#170 = LINE ( 'NONE', #105, #212 ) ;
#171 = FILL_AREA_STYLE ('',( #246 ) ) ;
#172 = CARTESIAN_POINT ( 'NONE',  ( 0.000000000000000000, 0.000000000000000000, 0.000000000000000000 ) ) ;
#173 = DIRECTION ( 'NONE',  ( -1.000000000000000000, -6.829619984160675302E-17, 0.000000000000000000 ) ) ;
#174 = FACE_OUTER_BOUND ( 'NONE', #303, .T. ) ;
#175 = ADVANCED_FACE ( 'NONE', ( #167 ), #144, .T. ) ;
#176 = EDGE_LOOP ( 'NONE', ( #18, #201 ) ) ;
#177 = DIRECTION ( 'NONE',  ( -9.742233209408326421E-17, 1.000000000000000000, -0.000000000000000000 ) ) ;
#178 = PRODUCT_DEFINITION_CONTEXT ( 'detailed design', #50, 'design' ) ;
#179 = APPLICATION_CONTEXT ( 'automotive_design' ) ;
#180 = VERTEX_POINT ( 'NONE', #218 ) ;
#181 = COLOUR_RGB ( '',0.7921568627450980005, 0.8196078431372548767, 0.9333333333333333481 ) ;
#182 = AXIS2_PLACEMENT_3D ( 'NONE', #84, #63, #148 ) ;
#183 = LENGTH_MEASURE_WITH_UNIT ( LENGTH_MEASURE( 0.02539999999999999897 ), #25 );
#184 =( GEOMETRIC_REPRESENTATION_CONTEXT ( 3 ) GLOBAL_UNCERTAINTY_ASSIGNED_CONTEXT ( ( #165 ) ) GLOBAL_UNIT_ASSIGNED_CONTEXT ( ( #209, #207, #60 ) ) REPRESENTATION_CONTEXT ( 'NONE', 'WORKASPACE' ) );
#185 = CIRCLE ( 'NONE', #62, 0.02999999999999999889 ) ;
#186 = PRESENTATION_LAYER_ASSIGNMENT (  '', '', ( #19 ) ) ;
#187 = FILL_AREA_STYLE_COLOUR ( '', #181 ) ;
#188 = DIRECTION ( 'NONE',  ( 0.000000000000000000, -1.000000000000000000, -0.000000000000000000 ) ) ;
#189 = DIRECTION ( 'NONE',  ( -9.742233209408326421E-17, 1.000000000000000000, -0.000000000000000000 ) ) ;
#190 = SURFACE_STYLE_FILL_AREA ( #145 ) ;
#191 = AXIS2_PLACEMENT_3D ( 'NONE', #108, #177, #226 ) ;
#192 = DIRECTION ( 'NONE',  ( -0.000000000000000000, -1.000000000000000000, -0.000000000000000000 ) ) ;
#193 = DIRECTION ( 'NONE',  ( 1.000000000000000000, 0.000000000000000000, 0.000000000000000000 ) ) ;
#194 = CARTESIAN_POINT ( 'NONE',  ( 3.673940397442059190E-18, 0.000000000000000000, -0.02999999999999999889 ) ) ;
#195 = APPLICATION_PROTOCOL_DEFINITION ( 'draft international standard', 'automotive_design', 1998, #50 ) ;
#196 = ORIENTED_EDGE ( 'NONE', *, *, #83, .T. ) ;
#197 = ORIENTED_EDGE ( 'NONE', *, *, #59, .F. ) ;
#198 = PLANE ( 'NONE',  #22 ) ;
#199 = DIMENSIONAL_EXPONENTS ( 1.000000000000000000, 0.000000000000000000, 0.000000000000000000, 0.000000000000000000, 0.000000000000000000, 0.000000000000000000, 0.000000000000000000 ) ;
#200 = PRESENTATION_STYLE_ASSIGNMENT (( #13 ) ) ;
#201 = ORIENTED_EDGE ( 'NONE', *, *, #252, .F. ) ;
#202 = FACE_OUTER_BOUND ( 'NONE', #176, .T. ) ;
#203 = CARTESIAN_POINT ( 'NONE',  ( 2.994447232749139215E-16, 0.05484827557301410333, 0.000000000000000000 ) ) ;
#204 = PRESENTATION_STYLE_ASSIGNMENT (( #248 ) ) ;
#205 =( CONVERSION_BASED_UNIT ( 'INCH', #116 ) LENGTH_UNIT ( ) NAMED_UNIT ( #96 ) );
#206 = FILL_AREA_STYLE_COLOUR ( '', #81 ) ;
#207 =( NAMED_UNIT ( * ) PLANE_ANGLE_UNIT ( ) SI_UNIT ( $, .RADIAN. ) );
#208 = DIRECTION ( 'NONE',  ( -1.000000000000000000, 0.000000000000000000, 0.000000000000000000 ) ) ;
#209 =( CONVERSION_BASED_UNIT ( 'INCH', #183 ) LENGTH_UNIT ( ) NAMED_UNIT ( #71 ) );
#210 = LENGTH_MEASURE_WITH_UNIT ( LENGTH_MEASURE( 0.02539999999999999897 ), #26 );
#211 = DIRECTION ( 'NONE',  ( -0.000000000000000000, -1.000000000000000000, -0.000000000000000000 ) ) ;
#212 = VECTOR ( 'NONE', #298, 39.37007874015748143 ) ;
#213 = DIRECTION ( 'NONE',  ( -9.742233209408326421E-17, 1.000000000000000000, -0.000000000000000000 ) ) ;
#214 = ADVANCED_FACE ( 'NONE', ( #174 ), #155, .T. ) ;
#215 = CARTESIAN_POINT ( 'NONE',  ( 0.000000000000000000, 0.000000000000000000, 0.000000000000000000 ) ) ;
#216 = DIRECTION ( 'NONE',  ( -1.000000000000000000, 0.000000000000000000, 0.000000000000000000 ) ) ;
#217 = EDGE_LOOP ( 'NONE', ( #272, #245, #74, #133 ) ) ;
#218 = CARTESIAN_POINT ( 'NONE',  ( 0.1250000000000000278, 2.500000000000000000, 1.530808498934190276E-17 ) ) ;
#219 = PRESENTATION_LAYER_ASSIGNMENT (  '', '', ( #266 ) ) ;
#220 = ORIENTED_EDGE ( 'NONE', *, *, #98, .F. ) ;
#221 = UNCERTAINTY_MEASURE_WITH_UNIT (LENGTH_MEASURE( 1.000000000000000082E-05 ), #297, 'distance_accuracy_value', 'NONE');
#222 = EDGE_LOOP ( 'NONE', ( #239, #306, #36, #97 ) ) ;
#223 = CARTESIAN_POINT ( 'NONE',  ( 0.000000000000000000, 0.05484827557301415885, 0.000000000000000000 ) ) ;
#224 = ORIENTED_EDGE ( 'NONE', *, *, #120, .T. ) ;
#225 = VECTOR ( 'NONE', #213, 39.37007874015748143 ) ;
#226 = DIRECTION ( 'NONE',  ( -1.000000000000000000, -6.829619984160675302E-17, 0.000000000000000000 ) ) ;
#227 = FACE_OUTER_BOUND ( 'NONE', #70, .T. ) ;
#228 = DIMENSIONAL_EXPONENTS ( 1.000000000000000000, 0.000000000000000000, 0.000000000000000000, 0.000000000000000000, 0.000000000000000000, 0.000000000000000000, 0.000000000000000000 ) ;
#229 = STYLED_ITEM ( 'NONE', ( #204 ), #214 ) ;
#230 = FILL_AREA_STYLE ('',( #187 ) ) ;
#231 = PLANE ( 'NONE',  #56 ) ;
#232 =( NAMED_UNIT ( * ) SI_UNIT ( $, .STERADIAN. ) SOLID_ANGLE_UNIT ( ) );
#233 = PRESENTATION_STYLE_ASSIGNMENT (( #52 ) ) ;
#234 = DIRECTION ( 'NONE',  ( 0.000000000000000000, 1.000000000000000000, 0.000000000000000000 ) ) ;
#235 = CARTESIAN_POINT ( 'NONE',  ( 2.994447232749139215E-16, 0.05484827557301415191, 0.000000000000000000 ) ) ;
#236 = DIRECTION ( 'NONE',  ( -0.000000000000000000, -1.000000000000000000, -0.000000000000000000 ) ) ;
#237 = SURFACE_STYLE_USAGE ( .BOTH. , #54 ) ;
#238 = DIRECTION ( 'NONE',  ( 0.000000000000000000, 0.000000000000000000, 1.000000000000000000 ) ) ;
#239 = ORIENTED_EDGE ( 'NONE', *, *, #241, .T. ) ;
#240 = CARTESIAN_POINT ( 'NONE',  ( 0.000000000000000000, 0.000000000000000000, 0.02999999999999999889 ) ) ;
#241 = EDGE_CURVE ( 'NONE', #296, #34, #136, .T. ) ;
#242 = EDGE_LOOP ( 'NONE', ( #115, #278 ) ) ;
#243 =( NAMED_UNIT ( * ) PLANE_ANGLE_UNIT ( ) SI_UNIT ( $, .RADIAN. ) );
#244 = MECHANICAL_DESIGN_GEOMETRIC_PRESENTATION_REPRESENTATION (  '', ( #77 ), #118 ) ;
#245 = ORIENTED_EDGE ( 'NONE', *, *, #147, .T. ) ;
#246 = FILL_AREA_STYLE_COLOUR ( '', #163 ) ;
#247 = VERTEX_POINT ( 'NONE', #240 ) ;
#248 = SURFACE_STYLE_USAGE ( .BOTH. , #42 ) ;
#249 = ORIENTED_EDGE ( 'NONE', *, *, #102, .F. ) ;
#250 =( LENGTH_UNIT ( ) NAMED_UNIT ( * ) SI_UNIT ( $, .METRE. ) );
#251 = DIMENSIONAL_EXPONENTS ( 1.000000000000000000, 0.000000000000000000, 0.000000000000000000, 0.000000000000000000, 0.000000000000000000, 0.000000000000000000, 0.000000000000000000 ) ;
#252 = EDGE_CURVE ( 'NONE', #41, #275, #72, .T. ) ;
#253 = DIMENSIONAL_EXPONENTS ( 1.000000000000000000, 0.000000000000000000, 0.000000000000000000, 0.000000000000000000, 0.000000000000000000, 0.000000000000000000, 0.000000000000000000 ) ;
#254 = MECHANICAL_DESIGN_GEOMETRIC_PRESENTATION_REPRESENTATION (  '', ( #229 ), #99 ) ;
#255 = STYLED_ITEM ( 'NONE', ( #200 ), #64 ) ;
#256 = CARTESIAN_POINT ( 'NONE',  ( 6.123233995736772199E-17, 2.500000000000000000, 0.000000000000000000 ) ) ;
#257 = SURFACE_SIDE_STYLE ('',( #285 ) ) ;
#258 = LENGTH_MEASURE_WITH_UNIT ( LENGTH_MEASURE( 0.02539999999999999897 ), #79 );
#259 = AXIS2_PLACEMENT_3D ( 'NONE', #256, #24, #208 ) ;
#260 =( NAMED_UNIT ( * ) PLANE_ANGLE_UNIT ( ) SI_UNIT ( $, .RADIAN. ) );
#261 = CARTESIAN_POINT ( 'NONE',  ( 0.000000000000000000, 0.000000000000000000, 0.02999999999999999889 ) ) ;
#262 = FACE_OUTER_BOUND ( 'NONE', #242, .T. ) ;
#263 = UNCERTAINTY_MEASURE_WITH_UNIT (LENGTH_MEASURE( 1.000000000000000082E-05 ), #146, 'distance_accuracy_value', 'NONE');
#264 = ADVANCED_FACE ( 'NONE', ( #202 ), #198, .T. ) ;
#265 =( NAMED_UNIT ( * ) SI_UNIT ( $, .STERADIAN. ) SOLID_ANGLE_UNIT ( ) );
#266 = STYLED_ITEM ( 'NONE', ( #304 ), #264 ) ;
#267 = DIRECTION ( 'NONE',  ( 0.000000000000000000, 1.000000000000000000, 0.000000000000000000 ) ) ;
#268 = FACE_OUTER_BOUND ( 'NONE', #67, .T. ) ;
#269 = FILL_AREA_STYLE_COLOUR ( '', #168 ) ;
#270 = MECHANICAL_DESIGN_GEOMETRIC_PRESENTATION_REPRESENTATION (  '', ( #61 ), #184 ) ;
#271 = CONICAL_SURFACE ( 'NONE', #106, 0.02999999999999999889, 1.047197551196600074 ) ;
#272 = ORIENTED_EDGE ( 'NONE', *, *, #301, .F. ) ;
#273 = DIRECTION ( 'NONE',  ( 0.000000000000000000, 0.000000000000000000, 1.000000000000000000 ) ) ;
#274 = EDGE_CURVE ( 'NONE', #300, #180, #16, .T. ) ;
#275 = VERTEX_POINT ( 'NONE', #53 ) ;
#276 = DIRECTION ( 'NONE',  ( -1.000000000000000000, 0.000000000000000000, 0.000000000000000000 ) ) ;
#277 = PRODUCT_RELATED_PRODUCT_CATEGORY ( 'part', '', ( #286 ) ) ;
#278 = ORIENTED_EDGE ( 'NONE', *, *, #138, .T. ) ;
#279 =( GEOMETRIC_REPRESENTATION_CONTEXT ( 3 ) GLOBAL_UNCERTAINTY_ASSIGNED_CONTEXT ( ( #263 ) ) GLOBAL_UNIT_ASSIGNED_CONTEXT ( ( #146, #260, #265 ) ) REPRESENTATION_CONTEXT ( 'NONE', 'WORKASPACE' ) );
#280 = COLOUR_RGB ( '',1.000000000000000000, 0.000000000000000000, 0.000000000000000000 ) ;
#281 = MANIFOLD_SOLID_BREP ( 'Revolve - Cutting Edge', #46 ) ;
#282 = ADVANCED_FACE ( 'NONE', ( #227 ), #231, .F. ) ;
#283 = AXIS2_PLACEMENT_3D ( 'NONE', #164, #188, #123 ) ;
#284 = DIRECTION ( 'NONE',  ( -1.000000000000000000, -9.742233209408326421E-17, 0.000000000000000000 ) ) ;
#285 = SURFACE_STYLE_FILL_AREA ( #28 ) ;
#286 = PRODUCT ( '59808', '59808', '', ( #7 ) ) ;
#287 = MANIFOLD_SOLID_BREP ( 'Revolve - Tool Body (Tipped Off)', #2 ) ;
#288 = PRESENTATION_STYLE_ASSIGNMENT (( #237 ) ) ;
#289 = LINE ( 'NONE', #261, #93 ) ;
#290 =( NAMED_UNIT ( * ) SI_UNIT ( $, .STERADIAN. ) SOLID_ANGLE_UNIT ( ) );
#291 = DIRECTION ( 'NONE',  ( 0.000000000000000000, 0.000000000000000000, -1.000000000000000000 ) ) ;
#292 = UNCERTAINTY_MEASURE_WITH_UNIT (LENGTH_MEASURE( 1.000000000000000082E-05 ), #160, 'distance_accuracy_value', 'NONE');
#293 = AXIS2_PLACEMENT_3D ( 'NONE', #57, #211, #6 ) ;
#294 = AXIS2_PLACEMENT_3D ( 'NONE', #80, #192, #291 ) ;
#295 =( NAMED_UNIT ( * ) PLANE_ANGLE_UNIT ( ) SI_UNIT ( $, .RADIAN. ) );
#296 = VERTEX_POINT ( 'NONE', #30 ) ;
#297 =( CONVERSION_BASED_UNIT ( 'INCH', #90 ) LENGTH_UNIT ( ) NAMED_UNIT ( #228 ) );
#298 = DIRECTION ( 'NONE',  ( -9.742233209408326421E-17, 1.000000000000000000, -0.000000000000000000 ) ) ;
#299 = DIRECTION ( 'NONE',  ( 0.000000000000000000, 1.000000000000000000, 0.000000000000000000 ) ) ;
#300 = VERTEX_POINT ( 'NONE', #137 ) ;
#301 = EDGE_CURVE ( 'NONE', #152, #247, #117, .T. ) ;
#302 = UNCERTAINTY_MEASURE_WITH_UNIT (LENGTH_MEASURE( 1.000000000000000082E-05 ), #35, 'distance_accuracy_value', 'NONE');
#303 = EDGE_LOOP ( 'NONE', ( #109, #220, #196, #224 ) ) ;
#304 = PRESENTATION_STYLE_ASSIGNMENT (( #159 ) ) ;
#305 = AXIS2_PLACEMENT_3D ( 'NONE', #203, #9, #173 ) ;
#306 = ORIENTED_EDGE ( 'NONE', *, *, #102, .T. ) ;
#307 = LENGTH_MEASURE_WITH_UNIT ( LENGTH_MEASURE( 0.02539999999999999897 ), #132 );
#308 =( NAMED_UNIT ( * ) PLANE_ANGLE_UNIT ( ) SI_UNIT ( $, .RADIAN. ) );
#309 = AXIS2_PLACEMENT_3D ( 'NONE', #172, #150, #193 ) ;
ENDSEC;
END-ISO-10303-21;
