ISO-10303-21;
HEADER;
FILE_DESCRIPTION (( 'STEP AP214' ),
    '1' );
FILE_NAME ('Micro_KC-125-190-062X.STEP',
    '2021-09-03T19:10:07',
    ( '' ),
    ( '' ),
    'SwSTEP 2.0',
    'SolidWorks 2020',
    '' );
FILE_SCHEMA (( 'AUTOMOTIVE_DESIGN' ));
ENDSEC;

DATA;
#1 = DIRECTION ( 'NONE',  ( 0.0000000000000000000, 0.0000000000000000000, 1.000000000000000000 ) ) ;
#2 = ORIENTED_EDGE ( 'NONE', *, *, #142, .T. ) ;
#3 = VECTOR ( 'NONE', #369, 39.37007874015748143 ) ;
#4 = CARTESIAN_POINT ( 'NONE',  ( 0.0000000000000000000, 0.0000000000000000000, 0.06199999999999999956 ) ) ;
#5 = EDGE_CURVE ( 'NONE', #207, #338, #177, .T. ) ;
#6 = CARTESIAN_POINT ( 'NONE',  ( 0.06250000000000001388, 7.654042494670957545E-18, 0.06199999999999999956 ) ) ;
#7 = FACE_OUTER_BOUND ( 'NONE', #28, .T. ) ;
#8 = SURFACE_STYLE_USAGE ( .BOTH. , #180 ) ;
#9 = CIRCLE ( 'NONE', #281, 0.06250000000000000000 ) ;
#10 = ADVANCED_FACE ( 'NONE', ( #172 ), #310, .T. ) ;
#11 = DIRECTION ( 'NONE',  ( -0.0000000000000000000, -0.0000000000000000000, -1.000000000000000000 ) ) ;
#12 = CARTESIAN_POINT ( 'NONE',  ( 0.06250000000000001388, 0.0000000000000000000, 0.06199999999999999956 ) ) ;
#13 = PRODUCT_DEFINITION_FORMATION_WITH_SPECIFIED_SOURCE ( 'ANY', '', #187, .NOT_KNOWN. ) ;
#14 = CIRCLE ( 'NONE', #138, 0.03100000000000001713 ) ;
#15 = CIRCLE ( 'NONE', #225, 0.06250000000000001388 ) ;
#16 = EDGE_CURVE ( 'NONE', #97, #377, #373, .T. ) ;
#17 = PRODUCT_DEFINITION_SHAPE ( 'NONE', 'NONE',  #160 ) ;
#18 = LINE ( 'NONE', #191, #278 ) ;
#19 = AXIS2_PLACEMENT_3D ( 'NONE', #102, #67, #96 ) ;
#20 = CARTESIAN_POINT ( 'NONE',  ( -0.06250000000000000000, 0.0000000000000000000, 0.2214999999999998359 ) ) ;
#21 = DIRECTION ( 'NONE',  ( 0.0000000000000000000, 0.0000000000000000000, 1.000000000000000000 ) ) ;
#22 = ORIENTED_EDGE ( 'NONE', *, *, #16, .T. ) ;
#23 = EDGE_LOOP ( 'NONE', ( #379, #263, #113, #84 ) ) ;
#24 = ORIENTED_EDGE ( 'NONE', *, *, #339, .F. ) ;
#25 = DIRECTION ( 'NONE',  ( -1.000000000000000000, 0.0000000000000000000, 0.0000000000000000000 ) ) ;
#26 = AXIS2_PLACEMENT_3D ( 'NONE', #220, #305, #335 ) ;
#27 = DIRECTION ( 'NONE',  ( 1.000000000000000000, 0.0000000000000000000, 0.0000000000000000000 ) ) ;
#28 = EDGE_LOOP ( 'NONE', ( #266, #210, #283, #179 ) ) ;
#29 = VECTOR ( 'NONE', #321, 39.37007874015748143 ) ;
#30 =( LENGTH_UNIT ( ) NAMED_UNIT ( * ) SI_UNIT ( $, .METRE. ) );
#31 = DIRECTION ( 'NONE',  ( -1.000000000000000000, 0.0000000000000000000, 0.0000000000000000000 ) ) ;
#32 = ORIENTED_EDGE ( 'NONE', *, *, #276, .T. ) ;
#33 = CARTESIAN_POINT ( 'NONE',  ( 0.0000000000000000000, 0.0000000000000000000, 0.0000000000000000000 ) ) ;
#34 = CARTESIAN_POINT ( 'NONE',  ( 0.06250000000000000000, 7.654042494670956004E-18, 0.0000000000000000000 ) ) ;
#35 = EDGE_LOOP ( 'NONE', ( #137, #32, #290, #165 ) ) ;
#36 = DIRECTION ( 'NONE',  ( 1.000000000000000000, 0.0000000000000000000, 0.0000000000000000000 ) ) ;
#37 = DIRECTION ( 'NONE',  ( -0.0000000000000000000, -0.0000000000000000000, -1.000000000000000000 ) ) ;
#38 = ADVANCED_FACE ( 'NONE', ( #223 ), #318, .T. ) ;
#39 = AXIS2_PLACEMENT_3D ( 'NONE', #348, #118, #58 ) ;
#40 = AXIS2_PLACEMENT_3D ( 'NONE', #33, #238, #127 ) ;
#41 = DIMENSIONAL_EXPONENTS ( 1.000000000000000000, 0.0000000000000000000, 0.0000000000000000000, 0.0000000000000000000, 0.0000000000000000000, 0.0000000000000000000, 0.0000000000000000000 ) ;
#42 = DIRECTION ( 'NONE',  ( -0.0000000000000000000, -0.0000000000000000000, -1.000000000000000000 ) ) ;
#43 = SURFACE_STYLE_FILL_AREA ( #101 ) ;
#44 = CARTESIAN_POINT ( 'NONE',  ( 0.0000000000000000000, 0.0000000000000000000, 0.0000000000000000000 ) ) ;
#45 = EDGE_CURVE ( 'NONE', #372, #173, #346, .T. ) ;
#46 = CIRCLE ( 'NONE', #105, 0.03100000000000001713 ) ;
#47 = FACE_BOUND ( 'NONE', #68, .T. ) ;
#48 = EDGE_CURVE ( 'NONE', #229, #163, #150, .T. ) ;
#49 = CIRCLE ( 'NONE', #74, 0.06250000000000000000 ) ;
#50 = ADVANCED_FACE ( 'NONE', ( #136 ), #203, .T. ) ;
#51 = ORIENTED_EDGE ( 'NONE', *, *, #211, .F. ) ;
#52 = DIRECTION ( 'NONE',  ( -0.0000000000000000000, -0.0000000000000000000, -1.000000000000000000 ) ) ;
#53 = CARTESIAN_POINT ( 'NONE',  ( 0.0000000000000000000, 0.0000000000000000000, 1.500000000000000222 ) ) ;
#54 = CONICAL_SURFACE ( 'NONE', #188, 0.04750000000000064587, 0.7853981633974457255 ) ;
#55 = CARTESIAN_POINT ( 'NONE',  ( -0.03100000000000001713, 5.725223786013877433E-18, 0.1899999999999999745 ) ) ;
#56 = EDGE_CURVE ( 'NONE', #61, #315, #60, .T. ) ;
#57 = ORIENTED_EDGE ( 'NONE', *, *, #78, .T. ) ;
#58 = DIRECTION ( 'NONE',  ( 1.000000000000000000, 0.0000000000000000000, -0.0000000000000000000 ) ) ;
#59 = EDGE_LOOP ( 'NONE', ( #371, #232 ) ) ;
#60 = LINE ( 'NONE', #190, #103 ) ;
#61 = VERTEX_POINT ( 'NONE', #79 ) ;
#62 = AXIS2_PLACEMENT_3D ( 'NONE', #234, #264, #36 ) ;
#63 = EDGE_CURVE ( 'NONE', #372, #90, #14, .T. ) ;
#64 = ADVANCED_FACE ( 'NONE', ( #198 ), #93, .T. ) ;
#65 = FACE_OUTER_BOUND ( 'NONE', #59, .T. ) ;
#66 = ORIENTED_EDGE ( 'NONE', *, *, #375, .T. ) ;
#67 = DIRECTION ( 'NONE',  ( 0.0000000000000000000, 0.0000000000000000000, 1.000000000000000000 ) ) ;
#68 = EDGE_LOOP ( 'NONE', ( #66, #231 ) ) ;
#69 = CARTESIAN_POINT ( 'NONE',  ( 0.0000000000000000000, 0.0000000000000000000, 1.500000000000000222 ) ) ;
#70 = AXIS2_PLACEMENT_3D ( 'NONE', #44, #1, #157 ) ;
#71 = CARTESIAN_POINT ( 'NONE',  ( -0.03100000000000000672, 0.0000000000000000000, 0.06199999999999999956 ) ) ;
#72 = VECTOR ( 'NONE', #164, 39.37007874015748143 ) ;
#73 = ADVANCED_FACE ( 'NONE', ( #116 ), #370, .T. ) ;
#74 = AXIS2_PLACEMENT_3D ( 'NONE', #240, #185, #301 ) ;
#75 = EDGE_CURVE ( 'NONE', #326, #97, #201, .T. ) ;
#76 = CARTESIAN_POINT ( 'NONE',  ( -0.06250000000000000000, 0.0000000000000000000, 0.0000000000000000000 ) ) ;
#77 = AXIS2_PLACEMENT_3D ( 'NONE', #69, #300, #292 ) ;
#78 = EDGE_CURVE ( 'NONE', #293, #207, #110, .T. ) ;
#79 = CARTESIAN_POINT ( 'NONE',  ( 0.04750000000000064587, 6.735557395310482421E-18, 1.500000000000000222 ) ) ;
#80 = CARTESIAN_POINT ( 'NONE',  ( 0.0000000000000000000, 0.0000000000000000000, 0.1899999999999999745 ) ) ;
#81 = DIRECTION ( 'NONE',  ( 0.0000000000000000000, 0.0000000000000000000, 1.000000000000000000 ) ) ;
#82 = VECTOR ( 'NONE', #378, 39.37007874015748143 ) ;
#83 = CARTESIAN_POINT ( 'NONE',  ( 0.0000000000000000000, 0.0000000000000000000, 0.0000000000000000000 ) ) ;
#84 = ORIENTED_EDGE ( 'NONE', *, *, #275, .T. ) ;
#85 =( NAMED_UNIT ( * ) PLANE_ANGLE_UNIT ( ) SI_UNIT ( $, .RADIAN. ) );
#86 = DIRECTION ( 'NONE',  ( -1.000000000000000000, 0.0000000000000000000, 0.0000000000000000000 ) ) ;
#87 = EDGE_CURVE ( 'NONE', #90, #163, #280, .T. ) ;
#88 = EDGE_LOOP ( 'NONE', ( #354, #2 ) ) ;
#89 = DIRECTION ( 'NONE',  ( -0.0000000000000000000, -0.0000000000000000000, -1.000000000000000000 ) ) ;
#90 = VERTEX_POINT ( 'NONE', #55 ) ;
#91 =( NAMED_UNIT ( * ) SI_UNIT ( $, .STERADIAN. ) SOLID_ANGLE_UNIT ( ) );
#92 = CYLINDRICAL_SURFACE ( 'NONE', #193, 0.06250000000000000000 ) ;
#93 = CONICAL_SURFACE ( 'NONE', #192, 0.03100000000000001713, 0.7853981633974502774 ) ;
#94 = EDGE_LOOP ( 'NONE', ( #237, #374, #22, #200 ) ) ;
#95 = LENGTH_MEASURE_WITH_UNIT ( LENGTH_MEASURE( 0.02539999999999999897 ), #174 );
#96 = DIRECTION ( 'NONE',  ( 1.000000000000000000, 0.0000000000000000000, -0.0000000000000000000 ) ) ;
#97 = VERTEX_POINT ( 'NONE', #108 ) ;
#98 = CARTESIAN_POINT ( 'NONE',  ( 0.06250000000000000000, 7.654042494670956004E-18, 1.485000000000000764 ) ) ;
#99 = DIRECTION ( 'NONE',  ( -0.0000000000000000000, -0.0000000000000000000, -1.000000000000000000 ) ) ;
#100 = EDGE_CURVE ( 'NONE', #233, #338, #18, .T. ) ;
#101 = FILL_AREA_STYLE ('',( #158 ) ) ;
#102 = CARTESIAN_POINT ( 'NONE',  ( 0.0000000000000000000, 0.0000000000000000000, 0.0000000000000000000 ) ) ;
#103 = VECTOR ( 'NONE', #282, 39.37007874015748143 ) ;
#104 =( GEOMETRIC_REPRESENTATION_CONTEXT ( 3 ) GLOBAL_UNCERTAINTY_ASSIGNED_CONTEXT ( ( #148 ) ) GLOBAL_UNIT_ASSIGNED_CONTEXT ( ( #313, #166, #91 ) ) REPRESENTATION_CONTEXT ( 'NONE', 'WORKASPACE' ) );
#105 = AXIS2_PLACEMENT_3D ( 'NONE', #155, #99, #184 ) ;
#106 = AXIS2_PLACEMENT_3D ( 'NONE', #4, #42, #355 ) ;
#107 =( NAMED_UNIT ( * ) SI_UNIT ( $, .STERADIAN. ) SOLID_ANGLE_UNIT ( ) );
#108 = CARTESIAN_POINT ( 'NONE',  ( -0.06250000000000000000, 0.0000000000000000000, 1.485000000000000764 ) ) ;
#109 = FILL_AREA_STYLE ('',( #252 ) ) ;
#110 = LINE ( 'NONE', #314, #82 ) ;
#111 = ORIENTED_EDGE ( 'NONE', *, *, #285, .T. ) ;
#112 = FACE_OUTER_BOUND ( 'NONE', #287, .T. ) ;
#113 = ORIENTED_EDGE ( 'NONE', *, *, #45, .T. ) ;
#114 = APPLICATION_CONTEXT ( 'automotive_design' ) ;
#115 = UNCERTAINTY_MEASURE_WITH_UNIT (LENGTH_MEASURE( 1.000000000000000082E-05 ), #208, 'distance_accuracy_value', 'NONE');
#116 = FACE_OUTER_BOUND ( 'NONE', #94, .T. ) ;
#117 = ORIENTED_EDGE ( 'NONE', *, *, #272, .T. ) ;
#118 = DIRECTION ( 'NONE',  ( 0.0000000000000000000, 0.0000000000000000000, 1.000000000000000000 ) ) ;
#119 = ADVANCED_FACE ( 'NONE', ( #112 ), #212, .T. ) ;
#120 = EDGE_LOOP ( 'NONE', ( #122, #117, #167, #170 ) ) ;
#121 = CYLINDRICAL_SURFACE ( 'NONE', #297, 0.06250000000000000000 ) ;
#122 = ORIENTED_EDGE ( 'NONE', *, *, #78, .F. ) ;
#123 = MECHANICAL_DESIGN_GEOMETRIC_PRESENTATION_REPRESENTATION (  '', ( #139 ), #296 ) ;
#124 = CYLINDRICAL_SURFACE ( 'NONE', #40, 0.03100000000000001019 ) ;
#125 = CARTESIAN_POINT ( 'NONE',  ( 0.0000000000000000000, 0.0000000000000000000, 1.500000000000000222 ) ) ;
#126 = DIRECTION ( 'NONE',  ( -0.0000000000000000000, -0.0000000000000000000, -1.000000000000000000 ) ) ;
#127 = DIRECTION ( 'NONE',  ( -1.000000000000000000, 0.0000000000000000000, 0.0000000000000000000 ) ) ;
#128 = ADVANCED_FACE ( 'NONE', ( #7 ), #54, .T. ) ;
#129 = ADVANCED_FACE ( 'NONE', ( #146 ), #121, .T. ) ;
#130 = COLOUR_RGB ( '',0.7921568627450980005, 0.8196078431372548767, 0.9333333333333333481 ) ;
#131 = CYLINDRICAL_SURFACE ( 'NONE', #274, 0.03100000000000001019 ) ;
#132 = AXIS2_PLACEMENT_3D ( 'NONE', #265, #299, #325 ) ;
#133 = CARTESIAN_POINT ( 'NONE',  ( 0.0000000000000000000, 0.0000000000000000000, 0.06199999999999999956 ) ) ;
#134 = EDGE_LOOP ( 'NONE', ( #202, #351, #141, #319 ) ) ;
#135 = CARTESIAN_POINT ( 'NONE',  ( 0.0000000000000000000, 0.0000000000000000000, 0.06199999999999999956 ) ) ;
#136 = FACE_OUTER_BOUND ( 'NONE', #147, .T. ) ;
#137 = ORIENTED_EDGE ( 'NONE', *, *, #221, .T. ) ;
#138 = AXIS2_PLACEMENT_3D ( 'NONE', #257, #89, #86 ) ;
#139 = STYLED_ITEM ( 'NONE', ( #337 ), #248 ) ;
#140 = CARTESIAN_POINT ( 'NONE',  ( 0.03100000000000001713, 0.0000000000000000000, 0.1899999999999999745 ) ) ;
#141 = ORIENTED_EDGE ( 'NONE', *, *, #87, .T. ) ;
#142 = EDGE_CURVE ( 'NONE', #61, #326, #171, .T. ) ;
#143 = CARTESIAN_POINT ( 'NONE',  ( 0.0000000000000000000, 0.0000000000000000000, 1.500000000000000222 ) ) ;
#144 = ORIENTED_EDGE ( 'NONE', *, *, #218, .F. ) ;
#145 = DIRECTION ( 'NONE',  ( 0.0000000000000000000, 0.0000000000000000000, -1.000000000000000000 ) ) ;
#146 = FACE_OUTER_BOUND ( 'NONE', #120, .T. ) ;
#147 = EDGE_LOOP ( 'NONE', ( #349, #51, #196, #284 ) ) ;
#148 = UNCERTAINTY_MEASURE_WITH_UNIT (LENGTH_MEASURE( 1.000000000000000082E-05 ), #313, 'distance_accuracy_value', 'NONE');
#149 = PRESENTATION_STYLE_ASSIGNMENT (( #8 ) ) ;
#150 = CIRCLE ( 'NONE', #366, 0.03100000000000000672 ) ;
#151 = DIRECTION ( 'NONE',  ( -0.7071067811865489050, 8.659560562354950115E-17, 0.7071067811865461294 ) ) ;
#152 = AXIS2_PLACEMENT_3D ( 'NONE', #286, #21, #230 ) ;
#153 = VECTOR ( 'NONE', #11, 39.37007874015748143 ) ;
#154 = CARTESIAN_POINT ( 'NONE',  ( 0.06250000000000000000, 7.654042494670956004E-18, 1.500000000000000222 ) ) ;
#155 = CARTESIAN_POINT ( 'NONE',  ( 0.0000000000000000000, 0.0000000000000000000, 0.1899999999999999745 ) ) ;
#156 = APPLICATION_CONTEXT ( 'automotive_design' ) ;
#157 = DIRECTION ( 'NONE',  ( 1.000000000000000000, 0.0000000000000000000, 0.0000000000000000000 ) ) ;
#158 = FILL_AREA_STYLE_COLOUR ( '', #130 ) ;
#159 = CIRCLE ( 'NONE', #329, 0.03100000000000000672 ) ;
#160 = PRODUCT_DEFINITION ( 'UNKNOWN', '', #13, #331 ) ;
#161 = DIRECTION ( 'NONE',  ( -0.0000000000000000000, -0.0000000000000000000, -1.000000000000000000 ) ) ;
#162 = FACE_OUTER_BOUND ( 'NONE', #35, .T. ) ;
#163 = VERTEX_POINT ( 'NONE', #71 ) ;
#164 = DIRECTION ( 'NONE',  ( 0.7071067811865489050, 0.0000000000000000000, 0.7071067811865461294 ) ) ;
#165 = ORIENTED_EDGE ( 'NONE', *, *, #87, .F. ) ;
#166 =( NAMED_UNIT ( * ) PLANE_ANGLE_UNIT ( ) SI_UNIT ( $, .RADIAN. ) );
#167 = ORIENTED_EDGE ( 'NONE', *, *, #100, .T. ) ;
#168 = ORIENTED_EDGE ( 'NONE', *, *, #45, .F. ) ;
#169 = DIRECTION ( 'NONE',  ( -1.000000000000000000, 0.0000000000000000000, 0.0000000000000000000 ) ) ;
#170 = ORIENTED_EDGE ( 'NONE', *, *, #226, .T. ) ;
#171 = CIRCLE ( 'NONE', #132, 0.04750000000000064587 ) ;
#172 = FACE_OUTER_BOUND ( 'NONE', #312, .T. ) ;
#173 = VERTEX_POINT ( 'NONE', #239 ) ;
#174 =( LENGTH_UNIT ( ) NAMED_UNIT ( * ) SI_UNIT ( $, .METRE. ) );
#175 = LINE ( 'NONE', #269, #311 ) ;
#176 = EDGE_LOOP ( 'NONE', ( #347, #57, #254, #342 ) ) ;
#177 = CIRCLE ( 'NONE', #306, 0.06250000000000000000 ) ;
#178 = CARTESIAN_POINT ( 'NONE',  ( 0.0000000000000000000, 0.0000000000000000000, 1.500000000000000222 ) ) ;
#179 = ORIENTED_EDGE ( 'NONE', *, *, #75, .F. ) ;
#180 = SURFACE_SIDE_STYLE ('',( #43 ) ) ;
#181 = CARTESIAN_POINT ( 'NONE',  ( 0.03100000000000000672, 3.796405077356796551E-18, 0.06199999999999999956 ) ) ;
#182 =( GEOMETRIC_REPRESENTATION_CONTEXT ( 3 ) GLOBAL_UNCERTAINTY_ASSIGNED_CONTEXT ( ( #115 ) ) GLOBAL_UNIT_ASSIGNED_CONTEXT ( ( #208, #267, #214 ) ) REPRESENTATION_CONTEXT ( 'NONE', 'WORKASPACE' ) );
#183 = DIRECTION ( 'NONE',  ( 1.000000000000000000, 0.0000000000000000000, 0.0000000000000000000 ) ) ;
#184 = DIRECTION ( 'NONE',  ( -1.000000000000000000, 0.0000000000000000000, 0.0000000000000000000 ) ) ;
#185 = DIRECTION ( 'NONE',  ( -0.0000000000000000000, -0.0000000000000000000, -1.000000000000000000 ) ) ;
#186 = CIRCLE ( 'NONE', #70, 0.06250000000000000000 ) ;
#187 = PRODUCT ( 'Micro_KC-125-190-062X', 'Micro_KC-125-190-062X', '', ( #333 ) ) ;
#188 = AXIS2_PLACEMENT_3D ( 'NONE', #178, #357, #323 ) ;
#189 = CARTESIAN_POINT ( 'NONE',  ( 0.0000000000000000000, 0.0000000000000000000, 0.0000000000000000000 ) ) ;
#190 = CARTESIAN_POINT ( 'NONE',  ( 0.04750000000000064587, 5.817072295950006528E-18, 1.500000000000000222 ) ) ;
#191 = CARTESIAN_POINT ( 'NONE',  ( -0.06250000000000000000, 0.0000000000000000000, 1.500000000000000222 ) ) ;
#192 = AXIS2_PLACEMENT_3D ( 'NONE', #80, #376, #250 ) ;
#193 = AXIS2_PLACEMENT_3D ( 'NONE', #125, #350, #236 ) ;
#194 =( CONVERSION_BASED_UNIT ( 'INCH', #340 ) LENGTH_UNIT ( ) NAMED_UNIT ( #197 ) );
#195 = DIRECTION ( 'NONE',  ( 0.0000000000000000000, 0.0000000000000000000, 1.000000000000000000 ) ) ;
#196 = ORIENTED_EDGE ( 'NONE', *, *, #75, .T. ) ;
#197 = DIMENSIONAL_EXPONENTS ( 1.000000000000000000, 0.0000000000000000000, 0.0000000000000000000, 0.0000000000000000000, 0.0000000000000000000, 0.0000000000000000000, 0.0000000000000000000 ) ;
#198 = FACE_OUTER_BOUND ( 'NONE', #23, .T. ) ;
#199 = ADVANCED_FACE ( 'NONE', ( #206 ), #92, .T. ) ;
#200 = ORIENTED_EDGE ( 'NONE', *, *, #275, .F. ) ;
#201 = LINE ( 'NONE', #262, #29 ) ;
#202 = ORIENTED_EDGE ( 'NONE', *, *, #276, .F. ) ;
#203 = CONICAL_SURFACE ( 'NONE', #358, 0.04750000000000064587, 0.7853981633974457255 ) ;
#204 = LINE ( 'NONE', #154, #361 ) ;
#205 = COLOUR_RGB ( '',0.7921568627450980005, 0.8196078431372548767, 0.9333333333333333481 ) ;
#206 = FACE_OUTER_BOUND ( 'NONE', #176, .T. ) ;
#207 = VERTEX_POINT ( 'NONE', #34 ) ;
#208 =( CONVERSION_BASED_UNIT ( 'INCH', #95 ) LENGTH_UNIT ( ) NAMED_UNIT ( #259 ) );
#209 = DIRECTION ( 'NONE',  ( 1.000000000000000000, 0.0000000000000000000, 0.0000000000000000000 ) ) ;
#210 = ORIENTED_EDGE ( 'NONE', *, *, #56, .T. ) ;
#211 = EDGE_CURVE ( 'NONE', #326, #61, #268, .T. ) ;
#212 = CYLINDRICAL_SURFACE ( 'NONE', #242, 0.06250000000000000000 ) ;
#213 = UNCERTAINTY_MEASURE_WITH_UNIT (LENGTH_MEASURE( 1.000000000000000082E-05 ), #194, 'distance_accuracy_value', 'NONE');
#214 =( NAMED_UNIT ( * ) SI_UNIT ( $, .STERADIAN. ) SOLID_ANGLE_UNIT ( ) );
#215 = DIRECTION ( 'NONE',  ( -1.000000000000000000, 0.0000000000000000000, 0.0000000000000000000 ) ) ;
#216 = CARTESIAN_POINT ( 'NONE',  ( 0.0000000000000000000, 0.0000000000000000000, 1.485000000000000764 ) ) ;
#217 = ADVANCED_FACE ( 'NONE', ( #65 ), #356, .F. ) ;
#218 = EDGE_CURVE ( 'NONE', #377, #173, #352, .T. ) ;
#219 = PRESENTATION_LAYER_ASSIGNMENT (  '', '', ( #343 ) ) ;
#220 = CARTESIAN_POINT ( 'NONE',  ( 0.0000000000000000000, 0.0000000000000000000, 0.0000000000000000000 ) ) ;
#221 = EDGE_CURVE ( 'NONE', #90, #372, #46, .T. ) ;
#222 = DIRECTION ( 'NONE',  ( 0.0000000000000000000, 0.0000000000000000000, -1.000000000000000000 ) ) ;
#223 = FACE_OUTER_BOUND ( 'NONE', #88, .T. ) ;
#224 = ORIENTED_EDGE ( 'NONE', *, *, #221, .F. ) ;
#225 = AXIS2_PLACEMENT_3D ( 'NONE', #298, #161, #279 ) ;
#226 = EDGE_CURVE ( 'NONE', #338, #207, #186, .T. ) ;
#227 = EDGE_LOOP ( 'NONE', ( #24, #324 ) ) ;
#228 = DIRECTION ( 'NONE',  ( -0.0000000000000000000, -0.0000000000000000000, -1.000000000000000000 ) ) ;
#229 = VERTEX_POINT ( 'NONE', #181 ) ;
#230 = DIRECTION ( 'NONE',  ( 1.000000000000000000, 0.0000000000000000000, 0.0000000000000000000 ) ) ;
#231 = ORIENTED_EDGE ( 'NONE', *, *, #48, .T. ) ;
#232 = ORIENTED_EDGE ( 'NONE', *, *, #5, .F. ) ;
#233 = VERTEX_POINT ( 'NONE', #273 ) ;
#234 = CARTESIAN_POINT ( 'NONE',  ( 0.0000000000000000000, 0.0000000000000000000, 1.485000000000000764 ) ) ;
#235 = CIRCLE ( 'NONE', #106, 0.06250000000000001388 ) ;
#236 = DIRECTION ( 'NONE',  ( -1.000000000000000000, 0.0000000000000000000, 0.0000000000000000000 ) ) ;
#237 = ORIENTED_EDGE ( 'NONE', *, *, #285, .F. ) ;
#238 = DIRECTION ( 'NONE',  ( -0.0000000000000000000, -0.0000000000000000000, -1.000000000000000000 ) ) ;
#239 = CARTESIAN_POINT ( 'NONE',  ( 0.06250000000000000000, 7.654042494670956004E-18, 0.2214999999999998359 ) ) ;
#240 = CARTESIAN_POINT ( 'NONE',  ( 0.0000000000000000000, 0.0000000000000000000, 0.2214999999999998359 ) ) ;
#241 = CARTESIAN_POINT ( 'NONE',  ( 0.0000000000000000000, 0.0000000000000000000, 0.2214999999999998359 ) ) ;
#242 = AXIS2_PLACEMENT_3D ( 'NONE', #295, #328, #215 ) ;
#243 = SHAPE_DEFINITION_REPRESENTATION ( #17, #248 ) ;
#244 = PRODUCT_RELATED_PRODUCT_CATEGORY ( 'part', '', ( #187 ) ) ;
#245 = PRESENTATION_LAYER_ASSIGNMENT (  '', '', ( #139 ) ) ;
#246 = CARTESIAN_POINT ( 'NONE',  ( 0.03100000000000001713, 0.0000000000000000000, 0.1899999999999999745 ) ) ;
#247 = CARTESIAN_POINT ( 'NONE',  ( -0.03100000000000001019, 0.0000000000000000000, 0.0000000000000000000 ) ) ;
#248 = ADVANCED_BREP_SHAPE_REPRESENTATION ( 'Micro_KC-125-190-062X', ( #330, #26 ), #104 ) ;
#249 = SURFACE_SIDE_STYLE ('',( #317 ) ) ;
#250 = DIRECTION ( 'NONE',  ( 1.000000000000000000, 0.0000000000000000000, 0.0000000000000000000 ) ) ;
#251 = ORIENTED_EDGE ( 'NONE', *, *, #260, .T. ) ;
#252 = FILL_AREA_STYLE_COLOUR ( '', #205 ) ;
#253 = DIRECTION ( 'NONE',  ( -0.0000000000000000000, -0.0000000000000000000, -1.000000000000000000 ) ) ;
#254 = ORIENTED_EDGE ( 'NONE', *, *, #5, .T. ) ;
#255 = VECTOR ( 'NONE', #289, 39.37007874015748143 ) ;
#256 = MECHANICAL_DESIGN_GEOMETRIC_PRESENTATION_REPRESENTATION (  '', ( #343 ), #182 ) ;
#257 = CARTESIAN_POINT ( 'NONE',  ( 0.0000000000000000000, 0.0000000000000000000, 0.1899999999999999745 ) ) ;
#258 = ORIENTED_EDGE ( 'NONE', *, *, #327, .T. ) ;
#259 = DIMENSIONAL_EXPONENTS ( 1.000000000000000000, 0.0000000000000000000, 0.0000000000000000000, 0.0000000000000000000, 0.0000000000000000000, 0.0000000000000000000, 0.0000000000000000000 ) ;
#260 = EDGE_CURVE ( 'NONE', #90, #377, #175, .T. ) ;
#261 = LENGTH_MEASURE_WITH_UNIT ( LENGTH_MEASURE( 0.02539999999999999897 ), #30 );
#262 = CARTESIAN_POINT ( 'NONE',  ( -0.04750000000000064587, 0.0000000000000000000, 1.500000000000000222 ) ) ;
#263 = ORIENTED_EDGE ( 'NONE', *, *, #63, .F. ) ;
#264 = DIRECTION ( 'NONE',  ( 0.0000000000000000000, 0.0000000000000000000, -1.000000000000000000 ) ) ;
#265 = CARTESIAN_POINT ( 'NONE',  ( 0.0000000000000000000, 0.0000000000000000000, 1.500000000000000222 ) ) ;
#266 = ORIENTED_EDGE ( 'NONE', *, *, #142, .F. ) ;
#267 =( NAMED_UNIT ( * ) PLANE_ANGLE_UNIT ( ) SI_UNIT ( $, .RADIAN. ) );
#268 = CIRCLE ( 'NONE', #77, 0.04750000000000064587 ) ;
#269 = CARTESIAN_POINT ( 'NONE',  ( -0.03100000000000001713, 3.796405077356796551E-18, 0.1899999999999999745 ) ) ;
#270 = LINE ( 'NONE', #294, #153 ) ;
#271 = DIRECTION ( 'NONE',  ( -1.000000000000000000, 0.0000000000000000000, 0.0000000000000000000 ) ) ;
#272 = EDGE_CURVE ( 'NONE', #293, #233, #235, .T. ) ;
#273 = CARTESIAN_POINT ( 'NONE',  ( -0.06250000000000001388, 0.0000000000000000000, 0.06199999999999999956 ) ) ;
#274 = AXIS2_PLACEMENT_3D ( 'NONE', #189, #303, #360 ) ;
#275 = EDGE_CURVE ( 'NONE', #173, #377, #49, .T. ) ;
#276 = EDGE_CURVE ( 'NONE', #372, #229, #270, .T. ) ;
#277 = FACE_OUTER_BOUND ( 'NONE', #227, .T. ) ;
#278 = VECTOR ( 'NONE', #253, 39.37007874015748143 ) ;
#279 = DIRECTION ( 'NONE',  ( -1.000000000000000000, 0.0000000000000000000, 0.0000000000000000000 ) ) ;
#280 = LINE ( 'NONE', #247, #3 ) ;
#281 = AXIS2_PLACEMENT_3D ( 'NONE', #216, #145, #183 ) ;
#282 = DIRECTION ( 'NONE',  ( 0.7071067811865456854, 8.659560562354911904E-17, -0.7071067811865493491 ) ) ;
#283 = ORIENTED_EDGE ( 'NONE', *, *, #327, .F. ) ;
#284 = ORIENTED_EDGE ( 'NONE', *, *, #302, .F. ) ;
#285 = EDGE_CURVE ( 'NONE', #315, #173, #204, .T. ) ;
#286 = CARTESIAN_POINT ( 'NONE',  ( 0.0000000000000000000, 0.0000000000000000000, 0.1899999999999999745 ) ) ;
#287 = EDGE_LOOP ( 'NONE', ( #258, #111, #144, #316 ) ) ;
#288 = AXIS2_PLACEMENT_3D ( 'NONE', #241, #37, #209 ) ;
#289 = DIRECTION ( 'NONE',  ( -0.0000000000000000000, -0.0000000000000000000, -1.000000000000000000 ) ) ;
#290 = ORIENTED_EDGE ( 'NONE', *, *, #375, .F. ) ;
#291 = DIRECTION ( 'NONE',  ( -0.0000000000000000000, -0.0000000000000000000, -1.000000000000000000 ) ) ;
#292 = DIRECTION ( 'NONE',  ( 1.000000000000000000, 0.0000000000000000000, 0.0000000000000000000 ) ) ;
#293 = VERTEX_POINT ( 'NONE', #6 ) ;
#294 = CARTESIAN_POINT ( 'NONE',  ( 0.03100000000000001019, 3.796405077356796551E-18, 0.0000000000000000000 ) ) ;
#295 = CARTESIAN_POINT ( 'NONE',  ( 0.0000000000000000000, 0.0000000000000000000, 1.500000000000000222 ) ) ;
#296 =( GEOMETRIC_REPRESENTATION_CONTEXT ( 3 ) GLOBAL_UNCERTAINTY_ASSIGNED_CONTEXT ( ( #213 ) ) GLOBAL_UNIT_ASSIGNED_CONTEXT ( ( #194, #85, #107 ) ) REPRESENTATION_CONTEXT ( 'NONE', 'WORKASPACE' ) );
#297 = AXIS2_PLACEMENT_3D ( 'NONE', #353, #126, #271 ) ;
#298 = CARTESIAN_POINT ( 'NONE',  ( 0.0000000000000000000, 0.0000000000000000000, 0.06199999999999999956 ) ) ;
#299 = DIRECTION ( 'NONE',  ( 0.0000000000000000000, 0.0000000000000000000, 1.000000000000000000 ) ) ;
#300 = DIRECTION ( 'NONE',  ( 0.0000000000000000000, 0.0000000000000000000, 1.000000000000000000 ) ) ;
#301 = DIRECTION ( 'NONE',  ( 1.000000000000000000, 0.0000000000000000000, 0.0000000000000000000 ) ) ;
#302 = EDGE_CURVE ( 'NONE', #315, #97, #363, .T. ) ;
#303 = DIRECTION ( 'NONE',  ( -0.0000000000000000000, -0.0000000000000000000, -1.000000000000000000 ) ) ;
#304 = ADVANCED_FACE ( 'NONE', ( #359 ), #124, .T. ) ;
#305 = DIRECTION ( 'NONE',  ( 0.0000000000000000000, 0.0000000000000000000, 1.000000000000000000 ) ) ;
#306 = AXIS2_PLACEMENT_3D ( 'NONE', #83, #195, #27 ) ;
#307 = DIRECTION ( 'NONE',  ( 1.000000000000000000, 0.0000000000000000000, -0.0000000000000000000 ) ) ;
#308 = DIRECTION ( 'NONE',  ( -0.0000000000000000000, -0.0000000000000000000, -1.000000000000000000 ) ) ;
#309 = CARTESIAN_POINT ( 'NONE',  ( -0.06250000000000000000, 0.0000000000000000000, 1.500000000000000222 ) ) ;
#310 = CONICAL_SURFACE ( 'NONE', #152, 0.03100000000000001713, 0.7853981633974502774 ) ;
#311 = VECTOR ( 'NONE', #151, 39.37007874015748143 ) ;
#312 = EDGE_LOOP ( 'NONE', ( #224, #251, #344, #168 ) ) ;
#313 =( CONVERSION_BASED_UNIT ( 'INCH', #261 ) LENGTH_UNIT ( ) NAMED_UNIT ( #41 ) );
#314 = CARTESIAN_POINT ( 'NONE',  ( 0.06250000000000000000, 7.654042494670956004E-18, 1.500000000000000222 ) ) ;
#315 = VERTEX_POINT ( 'NONE', #98 ) ;
#316 = ORIENTED_EDGE ( 'NONE', *, *, #16, .F. ) ;
#317 = SURFACE_STYLE_FILL_AREA ( #109 ) ;
#318 = PLANE ( 'NONE',  #39 ) ;
#319 = ORIENTED_EDGE ( 'NONE', *, *, #48, .F. ) ;
#320 =( LENGTH_UNIT ( ) NAMED_UNIT ( * ) SI_UNIT ( $, .METRE. ) );
#321 = DIRECTION ( 'NONE',  ( -0.7071067811865456854, 0.0000000000000000000, -0.7071067811865493491 ) ) ;
#322 = AXIS2_PLACEMENT_3D ( 'NONE', #12, #81, #307 ) ;
#323 = DIRECTION ( 'NONE',  ( -1.000000000000000000, 0.0000000000000000000, 0.0000000000000000000 ) ) ;
#324 = ORIENTED_EDGE ( 'NONE', *, *, #272, .F. ) ;
#325 = DIRECTION ( 'NONE',  ( 1.000000000000000000, 0.0000000000000000000, 0.0000000000000000000 ) ) ;
#326 = VERTEX_POINT ( 'NONE', #332 ) ;
#327 = EDGE_CURVE ( 'NONE', #97, #315, #9, .T. ) ;
#328 = DIRECTION ( 'NONE',  ( -0.0000000000000000000, -0.0000000000000000000, -1.000000000000000000 ) ) ;
#329 = AXIS2_PLACEMENT_3D ( 'NONE', #135, #52, #25 ) ;
#330 = MANIFOLD_SOLID_BREP ( 'Cut-Revolve1', #336 ) ;
#331 = PRODUCT_DEFINITION_CONTEXT ( 'detailed design', #114, 'design' ) ;
#332 = CARTESIAN_POINT ( 'NONE',  ( -0.04750000000000064587, 0.0000000000000000000, 1.500000000000000222 ) ) ;
#333 = PRODUCT_CONTEXT ( 'NONE', #156, 'mechanical' ) ;
#334 = AXIS2_PLACEMENT_3D ( 'NONE', #143, #228, #341 ) ;
#335 = DIRECTION ( 'NONE',  ( 1.000000000000000000, 0.0000000000000000000, 0.0000000000000000000 ) ) ;
#336 = CLOSED_SHELL ( 'NONE', ( #199, #365, #10, #128, #119, #73, #38, #50, #64, #304, #367, #217, #129 ) ) ;
#337 = PRESENTATION_STYLE_ASSIGNMENT (( #368 ) ) ;
#338 = VERTEX_POINT ( 'NONE', #76 ) ;
#339 = EDGE_CURVE ( 'NONE', #233, #293, #15, .T. ) ;
#340 = LENGTH_MEASURE_WITH_UNIT ( LENGTH_MEASURE( 0.02539999999999999897 ), #320 );
#341 = DIRECTION ( 'NONE',  ( -1.000000000000000000, 0.0000000000000000000, 0.0000000000000000000 ) ) ;
#342 = ORIENTED_EDGE ( 'NONE', *, *, #100, .F. ) ;
#343 = STYLED_ITEM ( 'NONE', ( #149 ), #330 ) ;
#344 = ORIENTED_EDGE ( 'NONE', *, *, #218, .T. ) ;
#345 = PLANE ( 'NONE',  #322 ) ;
#346 = LINE ( 'NONE', #140, #72 ) ;
#347 = ORIENTED_EDGE ( 'NONE', *, *, #339, .T. ) ;
#348 = CARTESIAN_POINT ( 'NONE',  ( 0.0000000000000000000, 0.0000000000000000000, 1.500000000000000222 ) ) ;
#349 = ORIENTED_EDGE ( 'NONE', *, *, #56, .F. ) ;
#350 = DIRECTION ( 'NONE',  ( -0.0000000000000000000, -0.0000000000000000000, -1.000000000000000000 ) ) ;
#351 = ORIENTED_EDGE ( 'NONE', *, *, #63, .T. ) ;
#352 = CIRCLE ( 'NONE', #288, 0.06250000000000000000 ) ;
#353 = CARTESIAN_POINT ( 'NONE',  ( 0.0000000000000000000, 0.0000000000000000000, 1.500000000000000222 ) ) ;
#354 = ORIENTED_EDGE ( 'NONE', *, *, #211, .T. ) ;
#355 = DIRECTION ( 'NONE',  ( -1.000000000000000000, 0.0000000000000000000, 0.0000000000000000000 ) ) ;
#356 = PLANE ( 'NONE',  #19 ) ;
#357 = DIRECTION ( 'NONE',  ( 0.0000000000000000000, 0.0000000000000000000, -1.000000000000000000 ) ) ;
#358 = AXIS2_PLACEMENT_3D ( 'NONE', #53, #222, #169 ) ;
#359 = FACE_OUTER_BOUND ( 'NONE', #134, .T. ) ;
#360 = DIRECTION ( 'NONE',  ( -1.000000000000000000, 0.0000000000000000000, 0.0000000000000000000 ) ) ;
#361 = VECTOR ( 'NONE', #291, 39.37007874015748143 ) ;
#362 = APPLICATION_PROTOCOL_DEFINITION ( 'draft international standard', 'automotive_design', 1998, #114 ) ;
#363 = CIRCLE ( 'NONE', #62, 0.06250000000000000000 ) ;
#364 = APPLICATION_PROTOCOL_DEFINITION ( 'draft international standard', 'automotive_design', 1998, #156 ) ;
#365 = ADVANCED_FACE ( 'NONE', ( #162 ), #131, .T. ) ;
#366 = AXIS2_PLACEMENT_3D ( 'NONE', #133, #308, #31 ) ;
#367 = ADVANCED_FACE ( 'NONE', ( #47, #277 ), #345, .T. ) ;
#368 = SURFACE_STYLE_USAGE ( .BOTH. , #249 ) ;
#369 = DIRECTION ( 'NONE',  ( -0.0000000000000000000, -0.0000000000000000000, -1.000000000000000000 ) ) ;
#370 = CYLINDRICAL_SURFACE ( 'NONE', #334, 0.06250000000000000000 ) ;
#371 = ORIENTED_EDGE ( 'NONE', *, *, #226, .F. ) ;
#372 = VERTEX_POINT ( 'NONE', #246 ) ;
#373 = LINE ( 'NONE', #309, #255 ) ;
#374 = ORIENTED_EDGE ( 'NONE', *, *, #302, .T. ) ;
#375 = EDGE_CURVE ( 'NONE', #163, #229, #159, .T. ) ;
#376 = DIRECTION ( 'NONE',  ( 0.0000000000000000000, 0.0000000000000000000, 1.000000000000000000 ) ) ;
#377 = VERTEX_POINT ( 'NONE', #20 ) ;
#378 = DIRECTION ( 'NONE',  ( -0.0000000000000000000, -0.0000000000000000000, -1.000000000000000000 ) ) ;
#379 = ORIENTED_EDGE ( 'NONE', *, *, #260, .F. ) ;
ENDSEC;
END-ISO-10303-21;
