ISO-10303-21;
HEADER;
FILE_DESCRIPTION (( 'STEP AP214' ),
    '1' );
FILE_NAME ('Micro_BEM-625-04X.STEP',
    '2021-09-03T13:17:29',
    ( '' ),
    ( '' ),
    'SwSTEP 2.0',
    'SolidWorks 2020',
    '' );
FILE_SCHEMA (( 'AUTOMOTIVE_DESIGN' ));
ENDSEC;

DATA;
#1 = DIRECTION ( 'NONE',  ( 1.000000000000000000, 0.0000000000000000000, 0.0000000000000000000 ) ) ;
#2 = ADVANCED_FACE ( 'NONE', ( #166 ), #85, .T. ) ;
#3 = APPLICATION_PROTOCOL_DEFINITION ( 'draft international standard', 'automotive_design', 1998, #318 ) ;
#4 = DIRECTION ( 'NONE',  ( -1.000000000000000000, 0.0000000000000000000, 2.187666060992403711E-16 ) ) ;
#5 = PRESENTATION_STYLE_ASSIGNMENT (( #273 ) ) ;
#6 = DIRECTION ( 'NONE',  ( -1.000000000000000000, 0.0000000000000000000, 0.0000000000000000000 ) ) ;
#7 = LINE ( 'NONE', #8, #21 ) ;
#8 = CARTESIAN_POINT ( 'NONE',  ( 0.3121875000000001177, 0.0000000000000000000, 1.250000000000000000 ) ) ;
#9 = CARTESIAN_POINT ( 'NONE',  ( 1.530808498934191571E-16, 0.0000000000000000000, 1.250000000000000000 ) ) ;
#10 = FACE_OUTER_BOUND ( 'NONE', #219, .T. ) ;
#11 = DIMENSIONAL_EXPONENTS ( 1.000000000000000000, 0.0000000000000000000, 0.0000000000000000000, 0.0000000000000000000, 0.0000000000000000000, 0.0000000000000000000, 0.0000000000000000000 ) ;
#12 = AXIS2_PLACEMENT_3D ( 'NONE', #309, #209, #311 ) ;
#13 = CARTESIAN_POINT ( 'NONE',  ( 0.0000000000000000000, 0.0000000000000000000, 3.500000000000000000 ) ) ;
#14 = VERTEX_POINT ( 'NONE', #292 ) ;
#15 = DIRECTION ( 'NONE',  ( 1.000000000000000000, 0.0000000000000000000, 0.0000000000000000000 ) ) ;
#16 =( GEOMETRIC_REPRESENTATION_CONTEXT ( 3 ) GLOBAL_UNCERTAINTY_ASSIGNED_CONTEXT ( ( #213 ) ) GLOBAL_UNIT_ASSIGNED_CONTEXT ( ( #123, #179, #277 ) ) REPRESENTATION_CONTEXT ( 'NONE', 'WORKASPACE' ) );
#17 = ORIENTED_EDGE ( 'NONE', *, *, #253, .F. ) ;
#18 = EDGE_LOOP ( 'NONE', ( #220, #62, #221, #160 ) ) ;
#19 = CARTESIAN_POINT ( 'NONE',  ( 0.0000000000000000000, 0.0000000000000000000, 3.500000000000000000 ) ) ;
#20 = ADVANCED_FACE ( 'NONE', ( #165 ), #48, .T. ) ;
#21 = VECTOR ( 'NONE', #134, 39.37007874015748143 ) ;
#22 =( NAMED_UNIT ( * ) PLANE_ANGLE_UNIT ( ) SI_UNIT ( $, .RADIAN. ) );
#23 = DIRECTION ( 'NONE',  ( -1.000000000000000000, 0.0000000000000000000, 1.224646799147353207E-16 ) ) ;
#24 = EDGE_CURVE ( 'NONE', #14, #290, #242, .T. ) ;
#25 = SURFACE_STYLE_USAGE ( .BOTH. , #128 ) ;
#26 = MANIFOLD_SOLID_BREP ( 'Fillet1', #201 ) ;
#27 = FACE_OUTER_BOUND ( 'NONE', #18, .T. ) ;
#28 = CIRCLE ( 'NONE', #125, 0.3121874999999999512 ) ;
#29 = CIRCLE ( 'NONE', #105, 0.3125000000000000000 ) ;
#30 =( LENGTH_UNIT ( ) NAMED_UNIT ( * ) SI_UNIT ( $, .METRE. ) );
#31 = ADVANCED_FACE ( 'NONE', ( #175 ), #147, .T. ) ;
#32 = DIRECTION ( 'NONE',  ( -1.224646799147353207E-16, -0.0000000000000000000, -1.000000000000000000 ) ) ;
#33 = CARTESIAN_POINT ( 'NONE',  ( 0.3125000000000000000, 3.827021247335478926E-17, 3.484999999999999432 ) ) ;
#34 = UNCERTAINTY_MEASURE_WITH_UNIT (LENGTH_MEASURE( 1.000000000000000082E-05 ), #73, 'distance_accuracy_value', 'NONE');
#35 =( NAMED_UNIT ( * ) SI_UNIT ( $, .STERADIAN. ) SOLID_ANGLE_UNIT ( ) );
#36 = CARTESIAN_POINT ( 'NONE',  ( -0.2975000000000003197, 0.0000000000000000000, 3.500000000000000000 ) ) ;
#37 = EDGE_CURVE ( 'NONE', #143, #266, #40, .T. ) ;
#38 = DIRECTION ( 'NONE',  ( 0.0000000000000000000, 0.0000000000000000000, 1.000000000000000000 ) ) ;
#39 = CARTESIAN_POINT ( 'NONE',  ( 3.823194226088143379E-17, 0.0000000000000000000, 0.3121874999999999512 ) ) ;
#40 = CIRCLE ( 'NONE', #119, 0.2975000000000003197 ) ;
#41 = ORIENTED_EDGE ( 'NONE', *, *, #137, .F. ) ;
#42 = PRODUCT_DEFINITION_SHAPE ( 'NONE', 'NONE',  #252 ) ;
#43 = EDGE_LOOP ( 'NONE', ( #312, #45, #194 ) ) ;
#44 = VERTEX_POINT ( 'NONE', #103 ) ;
#45 = ORIENTED_EDGE ( 'NONE', *, *, #195, .T. ) ;
#46 = ORIENTED_EDGE ( 'NONE', *, *, #263, .T. ) ;
#47 = STYLED_ITEM ( 'NONE', ( #270 ), #26 ) ;
#48 = SPHERICAL_SURFACE ( 'NONE', #207, 0.3121874999999999512 ) ;
#49 =( NAMED_UNIT ( * ) PLANE_ANGLE_UNIT ( ) SI_UNIT ( $, .RADIAN. ) );
#50 = CARTESIAN_POINT ( 'NONE',  ( 0.0000000000000000000, 0.0000000000000000000, 3.500000000000000000 ) ) ;
#51 = CIRCLE ( 'NONE', #310, 0.3121874999999998956 ) ;
#52 =( LENGTH_UNIT ( ) NAMED_UNIT ( * ) SI_UNIT ( $, .METRE. ) );
#53 = DIRECTION ( 'NONE',  ( 0.7071067811865346942, 8.659560562354773853E-17, -0.7071067811865603403 ) ) ;
#54 = DIRECTION ( 'NONE',  ( -0.0000000000000000000, -0.0000000000000000000, -1.000000000000000000 ) ) ;
#55 = DIRECTION ( 'NONE',  ( 1.000000000000000000, 0.0000000000000000000, 0.0000000000000000000 ) ) ;
#56 = CARTESIAN_POINT ( 'NONE',  ( -0.3125000000000000000, 0.0000000000000000000, 3.484999999999999432 ) ) ;
#57 = CARTESIAN_POINT ( 'NONE',  ( 0.3121874999999998956, 3.823194226088142147E-17, -3.823194226088142147E-17 ) ) ;
#58 = ORIENTED_EDGE ( 'NONE', *, *, #320, .T. ) ;
#59 = DIRECTION ( 'NONE',  ( 1.000000000000000000, 0.0000000000000000000, 0.0000000000000000000 ) ) ;
#60 = ORIENTED_EDGE ( 'NONE', *, *, #202, .T. ) ;
#61 = AXIS2_PLACEMENT_3D ( 'NONE', #306, #38, #232 ) ;
#62 = ORIENTED_EDGE ( 'NONE', *, *, #122, .T. ) ;
#63 = ORIENTED_EDGE ( 'NONE', *, *, #255, .T. ) ;
#64 = DIRECTION ( 'NONE',  ( -1.224646799147353207E-16, -0.0000000000000000000, -1.000000000000000000 ) ) ;
#65 = CIRCLE ( 'NONE', #81, 0.3125000000000000000 ) ;
#66 = ORIENTED_EDGE ( 'NONE', *, *, #93, .T. ) ;
#67 = EDGE_CURVE ( 'NONE', #307, #317, #65, .T. ) ;
#68 = MECHANICAL_DESIGN_GEOMETRIC_PRESENTATION_REPRESENTATION (  '', ( #47 ), #325 ) ;
#69 = DIRECTION ( 'NONE',  ( 0.0000000000000000000, 0.0000000000000000000, -1.000000000000000000 ) ) ;
#70 = APPLICATION_PROTOCOL_DEFINITION ( 'draft international standard', 'automotive_design', 1998, #298 ) ;
#71 = DIRECTION ( 'NONE',  ( 1.224646799147353207E-16, 0.0000000000000000000, 1.000000000000000000 ) ) ;
#72 = DIRECTION ( 'NONE',  ( 1.000000000000000000, 0.0000000000000000000, 0.0000000000000000000 ) ) ;
#73 =( CONVERSION_BASED_UNIT ( 'INCH', #100 ) LENGTH_UNIT ( ) NAMED_UNIT ( #11 ) );
#74 = CARTESIAN_POINT ( 'NONE',  ( 3.823194226088143379E-17, 0.0000000000000000000, 0.3121874999999999512 ) ) ;
#75 = ADVANCED_BREP_SHAPE_REPRESENTATION ( 'Micro_BEM-625-04X', ( #26, #287 ), #173 ) ;
#76 = AXIS2_PLACEMENT_3D ( 'NONE', #284, #234, #180 ) ;
#77 = DIRECTION ( 'NONE',  ( -1.000000000000000000, 0.0000000000000000000, 1.224646799147353207E-16 ) ) ;
#78 = PLANE ( 'NONE',  #267 ) ;
#79 = DIRECTION ( 'NONE',  ( -1.000000000000000000, 0.0000000000000000000, 0.0000000000000000000 ) ) ;
#80 = ORIENTED_EDGE ( 'NONE', *, *, #263, .F. ) ;
#81 = AXIS2_PLACEMENT_3D ( 'NONE', #275, #278, #245 ) ;
#82 = CARTESIAN_POINT ( 'NONE',  ( -0.3121874999999998401, 3.823194226088143379E-17, 1.250000000000000000 ) ) ;
#83 = FACE_OUTER_BOUND ( 'NONE', #285, .T. ) ;
#84 = VERTEX_POINT ( 'NONE', #149 ) ;
#85 = CONICAL_SURFACE ( 'NONE', #117, 0.2975000000000003197, 0.7853981633974300713 ) ;
#86 =( LENGTH_UNIT ( ) NAMED_UNIT ( * ) SI_UNIT ( $, .METRE. ) );
#87 = EDGE_LOOP ( 'NONE', ( #188, #167, #60, #140 ) ) ;
#88 = ADVANCED_FACE ( 'NONE', ( #101 ), #303, .T. ) ;
#89 = EDGE_CURVE ( 'NONE', #44, #84, #51, .T. ) ;
#90 = PRESENTATION_LAYER_ASSIGNMENT (  '', '', ( #244 ) ) ;
#91 = ORIENTED_EDGE ( 'NONE', *, *, #171, .F. ) ;
#92 = PRODUCT_DEFINITION_CONTEXT ( 'detailed design', #318, 'design' ) ;
#93 = EDGE_CURVE ( 'NONE', #317, #307, #29, .T. ) ;
#94 = ORIENTED_EDGE ( 'NONE', *, *, #274, .T. ) ;
#95 = ORIENTED_EDGE ( 'NONE', *, *, #67, .T. ) ;
#96 = DIRECTION ( 'NONE',  ( -1.000000000000000000, 0.0000000000000000000, 0.0000000000000000000 ) ) ;
#97 = DIRECTION ( 'NONE',  ( 0.0000000000000000000, 0.0000000000000000000, 1.000000000000000000 ) ) ;
#98 = LINE ( 'NONE', #199, #272 ) ;
#99 = AXIS2_PLACEMENT_3D ( 'NONE', #136, #214, #313 ) ;
#100 = LENGTH_MEASURE_WITH_UNIT ( LENGTH_MEASURE( 0.02539999999999999897 ), #30 );
#101 = FACE_OUTER_BOUND ( 'NONE', #87, .T. ) ;
#102 = SURFACE_STYLE_FILL_AREA ( #174 ) ;
#103 = CARTESIAN_POINT ( 'NONE',  ( -0.3121874999999998401, 0.0000000000000000000, 0.3121875000000000622 ) ) ;
#104 = CARTESIAN_POINT ( 'NONE',  ( 0.0000000000000000000, 0.0000000000000000000, 3.500000000000000000 ) ) ;
#105 = AXIS2_PLACEMENT_3D ( 'NONE', #301, #69, #55 ) ;
#106 = DIRECTION ( 'NONE',  ( -1.224646799147353207E-16, -0.0000000000000000000, -1.000000000000000000 ) ) ;
#107 = CYLINDRICAL_SURFACE ( 'NONE', #189, 0.3125000000000000000 ) ;
#108 = CARTESIAN_POINT ( 'NONE',  ( -0.3121874999999998401, 3.825107736711810845E-17, 1.250000000000000000 ) ) ;
#109 = CONICAL_SURFACE ( 'NONE', #294, 0.3121874999999999512, 0.1745329251994338915 ) ;
#110 = CARTESIAN_POINT ( 'NONE',  ( 0.3121875000000001177, 0.0000000000000000000, 1.250000000000000000 ) ) ;
#111 = LENGTH_MEASURE_WITH_UNIT ( LENGTH_MEASURE( 0.02539999999999999897 ), #86 );
#112 = ORIENTED_EDGE ( 'NONE', *, *, #289, .T. ) ;
#113 = VERTEX_POINT ( 'NONE', #243 ) ;
#114 = CIRCLE ( 'NONE', #12, 0.3121874999999999512 ) ;
#115 = EDGE_LOOP ( 'NONE', ( #80, #112, #63, #240 ) ) ;
#116 = ORIENTED_EDGE ( 'NONE', *, *, #202, .F. ) ;
#117 = AXIS2_PLACEMENT_3D ( 'NONE', #19, #319, #96 ) ;
#118 = EDGE_LOOP ( 'NONE', ( #218, #142, #17 ) ) ;
#119 = AXIS2_PLACEMENT_3D ( 'NONE', #50, #97, #226 ) ;
#120 = ADVANCED_FACE ( 'NONE', ( #172 ), #109, .T. ) ;
#121 = FILL_AREA_STYLE ('',( #224 ) ) ;
#122 = EDGE_CURVE ( 'NONE', #143, #317, #98, .T. ) ;
#123 =( CONVERSION_BASED_UNIT ( 'INCH', #246 ) LENGTH_UNIT ( ) NAMED_UNIT ( #130 ) );
#124 = DIRECTION ( 'NONE',  ( -1.224646799147353207E-16, -0.0000000000000000000, -1.000000000000000000 ) ) ;
#125 = AXIS2_PLACEMENT_3D ( 'NONE', #9, #156, #182 ) ;
#126 = AXIS2_PLACEMENT_3D ( 'NONE', #184, #205, #77 ) ;
#127 = CARTESIAN_POINT ( 'NONE',  ( 0.0000000000000000000, 0.0000000000000000000, 3.500000000000000000 ) ) ;
#128 = SURFACE_SIDE_STYLE ('',( #247 ) ) ;
#129 = LINE ( 'NONE', #135, #177 ) ;
#130 = DIMENSIONAL_EXPONENTS ( 1.000000000000000000, 0.0000000000000000000, 0.0000000000000000000, 0.0000000000000000000, 0.0000000000000000000, 0.0000000000000000000, 0.0000000000000000000 ) ;
#131 = DIRECTION ( 'NONE',  ( 0.0000000000000000000, 0.0000000000000000000, 1.000000000000000000 ) ) ;
#132 = CIRCLE ( 'NONE', #61, 0.2975000000000003197 ) ;
#133 = CARTESIAN_POINT ( 'NONE',  ( -0.3121874999999998956, 0.0000000000000000000, 3.823194226088142147E-17 ) ) ;
#134 = DIRECTION ( 'NONE',  ( 0.1736481776669313859, 0.0000000000000000000, 0.9848077530122077983 ) ) ;
#135 = CARTESIAN_POINT ( 'NONE',  ( 0.3125000000000000000, 3.827021247335478926E-17, 3.500000000000000000 ) ) ;
#136 = CARTESIAN_POINT ( 'NONE',  ( 0.0000000000000000000, 0.0000000000000000000, 3.500000000000000000 ) ) ;
#137 = EDGE_CURVE ( 'NONE', #307, #290, #200, .T. ) ;
#138 = CARTESIAN_POINT ( 'NONE',  ( 3.823194226088143379E-17, 0.0000000000000000000, 0.3121874999999999512 ) ) ;
#139 = PRODUCT ( 'Micro_BEM-625-04X', 'Micro_BEM-625-04X', '', ( #233 ) ) ;
#140 = ORIENTED_EDGE ( 'NONE', *, *, #89, .T. ) ;
#141 = ADVANCED_FACE ( 'NONE', ( #27 ), #151, .T. ) ;
#142 = ORIENTED_EDGE ( 'NONE', *, *, #144, .T. ) ;
#143 = VERTEX_POINT ( 'NONE', #302 ) ;
#144 = EDGE_CURVE ( 'NONE', #113, #44, #239, .T. ) ;
#145 = DIRECTION ( 'NONE',  ( 0.0000000000000000000, 1.000000000000000000, 0.0000000000000000000 ) ) ;
#146 = PRODUCT_DEFINITION_FORMATION_WITH_SPECIFIED_SOURCE ( 'ANY', '', #139, .NOT_KNOWN. ) ;
#147 = CONICAL_SURFACE ( 'NONE', #178, 0.3121874999999999512, 0.1745329251994338915 ) ;
#148 = CARTESIAN_POINT ( 'NONE',  ( 1.530808498934191571E-16, 0.0000000000000000000, 1.250000000000000000 ) ) ;
#149 = CARTESIAN_POINT ( 'NONE',  ( 0.3121874999999999512, 3.823194226088142147E-17, 0.3121874999999998956 ) ) ;
#150 = EDGE_CURVE ( 'NONE', #317, #14, #129, .T. ) ;
#151 = CONICAL_SURFACE ( 'NONE', #296, 0.2975000000000003197, 0.7853981633974300713 ) ;
#152 =( NAMED_UNIT ( * ) SI_UNIT ( $, .STERADIAN. ) SOLID_ANGLE_UNIT ( ) );
#153 = CIRCLE ( 'NONE', #162, 0.3125000000000000000 ) ;
#154 = CARTESIAN_POINT ( 'NONE',  ( 3.823194226088143379E-17, 0.0000000000000000000, 0.3121874999999999512 ) ) ;
#155 = VECTOR ( 'NONE', #54, 39.37007874015748143 ) ;
#156 = DIRECTION ( 'NONE',  ( -1.224646799147353207E-16, -0.0000000000000000000, -1.000000000000000000 ) ) ;
#157 = CARTESIAN_POINT ( 'NONE',  ( 1.532978910536522064E-16, 0.0000000000000000000, 1.251772275568630910 ) ) ;
#158 = DIRECTION ( 'NONE',  ( -1.224646799147353207E-16, -0.0000000000000000000, -1.000000000000000000 ) ) ;
#159 = CARTESIAN_POINT ( 'NONE',  ( -0.2975000000000003197, 0.0000000000000000000, 3.500000000000000000 ) ) ;
#160 = ORIENTED_EDGE ( 'NONE', *, *, #237, .F. ) ;
#161 = CARTESIAN_POINT ( 'NONE',  ( -0.3124999999999998890, 0.0000000000000000000, 1.251772275568630910 ) ) ;
#162 = AXIS2_PLACEMENT_3D ( 'NONE', #157, #106, #59 ) ;
#163 = UNCERTAINTY_MEASURE_WITH_UNIT (LENGTH_MEASURE( 1.000000000000000082E-05 ), #261, 'distance_accuracy_value', 'NONE');
#164 = DIMENSIONAL_EXPONENTS ( 1.000000000000000000, 0.0000000000000000000, 0.0000000000000000000, 0.0000000000000000000, 0.0000000000000000000, 0.0000000000000000000, 0.0000000000000000000 ) ;
#165 = FACE_OUTER_BOUND ( 'NONE', #118, .T. ) ;
#166 = FACE_OUTER_BOUND ( 'NONE', #238, .T. ) ;
#167 = ORIENTED_EDGE ( 'NONE', *, *, #171, .T. ) ;
#168 = CIRCLE ( 'NONE', #76, 0.3121874999999998956 ) ;
#169 = ORIENTED_EDGE ( 'NONE', *, *, #237, .T. ) ;
#170 = ORIENTED_EDGE ( 'NONE', *, *, #137, .T. ) ;
#171 = EDGE_CURVE ( 'NONE', #190, #321, #28, .T. ) ;
#172 = FACE_OUTER_BOUND ( 'NONE', #185, .T. ) ;
#173 =( GEOMETRIC_REPRESENTATION_CONTEXT ( 3 ) GLOBAL_UNCERTAINTY_ASSIGNED_CONTEXT ( ( #163 ) ) GLOBAL_UNIT_ASSIGNED_CONTEXT ( ( #261, #49, #35 ) ) REPRESENTATION_CONTEXT ( 'NONE', 'WORKASPACE' ) );
#174 = FILL_AREA_STYLE ('',( #203 ) ) ;
#175 = FACE_OUTER_BOUND ( 'NONE', #115, .T. ) ;
#176 = DIRECTION ( 'NONE',  ( 1.000000000000000000, 0.0000000000000000000, 0.0000000000000000000 ) ) ;
#177 = VECTOR ( 'NONE', #254, 39.37007874015748143 ) ;
#178 = AXIS2_PLACEMENT_3D ( 'NONE', #148, #71, #176 ) ;
#179 =( NAMED_UNIT ( * ) PLANE_ANGLE_UNIT ( ) SI_UNIT ( $, .RADIAN. ) );
#180 = DIRECTION ( 'NONE',  ( -1.000000000000000000, 0.0000000000000000000, 2.187666060992403711E-16 ) ) ;
#181 = LINE ( 'NONE', #133, #193 ) ;
#182 = DIRECTION ( 'NONE',  ( -1.000000000000000000, 0.0000000000000000000, 0.0000000000000000000 ) ) ;
#183 = FACE_OUTER_BOUND ( 'NONE', #268, .T. ) ;
#184 = CARTESIAN_POINT ( 'NONE',  ( 0.0000000000000000000, 0.0000000000000000000, 0.0000000000000000000 ) ) ;
#185 = EDGE_LOOP ( 'NONE', ( #323, #91, #314, #241 ) ) ;
#186 = AXIS2_PLACEMENT_3D ( 'NONE', #262, #64, #197 ) ;
#187 = CYLINDRICAL_SURFACE ( 'NONE', #99, 0.3125000000000000000 ) ;
#188 = ORIENTED_EDGE ( 'NONE', *, *, #274, .F. ) ;
#189 = AXIS2_PLACEMENT_3D ( 'NONE', #104, #204, #79 ) ;
#190 = VERTEX_POINT ( 'NONE', #110 ) ;
#191 = ORIENTED_EDGE ( 'NONE', *, *, #150, .T. ) ;
#192 = ORIENTED_EDGE ( 'NONE', *, *, #24, .F. ) ;
#193 = VECTOR ( 'NONE', #32, 39.37007874015748143 ) ;
#194 = ORIENTED_EDGE ( 'NONE', *, *, #89, .F. ) ;
#195 = EDGE_CURVE ( 'NONE', #113, #84, #114, .T. ) ;
#196 = SHAPE_DEFINITION_REPRESENTATION ( #42, #75 ) ;
#197 = DIRECTION ( 'NONE',  ( 1.000000000000000000, 0.0000000000000000000, 0.0000000000000000000 ) ) ;
#198 = CARTESIAN_POINT ( 'NONE',  ( 0.0000000000000000000, 0.0000000000000000000, 0.0000000000000000000 ) ) ;
#199 = CARTESIAN_POINT ( 'NONE',  ( 0.2975000000000003197, 3.643324227463378817E-17, 3.500000000000000000 ) ) ;
#200 = LINE ( 'NONE', #249, #155 ) ;
#201 = CLOSED_SHELL ( 'NONE', ( #20, #291, #31, #141, #279, #322, #230, #2, #120, #88, #315 ) ) ;
#202 = EDGE_CURVE ( 'NONE', #321, #44, #181, .T. ) ;
#203 = FILL_AREA_STYLE_COLOUR ( '', #222 ) ;
#204 = DIRECTION ( 'NONE',  ( -0.0000000000000000000, -0.0000000000000000000, -1.000000000000000000 ) ) ;
#205 = DIRECTION ( 'NONE',  ( -1.224646799147353207E-16, -0.0000000000000000000, -1.000000000000000000 ) ) ;
#206 = DIRECTION ( 'NONE',  ( -0.1736481776669311916, 2.126576849575783316E-17, 0.9848077530122080203 ) ) ;
#207 = AXIS2_PLACEMENT_3D ( 'NONE', #138, #145, #15 ) ;
#208 = ORIENTED_EDGE ( 'NONE', *, *, #150, .F. ) ;
#209 = DIRECTION ( 'NONE',  ( 0.0000000000000000000, -1.000000000000000000, 0.0000000000000000000 ) ) ;
#210 = CIRCLE ( 'NONE', #271, 0.3121874999999999512 ) ;
#211 = AXIS2_PLACEMENT_3D ( 'NONE', #276, #124, #23 ) ;
#212 = LINE ( 'NONE', #57, #308 ) ;
#213 = UNCERTAINTY_MEASURE_WITH_UNIT (LENGTH_MEASURE( 1.000000000000000082E-05 ), #123, 'distance_accuracy_value', 'NONE');
#214 = DIRECTION ( 'NONE',  ( -0.0000000000000000000, -0.0000000000000000000, -1.000000000000000000 ) ) ;
#215 = ORIENTED_EDGE ( 'NONE', *, *, #255, .F. ) ;
#216 = PRODUCT_RELATED_PRODUCT_CATEGORY ( 'part', '', ( #139 ) ) ;
#217 = COLOUR_RGB ( '',0.7921568627450980005, 0.8196078431372548767, 0.9333333333333333481 ) ;
#218 = ORIENTED_EDGE ( 'NONE', *, *, #195, .F. ) ;
#219 = EDGE_LOOP ( 'NONE', ( #58, #236 ) ) ;
#220 = ORIENTED_EDGE ( 'NONE', *, *, #37, .F. ) ;
#221 = ORIENTED_EDGE ( 'NONE', *, *, #67, .F. ) ;
#222 = COLOUR_RGB ( '',0.7921568627450980005, 0.8196078431372548767, 0.9333333333333333481 ) ;
#223 = DIRECTION ( 'NONE',  ( 1.224646799147353207E-16, 0.0000000000000000000, 1.000000000000000000 ) ) ;
#224 = FILL_AREA_STYLE_COLOUR ( '', #217 ) ;
#225 = DIRECTION ( 'NONE',  ( 0.0000000000000000000, 0.0000000000000000000, -1.000000000000000000 ) ) ;
#226 = DIRECTION ( 'NONE',  ( 1.000000000000000000, 0.0000000000000000000, 0.0000000000000000000 ) ) ;
#227 = PRESENTATION_LAYER_ASSIGNMENT (  '', '', ( #47 ) ) ;
#228 = DIRECTION ( 'NONE',  ( 1.000000000000000000, 0.0000000000000000000, -0.0000000000000000000 ) ) ;
#229 = DIRECTION ( 'NONE',  ( -0.7071067811865346942, 0.0000000000000000000, -0.7071067811865603403 ) ) ;
#230 = ADVANCED_FACE ( 'NONE', ( #10 ), #78, .T. ) ;
#231 = CARTESIAN_POINT ( 'NONE',  ( 1.530808498934191571E-16, 0.0000000000000000000, 1.250000000000000000 ) ) ;
#232 = DIRECTION ( 'NONE',  ( 1.000000000000000000, 0.0000000000000000000, 0.0000000000000000000 ) ) ;
#233 = PRODUCT_CONTEXT ( 'NONE', #298, 'mechanical' ) ;
#234 = DIRECTION ( 'NONE',  ( 1.224646799147353207E-16, 0.0000000000000000000, 1.000000000000000000 ) ) ;
#235 = FACE_OUTER_BOUND ( 'NONE', #295, .T. ) ;
#236 = ORIENTED_EDGE ( 'NONE', *, *, #37, .T. ) ;
#237 = EDGE_CURVE ( 'NONE', #266, #307, #283, .T. ) ;
#238 = EDGE_LOOP ( 'NONE', ( #293, #264, #169, #288 ) ) ;
#239 = CIRCLE ( 'NONE', #265, 0.3121874999999999512 ) ;
#240 = ORIENTED_EDGE ( 'NONE', *, *, #260, .F. ) ;
#241 = ORIENTED_EDGE ( 'NONE', *, *, #24, .T. ) ;
#242 = CIRCLE ( 'NONE', #186, 0.3125000000000000000 ) ;
#243 = CARTESIAN_POINT ( 'NONE',  ( 5.734791339132215685E-17, 0.0000000000000000000, 0.0000000000000000000 ) ) ;
#244 = STYLED_ITEM ( 'NONE', ( #5 ), #75 ) ;
#245 = DIRECTION ( 'NONE',  ( 1.000000000000000000, 0.0000000000000000000, 0.0000000000000000000 ) ) ;
#246 = LENGTH_MEASURE_WITH_UNIT ( LENGTH_MEASURE( 0.02539999999999999897 ), #52 );
#247 = SURFACE_STYLE_FILL_AREA ( #121 ) ;
#248 = SURFACE_SIDE_STYLE ('',( #102 ) ) ;
#249 = CARTESIAN_POINT ( 'NONE',  ( -0.3125000000000000000, 0.0000000000000000000, 3.500000000000000000 ) ) ;
#250 = VECTOR ( 'NONE', #229, 39.37007874015748143 ) ;
#251 = DIRECTION ( 'NONE',  ( 1.224646799147353207E-16, 1.000000000000000000, -0.0000000000000000000 ) ) ;
#252 = PRODUCT_DEFINITION ( 'UNKNOWN', '', #146, #92 ) ;
#253 = EDGE_CURVE ( 'NONE', #84, #44, #168, .T. ) ;
#254 = DIRECTION ( 'NONE',  ( -0.0000000000000000000, -0.0000000000000000000, -1.000000000000000000 ) ) ;
#255 = EDGE_CURVE ( 'NONE', #290, #14, #153, .T. ) ;
#256 = DIRECTION ( 'NONE',  ( 0.0000000000000000000, 1.000000000000000000, 0.0000000000000000000 ) ) ;
#257 = DIRECTION ( 'NONE',  ( -1.000000000000000000, 0.0000000000000000000, 0.0000000000000000000 ) ) ;
#258 = DIRECTION ( 'NONE',  ( 1.000000000000000000, 0.0000000000000000000, 0.0000000000000000000 ) ) ;
#259 = FACE_OUTER_BOUND ( 'NONE', #43, .T. ) ;
#260 = EDGE_CURVE ( 'NONE', #190, #14, #7, .T. ) ;
#261 =( CONVERSION_BASED_UNIT ( 'INCH', #111 ) LENGTH_UNIT ( ) NAMED_UNIT ( #164 ) );
#262 = CARTESIAN_POINT ( 'NONE',  ( 1.532978910536522064E-16, 0.0000000000000000000, 1.251772275568630910 ) ) ;
#263 = EDGE_CURVE ( 'NONE', #321, #190, #210, .T. ) ;
#264 = ORIENTED_EDGE ( 'NONE', *, *, #320, .F. ) ;
#265 = AXIS2_PLACEMENT_3D ( 'NONE', #154, #251, #286 ) ;
#266 = VERTEX_POINT ( 'NONE', #36 ) ;
#267 = AXIS2_PLACEMENT_3D ( 'NONE', #13, #131, #228 ) ;
#268 = EDGE_LOOP ( 'NONE', ( #46, #94, #269, #116 ) ) ;
#269 = ORIENTED_EDGE ( 'NONE', *, *, #253, .T. ) ;
#270 = PRESENTATION_STYLE_ASSIGNMENT (( #25 ) ) ;
#271 = AXIS2_PLACEMENT_3D ( 'NONE', #231, #158, #257 ) ;
#272 = VECTOR ( 'NONE', #53, 39.37007874015748143 ) ;
#273 = SURFACE_STYLE_USAGE ( .BOTH. , #248 ) ;
#274 = EDGE_CURVE ( 'NONE', #190, #84, #212, .T. ) ;
#275 = CARTESIAN_POINT ( 'NONE',  ( 0.0000000000000000000, 0.0000000000000000000, 3.484999999999999432 ) ) ;
#276 = CARTESIAN_POINT ( 'NONE',  ( 0.0000000000000000000, 0.0000000000000000000, 0.0000000000000000000 ) ) ;
#277 =( NAMED_UNIT ( * ) SI_UNIT ( $, .STERADIAN. ) SOLID_ANGLE_UNIT ( ) );
#278 = DIRECTION ( 'NONE',  ( 0.0000000000000000000, 0.0000000000000000000, -1.000000000000000000 ) ) ;
#279 = ADVANCED_FACE ( 'NONE', ( #83 ), #107, .T. ) ;
#280 = DIRECTION ( 'NONE',  ( 1.224646799147353207E-16, 0.0000000000000000000, 1.000000000000000000 ) ) ;
#281 = SPHERICAL_SURFACE ( 'NONE', #324, 0.3121874999999999512 ) ;
#282 = CYLINDRICAL_SURFACE ( 'NONE', #126, 0.3121874999999998956 ) ;
#283 = LINE ( 'NONE', #159, #250 ) ;
#284 = CARTESIAN_POINT ( 'NONE',  ( 3.823194226088143379E-17, 0.0000000000000000000, 0.3121874999999999512 ) ) ;
#285 = EDGE_LOOP ( 'NONE', ( #95, #191, #215, #41 ) ) ;
#286 = DIRECTION ( 'NONE',  ( -1.000000000000000000, 1.224646799147353454E-16, 0.0000000000000000000 ) ) ;
#287 = AXIS2_PLACEMENT_3D ( 'NONE', #198, #300, #72 ) ;
#288 = ORIENTED_EDGE ( 'NONE', *, *, #93, .F. ) ;
#289 = EDGE_CURVE ( 'NONE', #321, #290, #304, .T. ) ;
#290 = VERTEX_POINT ( 'NONE', #161 ) ;
#291 = ADVANCED_FACE ( 'NONE', ( #183 ), #282, .T. ) ;
#292 = CARTESIAN_POINT ( 'NONE',  ( 0.3125000000000001665, 3.827021247335480159E-17, 1.251772275568630910 ) ) ;
#293 = ORIENTED_EDGE ( 'NONE', *, *, #122, .F. ) ;
#294 = AXIS2_PLACEMENT_3D ( 'NONE', #297, #223, #1 ) ;
#295 = EDGE_LOOP ( 'NONE', ( #208, #66, #170, #192 ) ) ;
#296 = AXIS2_PLACEMENT_3D ( 'NONE', #127, #225, #6 ) ;
#297 = CARTESIAN_POINT ( 'NONE',  ( 1.530808498934191571E-16, 0.0000000000000000000, 1.250000000000000000 ) ) ;
#298 = APPLICATION_CONTEXT ( 'automotive_design' ) ;
#299 = MECHANICAL_DESIGN_GEOMETRIC_PRESENTATION_REPRESENTATION (  '', ( #244 ), #16 ) ;
#300 = DIRECTION ( 'NONE',  ( 0.0000000000000000000, 0.0000000000000000000, 1.000000000000000000 ) ) ;
#301 = CARTESIAN_POINT ( 'NONE',  ( 0.0000000000000000000, 0.0000000000000000000, 3.484999999999999432 ) ) ;
#302 = CARTESIAN_POINT ( 'NONE',  ( 0.2975000000000003197, 3.735172737399428256E-17, 3.500000000000000000 ) ) ;
#303 = CYLINDRICAL_SURFACE ( 'NONE', #211, 0.3121874999999998956 ) ;
#304 = LINE ( 'NONE', #82, #316 ) ;
#305 = DIRECTION ( 'NONE',  ( -1.224646799147353207E-16, -0.0000000000000000000, -1.000000000000000000 ) ) ;
#306 = CARTESIAN_POINT ( 'NONE',  ( 0.0000000000000000000, 0.0000000000000000000, 3.500000000000000000 ) ) ;
#307 = VERTEX_POINT ( 'NONE', #56 ) ;
#308 = VECTOR ( 'NONE', #305, 39.37007874015748143 ) ;
#309 = CARTESIAN_POINT ( 'NONE',  ( 3.823194226088143379E-17, 0.0000000000000000000, 0.3121874999999999512 ) ) ;
#310 = AXIS2_PLACEMENT_3D ( 'NONE', #74, #280, #4 ) ;
#311 = DIRECTION ( 'NONE',  ( 0.0000000000000000000, 0.0000000000000000000, -1.000000000000000000 ) ) ;
#312 = ORIENTED_EDGE ( 'NONE', *, *, #144, .F. ) ;
#313 = DIRECTION ( 'NONE',  ( -1.000000000000000000, 0.0000000000000000000, 0.0000000000000000000 ) ) ;
#314 = ORIENTED_EDGE ( 'NONE', *, *, #260, .T. ) ;
#315 = ADVANCED_FACE ( 'NONE', ( #259 ), #281, .T. ) ;
#316 = VECTOR ( 'NONE', #206, 39.37007874015747433 ) ;
#317 = VERTEX_POINT ( 'NONE', #33 ) ;
#318 = APPLICATION_CONTEXT ( 'automotive_design' ) ;
#319 = DIRECTION ( 'NONE',  ( 0.0000000000000000000, 0.0000000000000000000, -1.000000000000000000 ) ) ;
#320 = EDGE_CURVE ( 'NONE', #266, #143, #132, .T. ) ;
#321 = VERTEX_POINT ( 'NONE', #108 ) ;
#322 = ADVANCED_FACE ( 'NONE', ( #235 ), #187, .T. ) ;
#323 = ORIENTED_EDGE ( 'NONE', *, *, #289, .F. ) ;
#324 = AXIS2_PLACEMENT_3D ( 'NONE', #39, #256, #258 ) ;
#325 =( GEOMETRIC_REPRESENTATION_CONTEXT ( 3 ) GLOBAL_UNCERTAINTY_ASSIGNED_CONTEXT ( ( #34 ) ) GLOBAL_UNIT_ASSIGNED_CONTEXT ( ( #73, #22, #152 ) ) REPRESENTATION_CONTEXT ( 'NONE', 'WORKASPACE' ) );
ENDSEC;
END-ISO-10303-21;
