ISO-10303-21;
HEADER;
FILE_DESCRIPTION (( 'STEP AP214' ),
    '1' );
FILE_NAME ('Micro_RSC-250-130.STEP',
    '2021-09-03T17:47:21',
    ( '' ),
    ( '' ),
    'SwSTEP 2.0',
    'SolidWorks 2020',
    '' );
FILE_SCHEMA (( 'AUTOMOTIVE_DESIGN' ));
ENDSEC;

DATA;
#1 = CLOSED_SHELL ( 'NONE', ( #132, #156, #81, #75, #196, #220, #179, #190 ) ) ;
#2 = APPLICATION_PROTOCOL_DEFINITION ( 'draft international standard', 'automotive_design', 1998, #95 ) ;
#3 = MANIFOLD_SOLID_BREP ( 'Cut-Revolve1', #1 ) ;
#4 = LINE ( 'NONE', #133, #215 ) ;
#5 = DIRECTION ( 'NONE',  ( -0.0000000000000000000, -0.0000000000000000000, -1.000000000000000000 ) ) ;
#6 =( NAMED_UNIT ( * ) SI_UNIT ( $, .STERADIAN. ) SOLID_ANGLE_UNIT ( ) );
#7 = VECTOR ( 'NONE', #234, 39.37007874015748143 ) ;
#8 = DIRECTION ( 'NONE',  ( -0.0000000000000000000, -0.0000000000000000000, -1.000000000000000000 ) ) ;
#9 = CARTESIAN_POINT ( 'NONE',  ( 0.0000000000000000000, 0.0000000000000000000, 2.500000000000000000 ) ) ;
#10 = DIRECTION ( 'NONE',  ( -0.7071067811865499042, 0.0000000000000000000, -0.7071067811865451302 ) ) ;
#11 = EDGE_LOOP ( 'NONE', ( #223, #224 ) ) ;
#12 = CARTESIAN_POINT ( 'NONE',  ( -0.01499999999999999944, 8.572527594031473498E-18, 0.0000000000000000000 ) ) ;
#13 = FILL_AREA_STYLE ('',( #37 ) ) ;
#14 = VECTOR ( 'NONE', #50, 39.37007874015748143 ) ;
#15 = CYLINDRICAL_SURFACE ( 'NONE', #171, 0.1250000000000000000 ) ;
#16 = VERTEX_POINT ( 'NONE', #12 ) ;
#17 = DIRECTION ( 'NONE',  ( 0.0000000000000000000, 0.0000000000000000000, 1.000000000000000000 ) ) ;
#18 = CARTESIAN_POINT ( 'NONE',  ( -0.1250000000000000000, 0.0000000000000000000, 2.500000000000000000 ) ) ;
#19 = ORIENTED_EDGE ( 'NONE', *, *, #97, .T. ) ;
#20 = AXIS2_PLACEMENT_3D ( 'NONE', #69, #175, #88 ) ;
#21 = STYLED_ITEM ( 'NONE', ( #131 ), #3 ) ;
#22 = DIRECTION ( 'NONE',  ( 0.0000000000000000000, 0.0000000000000000000, -1.000000000000000000 ) ) ;
#23 = AXIS2_PLACEMENT_3D ( 'NONE', #77, #8, #96 ) ;
#24 = CIRCLE ( 'NONE', #197, 0.01499999999999999944 ) ;
#25 = EDGE_CURVE ( 'NONE', #125, #214, #122, .T. ) ;
#26 = DIRECTION ( 'NONE',  ( -1.000000000000000000, 0.0000000000000000000, 0.0000000000000000000 ) ) ;
#27 = ORIENTED_EDGE ( 'NONE', *, *, #45, .T. ) ;
#28 = MECHANICAL_DESIGN_GEOMETRIC_PRESENTATION_REPRESENTATION (  '', ( #21 ), #162 ) ;
#29 = CARTESIAN_POINT ( 'NONE',  ( 0.1250000000000000000, 1.530808498934191509E-17, 2.485000000000000320 ) ) ;
#30 = AXIS2_PLACEMENT_3D ( 'NONE', #123, #244, #117 ) ;
#31 = LENGTH_MEASURE_WITH_UNIT ( LENGTH_MEASURE( 0.02539999999999999897 ), #211 );
#32 = CARTESIAN_POINT ( 'NONE',  ( 0.0000000000000000000, 0.0000000000000000000, 0.0000000000000000000 ) ) ;
#33 = VERTEX_POINT ( 'NONE', #206 ) ;
#34 = ORIENTED_EDGE ( 'NONE', *, *, #198, .T. ) ;
#35 = ORIENTED_EDGE ( 'NONE', *, *, #104, .F. ) ;
#36 = PRODUCT_DEFINITION_FORMATION_WITH_SPECIFIED_SOURCE ( 'ANY', '', #85, .NOT_KNOWN. ) ;
#37 = FILL_AREA_STYLE_COLOUR ( '', #229 ) ;
#38 = VERTEX_POINT ( 'NONE', #47 ) ;
#39 = EDGE_CURVE ( 'NONE', #248, #16, #247, .T. ) ;
#40 = APPLICATION_PROTOCOL_DEFINITION ( 'draft international standard', 'automotive_design', 1998, #54 ) ;
#41 = AXIS2_PLACEMENT_3D ( 'NONE', #32, #155, #138 ) ;
#42 = CONICAL_SURFACE ( 'NONE', #80, 0.1100000000000001948, 0.7853981633974517207 ) ;
#43 = CARTESIAN_POINT ( 'NONE',  ( 0.0000000000000000000, 0.0000000000000000000, 0.0000000000000000000 ) ) ;
#44 = CARTESIAN_POINT ( 'NONE',  ( 0.1100000000000001948, 1.438959988998141146E-17, 2.500000000000000000 ) ) ;
#45 = EDGE_CURVE ( 'NONE', #142, #62, #226, .T. ) ;
#46 = LENGTH_MEASURE_WITH_UNIT ( LENGTH_MEASURE( 0.02539999999999999897 ), #48 );
#47 = CARTESIAN_POINT ( 'NONE',  ( -0.1250000000000000000, 0.0000000000000000000, 2.485000000000000320 ) ) ;
#48 =( LENGTH_UNIT ( ) NAMED_UNIT ( * ) SI_UNIT ( $, .METRE. ) );
#49 = PLANE ( 'NONE',  #167 ) ;
#50 = DIRECTION ( 'NONE',  ( 0.7071067811865499042, 8.659560562354961208E-17, -0.7071067811865451302 ) ) ;
#51 = DIRECTION ( 'NONE',  ( 0.0000000000000000000, 0.0000000000000000000, -1.000000000000000000 ) ) ;
#52 =( CONVERSION_BASED_UNIT ( 'INCH', #185 ) LENGTH_UNIT ( ) NAMED_UNIT ( #165 ) );
#53 = ORIENTED_EDGE ( 'NONE', *, *, #152, .T. ) ;
#54 = APPLICATION_CONTEXT ( 'automotive_design' ) ;
#55 = ORIENTED_EDGE ( 'NONE', *, *, #39, .T. ) ;
#56 = CARTESIAN_POINT ( 'NONE',  ( 0.0000000000000000000, 0.0000000000000000000, 2.500000000000000000 ) ) ;
#57 = ORIENTED_EDGE ( 'NONE', *, *, #139, .T. ) ;
#58 = DIRECTION ( 'NONE',  ( 0.0000000000000000000, 0.0000000000000000000, -1.000000000000000000 ) ) ;
#59 = CARTESIAN_POINT ( 'NONE',  ( 0.0000000000000000000, 0.0000000000000000000, 0.1905255888325758096 ) ) ;
#60 = FILL_AREA_STYLE_COLOUR ( '', #78 ) ;
#61 = AXIS2_PLACEMENT_3D ( 'NONE', #159, #246, #71 ) ;
#62 = VERTEX_POINT ( 'NONE', #29 ) ;
#63 = DIRECTION ( 'NONE',  ( -1.000000000000000000, 0.0000000000000000000, 0.0000000000000000000 ) ) ;
#64 = DIRECTION ( 'NONE',  ( -0.5000000000000013323, 6.123233995736782060E-17, 0.8660254037844377084 ) ) ;
#65 = AXIS2_PLACEMENT_3D ( 'NONE', #9, #200, #120 ) ;
#66 =( NAMED_UNIT ( * ) SI_UNIT ( $, .STERADIAN. ) SOLID_ANGLE_UNIT ( ) );
#67 = FACE_OUTER_BOUND ( 'NONE', #76, .T. ) ;
#68 = UNCERTAINTY_MEASURE_WITH_UNIT (LENGTH_MEASURE( 1.000000000000000082E-05 ), #92, 'distance_accuracy_value', 'NONE');
#69 = CARTESIAN_POINT ( 'NONE',  ( 0.0000000000000000000, 0.0000000000000000000, 0.1905255888325758096 ) ) ;
#70 = AXIS2_PLACEMENT_3D ( 'NONE', #194, #22, #195 ) ;
#71 = DIRECTION ( 'NONE',  ( -1.000000000000000000, 0.0000000000000000000, 0.0000000000000000000 ) ) ;
#72 = ORIENTED_EDGE ( 'NONE', *, *, #173, .F. ) ;
#73 = DIRECTION ( 'NONE',  ( 1.000000000000000000, 0.0000000000000000000, 0.0000000000000000000 ) ) ;
#74 = SURFACE_STYLE_USAGE ( .BOTH. , #114 ) ;
#75 = ADVANCED_FACE ( 'NONE', ( #107 ), #15, .T. ) ;
#76 = EDGE_LOOP ( 'NONE', ( #55, #19 ) ) ;
#77 = CARTESIAN_POINT ( 'NONE',  ( 0.0000000000000000000, 0.0000000000000000000, 2.500000000000000000 ) ) ;
#78 = COLOUR_RGB ( '',0.7921568627450980005, 0.8196078431372548767, 0.9333333333333333481 ) ;
#79 = CARTESIAN_POINT ( 'NONE',  ( 0.0000000000000000000, 0.0000000000000000000, 0.0000000000000000000 ) ) ;
#80 = AXIS2_PLACEMENT_3D ( 'NONE', #56, #58, #109 ) ;
#81 = ADVANCED_FACE ( 'NONE', ( #103 ), #177, .T. ) ;
#82 = CIRCLE ( 'NONE', #227, 0.1250000000000000000 ) ;
#83 =( GEOMETRIC_REPRESENTATION_CONTEXT ( 3 ) GLOBAL_UNCERTAINTY_ASSIGNED_CONTEXT ( ( #68 ) ) GLOBAL_UNIT_ASSIGNED_CONTEXT ( ( #92, #245, #204 ) ) REPRESENTATION_CONTEXT ( 'NONE', 'WORKASPACE' ) );
#84 = CARTESIAN_POINT ( 'NONE',  ( 0.0000000000000000000, 0.0000000000000000000, 0.0000000000000000000 ) ) ;
#85 = PRODUCT ( 'Micro_RSC-250-130', 'Micro_RSC-250-130', '', ( #137 ) ) ;
#86 = ORIENTED_EDGE ( 'NONE', *, *, #203, .F. ) ;
#87 = ORIENTED_EDGE ( 'NONE', *, *, #104, .T. ) ;
#88 = DIRECTION ( 'NONE',  ( -1.000000000000000000, 0.0000000000000000000, 0.0000000000000000000 ) ) ;
#89 = DIRECTION ( 'NONE',  ( -0.0000000000000000000, -0.0000000000000000000, -1.000000000000000000 ) ) ;
#90 = EDGE_LOOP ( 'NONE', ( #157, #249, #53, #243 ) ) ;
#91 = CARTESIAN_POINT ( 'NONE',  ( 0.0000000000000000000, 0.0000000000000000000, 2.500000000000000000 ) ) ;
#92 =( CONVERSION_BASED_UNIT ( 'INCH', #31 ) LENGTH_UNIT ( ) NAMED_UNIT ( #170 ) );
#93 = PRODUCT_DEFINITION ( 'UNKNOWN', '', #36, #221 ) ;
#94 = LINE ( 'NONE', #163, #143 ) ;
#95 = APPLICATION_CONTEXT ( 'automotive_design' ) ;
#96 = DIRECTION ( 'NONE',  ( -1.000000000000000000, 0.0000000000000000000, 0.0000000000000000000 ) ) ;
#97 = EDGE_CURVE ( 'NONE', #16, #248, #24, .T. ) ;
#98 = CARTESIAN_POINT ( 'NONE',  ( 0.0000000000000000000, 0.0000000000000000000, 2.485000000000000320 ) ) ;
#99 = AXIS2_PLACEMENT_3D ( 'NONE', #205, #210, #209 ) ;
#100 =( CONVERSION_BASED_UNIT ( 'INCH', #46 ) LENGTH_UNIT ( ) NAMED_UNIT ( #148 ) );
#101 = PLANE ( 'NONE',  #65 ) ;
#102 = DIRECTION ( 'NONE',  ( 1.000000000000000000, 0.0000000000000000000, 0.0000000000000000000 ) ) ;
#103 = FACE_OUTER_BOUND ( 'NONE', #242, .T. ) ;
#104 = EDGE_CURVE ( 'NONE', #38, #62, #105, .T. ) ;
#105 = CIRCLE ( 'NONE', #70, 0.1250000000000000000 ) ;
#106 = CONICAL_SURFACE ( 'NONE', #30, 0.01499999999999999944, 0.5235987755983005920 ) ;
#107 = FACE_OUTER_BOUND ( 'NONE', #164, .T. ) ;
#108 = ORIENTED_EDGE ( 'NONE', *, *, #188, .T. ) ;
#109 = DIRECTION ( 'NONE',  ( -1.000000000000000000, 0.0000000000000000000, 0.0000000000000000000 ) ) ;
#110 = DIRECTION ( 'NONE',  ( -0.0000000000000000000, -0.0000000000000000000, -1.000000000000000000 ) ) ;
#111 = ORIENTED_EDGE ( 'NONE', *, *, #139, .F. ) ;
#112 = FACE_OUTER_BOUND ( 'NONE', #127, .T. ) ;
#113 = PRODUCT_RELATED_PRODUCT_CATEGORY ( 'part', '', ( #85 ) ) ;
#114 = SURFACE_SIDE_STYLE ('',( #213 ) ) ;
#115 = PRODUCT_DEFINITION_SHAPE ( 'NONE', 'NONE',  #93 ) ;
#116 = MECHANICAL_DESIGN_GEOMETRIC_PRESENTATION_REPRESENTATION (  '', ( #192 ), #135 ) ;
#117 = DIRECTION ( 'NONE',  ( 1.000000000000000000, 0.0000000000000000000, 0.0000000000000000000 ) ) ;
#118 = CARTESIAN_POINT ( 'NONE',  ( 0.1100000000000001948, 1.347111479062090784E-17, 2.500000000000000000 ) ) ;
#119 = UNCERTAINTY_MEASURE_WITH_UNIT (LENGTH_MEASURE( 1.000000000000000082E-05 ), #100, 'distance_accuracy_value', 'NONE');
#120 = DIRECTION ( 'NONE',  ( 1.000000000000000000, 0.0000000000000000000, -0.0000000000000000000 ) ) ;
#121 = ORIENTED_EDGE ( 'NONE', *, *, #25, .F. ) ;
#122 = CIRCLE ( 'NONE', #20, 0.1250000000000000000 ) ;
#123 = CARTESIAN_POINT ( 'NONE',  ( 0.0000000000000000000, 0.0000000000000000000, 0.0000000000000000000 ) ) ;
#124 = CIRCLE ( 'NONE', #99, 0.1100000000000001948 ) ;
#125 = VERTEX_POINT ( 'NONE', #150 ) ;
#126 = ORIENTED_EDGE ( 'NONE', *, *, #45, .F. ) ;
#127 = EDGE_LOOP ( 'NONE', ( #126, #86, #108, #72 ) ) ;
#128 = EDGE_CURVE ( 'NONE', #16, #214, #216, .T. ) ;
#129 = FILL_AREA_STYLE ('',( #60 ) ) ;
#130 = ORIENTED_EDGE ( 'NONE', *, *, #147, .F. ) ;
#131 = PRESENTATION_STYLE_ASSIGNMENT (( #158 ) ) ;
#132 = ADVANCED_FACE ( 'NONE', ( #134 ), #207, .T. ) ;
#133 = CARTESIAN_POINT ( 'NONE',  ( 0.1250000000000000000, 1.530808498934191509E-17, 2.500000000000000000 ) ) ;
#134 = FACE_OUTER_BOUND ( 'NONE', #90, .T. ) ;
#135 =( GEOMETRIC_REPRESENTATION_CONTEXT ( 3 ) GLOBAL_UNCERTAINTY_ASSIGNED_CONTEXT ( ( #119 ) ) GLOBAL_UNIT_ASSIGNED_CONTEXT ( ( #100, #238, #6 ) ) REPRESENTATION_CONTEXT ( 'NONE', 'WORKASPACE' ) );
#136 = AXIS2_PLACEMENT_3D ( 'NONE', #79, #218, #168 ) ;
#137 = PRODUCT_CONTEXT ( 'NONE', #95, 'mechanical' ) ;
#138 = DIRECTION ( 'NONE',  ( -1.000000000000000000, 0.0000000000000000000, 0.0000000000000000000 ) ) ;
#139 = EDGE_CURVE ( 'NONE', #62, #125, #4, .T. ) ;
#140 = ORIENTED_EDGE ( 'NONE', *, *, #152, .F. ) ;
#141 = FACE_OUTER_BOUND ( 'NONE', #181, .T. ) ;
#142 = VERTEX_POINT ( 'NONE', #44 ) ;
#143 = VECTOR ( 'NONE', #212, 39.37007874015748854 ) ;
#144 = ORIENTED_EDGE ( 'NONE', *, *, #173, .T. ) ;
#145 = CARTESIAN_POINT ( 'NONE',  ( -0.1250000000000000000, 0.0000000000000000000, 0.1905255888325758096 ) ) ;
#146 = ORIENTED_EDGE ( 'NONE', *, *, #25, .T. ) ;
#147 = EDGE_CURVE ( 'NONE', #142, #33, #124, .T. ) ;
#148 = DIMENSIONAL_EXPONENTS ( 1.000000000000000000, 0.0000000000000000000, 0.0000000000000000000, 0.0000000000000000000, 0.0000000000000000000, 0.0000000000000000000, 0.0000000000000000000 ) ;
#149 = SHAPE_DEFINITION_REPRESENTATION ( #115, #193 ) ;
#150 = CARTESIAN_POINT ( 'NONE',  ( 0.1250000000000000000, 1.530808498934191509E-17, 0.1905255888325758096 ) ) ;
#151 = AXIS2_PLACEMENT_3D ( 'NONE', #98, #51, #102 ) ;
#152 = EDGE_CURVE ( 'NONE', #214, #125, #82, .T. ) ;
#153 = ORIENTED_EDGE ( 'NONE', *, *, #169, .T. ) ;
#154 = CIRCLE ( 'NONE', #151, 0.1250000000000000000 ) ;
#155 = DIRECTION ( 'NONE',  ( -0.0000000000000000000, -0.0000000000000000000, -1.000000000000000000 ) ) ;
#156 = ADVANCED_FACE ( 'NONE', ( #182 ), #166, .T. ) ;
#157 = ORIENTED_EDGE ( 'NONE', *, *, #97, .F. ) ;
#158 = SURFACE_STYLE_USAGE ( .BOTH. , #178 ) ;
#159 = CARTESIAN_POINT ( 'NONE',  ( 0.0000000000000000000, 0.0000000000000000000, 2.500000000000000000 ) ) ;
#160 = UNCERTAINTY_MEASURE_WITH_UNIT (LENGTH_MEASURE( 1.000000000000000082E-05 ), #52, 'distance_accuracy_value', 'NONE');
#161 = ORIENTED_EDGE ( 'NONE', *, *, #39, .F. ) ;
#162 =( GEOMETRIC_REPRESENTATION_CONTEXT ( 3 ) GLOBAL_UNCERTAINTY_ASSIGNED_CONTEXT ( ( #160 ) ) GLOBAL_UNIT_ASSIGNED_CONTEXT ( ( #52, #240, #66 ) ) REPRESENTATION_CONTEXT ( 'NONE', 'WORKASPACE' ) );
#163 = CARTESIAN_POINT ( 'NONE',  ( 0.01499999999999999944, 0.0000000000000000000, 0.0000000000000000000 ) ) ;
#164 = EDGE_LOOP ( 'NONE', ( #111, #144, #34, #121 ) ) ;
#165 = DIMENSIONAL_EXPONENTS ( 1.000000000000000000, 0.0000000000000000000, 0.0000000000000000000, 0.0000000000000000000, 0.0000000000000000000, 0.0000000000000000000, 0.0000000000000000000 ) ;
#166 = CONICAL_SURFACE ( 'NONE', #61, 0.1100000000000001948, 0.7853981633974517207 ) ;
#167 = AXIS2_PLACEMENT_3D ( 'NONE', #201, #176, #239 ) ;
#168 = DIRECTION ( 'NONE',  ( 1.000000000000000000, 0.0000000000000000000, 0.0000000000000000000 ) ) ;
#169 = EDGE_CURVE ( 'NONE', #248, #125, #94, .T. ) ;
#170 = DIMENSIONAL_EXPONENTS ( 1.000000000000000000, 0.0000000000000000000, 0.0000000000000000000, 0.0000000000000000000, 0.0000000000000000000, 0.0000000000000000000, 0.0000000000000000000 ) ;
#171 = AXIS2_PLACEMENT_3D ( 'NONE', #202, #89, #26 ) ;
#172 = PRESENTATION_LAYER_ASSIGNMENT (  '', '', ( #21 ) ) ;
#173 = EDGE_CURVE ( 'NONE', #62, #38, #154, .T. ) ;
#174 = CARTESIAN_POINT ( 'NONE',  ( -0.1100000000000001948, 0.0000000000000000000, 2.500000000000000000 ) ) ;
#175 = DIRECTION ( 'NONE',  ( -0.0000000000000000000, -0.0000000000000000000, -1.000000000000000000 ) ) ;
#176 = DIRECTION ( 'NONE',  ( 0.0000000000000000000, 0.0000000000000000000, 1.000000000000000000 ) ) ;
#177 = CYLINDRICAL_SURFACE ( 'NONE', #23, 0.1250000000000000000 ) ;
#178 = SURFACE_SIDE_STYLE ('',( #183 ) ) ;
#179 = ADVANCED_FACE ( 'NONE', ( #141 ), #106, .T. ) ;
#180 = FACE_OUTER_BOUND ( 'NONE', #11, .T. ) ;
#181 = EDGE_LOOP ( 'NONE', ( #186, #161, #153, #146 ) ) ;
#182 = FACE_OUTER_BOUND ( 'NONE', #232, .T. ) ;
#183 = SURFACE_STYLE_FILL_AREA ( #13 ) ;
#184 =( LENGTH_UNIT ( ) NAMED_UNIT ( * ) SI_UNIT ( $, .METRE. ) );
#185 = LENGTH_MEASURE_WITH_UNIT ( LENGTH_MEASURE( 0.02539999999999999897 ), #184 );
#186 = ORIENTED_EDGE ( 'NONE', *, *, #128, .F. ) ;
#187 = PRESENTATION_LAYER_ASSIGNMENT (  '', '', ( #192 ) ) ;
#188 = EDGE_CURVE ( 'NONE', #33, #38, #199, .T. ) ;
#189 = PRESENTATION_STYLE_ASSIGNMENT (( #74 ) ) ;
#190 = ADVANCED_FACE ( 'NONE', ( #67 ), #49, .F. ) ;
#191 = VECTOR ( 'NONE', #10, 39.37007874015748143 ) ;
#192 = STYLED_ITEM ( 'NONE', ( #189 ), #193 ) ;
#193 = ADVANCED_BREP_SHAPE_REPRESENTATION ( 'Micro_RSC-250-130', ( #3, #228 ), #83 ) ;
#194 = CARTESIAN_POINT ( 'NONE',  ( 0.0000000000000000000, 0.0000000000000000000, 2.485000000000000320 ) ) ;
#195 = DIRECTION ( 'NONE',  ( 1.000000000000000000, 0.0000000000000000000, 0.0000000000000000000 ) ) ;
#196 = ADVANCED_FACE ( 'NONE', ( #180 ), #101, .T. ) ;
#197 = AXIS2_PLACEMENT_3D ( 'NONE', #43, #5, #63 ) ;
#198 = EDGE_CURVE ( 'NONE', #38, #214, #230, .T. ) ;
#199 = LINE ( 'NONE', #174, #191 ) ;
#200 = DIRECTION ( 'NONE',  ( 0.0000000000000000000, 0.0000000000000000000, 1.000000000000000000 ) ) ;
#201 = CARTESIAN_POINT ( 'NONE',  ( 0.0000000000000000000, 0.0000000000000000000, 0.0000000000000000000 ) ) ;
#202 = CARTESIAN_POINT ( 'NONE',  ( 0.0000000000000000000, 0.0000000000000000000, 2.500000000000000000 ) ) ;
#203 = EDGE_CURVE ( 'NONE', #33, #142, #208, .T. ) ;
#204 =( NAMED_UNIT ( * ) SI_UNIT ( $, .STERADIAN. ) SOLID_ANGLE_UNIT ( ) );
#205 = CARTESIAN_POINT ( 'NONE',  ( 0.0000000000000000000, 0.0000000000000000000, 2.500000000000000000 ) ) ;
#206 = CARTESIAN_POINT ( 'NONE',  ( -0.1100000000000001948, 0.0000000000000000000, 2.500000000000000000 ) ) ;
#207 = CONICAL_SURFACE ( 'NONE', #136, 0.01499999999999999944, 0.5235987755983005920 ) ;
#208 = CIRCLE ( 'NONE', #237, 0.1100000000000001948 ) ;
#209 = DIRECTION ( 'NONE',  ( 1.000000000000000000, 0.0000000000000000000, 0.0000000000000000000 ) ) ;
#210 = DIRECTION ( 'NONE',  ( 0.0000000000000000000, 0.0000000000000000000, 1.000000000000000000 ) ) ;
#211 =( LENGTH_UNIT ( ) NAMED_UNIT ( * ) SI_UNIT ( $, .METRE. ) );
#212 = DIRECTION ( 'NONE',  ( 0.5000000000000013323, 0.0000000000000000000, 0.8660254037844377084 ) ) ;
#213 = SURFACE_STYLE_FILL_AREA ( #129 ) ;
#214 = VERTEX_POINT ( 'NONE', #145 ) ;
#215 = VECTOR ( 'NONE', #217, 39.37007874015748143 ) ;
#216 = LINE ( 'NONE', #236, #219 ) ;
#217 = DIRECTION ( 'NONE',  ( -0.0000000000000000000, -0.0000000000000000000, -1.000000000000000000 ) ) ;
#218 = DIRECTION ( 'NONE',  ( 0.0000000000000000000, 0.0000000000000000000, 1.000000000000000000 ) ) ;
#219 = VECTOR ( 'NONE', #64, 39.37007874015748854 ) ;
#220 = ADVANCED_FACE ( 'NONE', ( #112 ), #42, .T. ) ;
#221 = PRODUCT_DEFINITION_CONTEXT ( 'detailed design', #54, 'design' ) ;
#222 = DIRECTION ( 'NONE',  ( 0.0000000000000000000, 0.0000000000000000000, 1.000000000000000000 ) ) ;
#223 = ORIENTED_EDGE ( 'NONE', *, *, #203, .T. ) ;
#224 = ORIENTED_EDGE ( 'NONE', *, *, #147, .T. ) ;
#225 = CARTESIAN_POINT ( 'NONE',  ( 0.01499999999999999944, 0.0000000000000000000, 0.0000000000000000000 ) ) ;
#226 = LINE ( 'NONE', #118, #14 ) ;
#227 = AXIS2_PLACEMENT_3D ( 'NONE', #59, #110, #231 ) ;
#228 = AXIS2_PLACEMENT_3D ( 'NONE', #84, #222, #241 ) ;
#229 = COLOUR_RGB ( '',0.7921568627450980005, 0.8196078431372548767, 0.9333333333333333481 ) ;
#230 = LINE ( 'NONE', #18, #7 ) ;
#231 = DIRECTION ( 'NONE',  ( -1.000000000000000000, 0.0000000000000000000, 0.0000000000000000000 ) ) ;
#232 = EDGE_LOOP ( 'NONE', ( #130, #27, #35, #233 ) ) ;
#233 = ORIENTED_EDGE ( 'NONE', *, *, #188, .F. ) ;
#234 = DIRECTION ( 'NONE',  ( -0.0000000000000000000, -0.0000000000000000000, -1.000000000000000000 ) ) ;
#235 = ORIENTED_EDGE ( 'NONE', *, *, #198, .F. ) ;
#236 = CARTESIAN_POINT ( 'NONE',  ( -0.01499999999999999944, 1.836970198721029595E-18, 0.0000000000000000000 ) ) ;
#237 = AXIS2_PLACEMENT_3D ( 'NONE', #91, #17, #73 ) ;
#238 =( NAMED_UNIT ( * ) PLANE_ANGLE_UNIT ( ) SI_UNIT ( $, .RADIAN. ) );
#239 = DIRECTION ( 'NONE',  ( 1.000000000000000000, 0.0000000000000000000, -0.0000000000000000000 ) ) ;
#240 =( NAMED_UNIT ( * ) PLANE_ANGLE_UNIT ( ) SI_UNIT ( $, .RADIAN. ) );
#241 = DIRECTION ( 'NONE',  ( 1.000000000000000000, 0.0000000000000000000, 0.0000000000000000000 ) ) ;
#242 = EDGE_LOOP ( 'NONE', ( #87, #57, #140, #235 ) ) ;
#243 = ORIENTED_EDGE ( 'NONE', *, *, #169, .F. ) ;
#244 = DIRECTION ( 'NONE',  ( 0.0000000000000000000, 0.0000000000000000000, 1.000000000000000000 ) ) ;
#245 =( NAMED_UNIT ( * ) PLANE_ANGLE_UNIT ( ) SI_UNIT ( $, .RADIAN. ) );
#246 = DIRECTION ( 'NONE',  ( 0.0000000000000000000, 0.0000000000000000000, -1.000000000000000000 ) ) ;
#247 = CIRCLE ( 'NONE', #41, 0.01499999999999999944 ) ;
#248 = VERTEX_POINT ( 'NONE', #225 ) ;
#249 = ORIENTED_EDGE ( 'NONE', *, *, #128, .T. ) ;
ENDSEC;
END-ISO-10303-21;
