ISO-10303-21;
HEADER;
FILE_DESCRIPTION (( 'STEP AP214' ),
    '1' );
FILE_NAME ('59792.STEP',
    '2023-07-24T15:40:13',
    ( '' ),
    ( '' ),
    'SwSTEP 2.0',
    'SolidWorks 2023',
    '' );
FILE_SCHEMA (( 'AUTOMOTIVE_DESIGN' ));
ENDSEC;

DATA;
#1 = SURFACE_SIDE_STYLE ('',( #30 ) ) ;
#2 = VERTEX_POINT ( 'NONE', #86 ) ;
#3 = EDGE_LOOP ( 'NONE', ( #190, #110 ) ) ;
#4 = SHAPE_DEFINITION_REPRESENTATION ( #347, #140 ) ;
#5 = CLOSED_SHELL ( 'NONE', ( #319, #186, #294, #203 ) ) ;
#6 = ADVANCED_FACE ( 'NONE', ( #170 ), #266, .T. ) ;
#7 = CARTESIAN_POINT ( 'NONE',  ( -4.408728476930471644E-15, 125.0000000000000000, 0.000000000000000000 ) ) ;
#8 = MECHANICAL_DESIGN_GEOMETRIC_PRESENTATION_REPRESENTATION (  '', ( #51 ), #115 ) ;
#9 = FILL_AREA_STYLE ('',( #244 ) ) ;
#10 = CARTESIAN_POINT ( 'NONE',  ( 7.155734338404330842E-15, 64.00000000000000000, 0.000000000000000000 ) ) ;
#11 = CARTESIAN_POINT ( 'NONE',  ( 0.000000000000000000, 1.000000000000000000, 0.000000000000000000 ) ) ;
#12 = EDGE_CURVE ( 'NONE', #343, #256, #218, .T. ) ;
#13 = PRESENTATION_STYLE_ASSIGNMENT (( #353 ) ) ;
#14 = SURFACE_STYLE_FILL_AREA ( #253 ) ;
#15 = MECHANICAL_DESIGN_GEOMETRIC_PRESENTATION_REPRESENTATION (  '', ( #249 ), #80 ) ;
#16 = DIRECTION ( 'NONE',  ( 0.000000000000000000, -0.000000000000000000, 1.000000000000000000 ) ) ;
#17 = PRESENTATION_STYLE_ASSIGNMENT (( #159 ) ) ;
#18 = UNCERTAINTY_MEASURE_WITH_UNIT (LENGTH_MEASURE( 1.000000000000000082E-05 ), #54, 'distance_accuracy_value', 'NONE');
#19 = ORIENTED_EDGE ( 'NONE', *, *, #276, .T. ) ;
#20 = STYLED_ITEM ( 'NONE', ( #197 ), #88 ) ;
#21 = FACE_OUTER_BOUND ( 'NONE', #229, .T. ) ;
#22 = EDGE_CURVE ( 'NONE', #68, #2, #98, .T. ) ;
#23 = AXIS2_PLACEMENT_3D ( 'NONE', #137, #169, #263 ) ;
#24 = DIRECTION ( 'NONE',  ( 0.000000000000000000, 0.000000000000000000, -1.000000000000000000 ) ) ;
#25 = DIRECTION ( 'NONE',  ( -0.000000000000000000, -1.000000000000000000, -0.000000000000000000 ) ) ;
#26 = ORIENTED_EDGE ( 'NONE', *, *, #78, .T. ) ;
#27 = DIRECTION ( 'NONE',  ( 0.000000000000000000, 0.000000000000000000, -1.000000000000000000 ) ) ;
#28 = ORIENTED_EDGE ( 'NONE', *, *, #118, .F. ) ;
#29 = AXIS2_PLACEMENT_3D ( 'NONE', #10, #42, #153 ) ;
#30 = SURFACE_STYLE_FILL_AREA ( #168 ) ;
#31 = ORIENTED_EDGE ( 'NONE', *, *, #22, .F. ) ;
#32 = DIRECTION ( 'NONE',  ( -1.000000000000000000, 0.000000000000000000, 0.000000000000000000 ) ) ;
#33 = FILL_AREA_STYLE ('',( #66 ) ) ;
#34 = ADVANCED_FACE ( 'NONE', ( #152 ), #40, .T. ) ;
#35 = FACE_OUTER_BOUND ( 'NONE', #198, .T. ) ;
#36 = ORIENTED_EDGE ( 'NONE', *, *, #330, .T. ) ;
#37 = VECTOR ( 'NONE', #260, 1000.000000000000000 ) ;
#38 =( LENGTH_UNIT ( ) NAMED_UNIT ( * ) SI_UNIT ( .MILLI., .METRE. ) );
#39 = AXIS2_PLACEMENT_3D ( 'NONE', #178, #329, #73 ) ;
#40 = PLANE ( 'NONE',  #279 ) ;
#41 = CARTESIAN_POINT ( 'NONE',  ( 1.408343819019456176E-15, 1.000000000000000000, 11.50000000000000000 ) ) ;
#42 = DIRECTION ( 'NONE',  ( -1.895813576284393923E-16, 1.000000000000000000, -0.000000000000000000 ) ) ;
#43 = DIRECTION ( 'NONE',  ( -1.895813576284393923E-16, 1.000000000000000000, -0.000000000000000000 ) ) ;
#44 = DIRECTION ( 'NONE',  ( -0.000000000000000000, -1.000000000000000000, -0.000000000000000000 ) ) ;
#45 = SURFACE_STYLE_USAGE ( .BOTH. , #299 ) ;
#46 = STYLED_ITEM ( 'NONE', ( #357 ), #76 ) ;
#47 = CIRCLE ( 'NONE', #339, 12.50000000000000000 ) ;
#48 = DIRECTION ( 'NONE',  ( -0.000000000000000000, -1.000000000000000000, -0.000000000000000000 ) ) ;
#49 = ORIENTED_EDGE ( 'NONE', *, *, #223, .T. ) ;
#50 = SURFACE_SIDE_STYLE ('',( #335 ) ) ;
#51 = STYLED_ITEM ( 'NONE', ( #336 ), #130 ) ;
#52 = CARTESIAN_POINT ( 'NONE',  ( 1.530808498934191521E-15, 64.00000000000000000, 12.50000000000000000 ) ) ;
#53 =( NAMED_UNIT ( * ) PLANE_ANGLE_UNIT ( ) SI_UNIT ( $, .RADIAN. ) );
#54 =( LENGTH_UNIT ( ) NAMED_UNIT ( * ) SI_UNIT ( .MILLI., .METRE. ) );
#55 = PRESENTATION_LAYER_ASSIGNMENT (  '', '', ( #46 ) ) ;
#56 = CIRCLE ( 'NONE', #332, 12.50000000000000533 ) ;
#57 = EDGE_CURVE ( 'NONE', #256, #343, #331, .T. ) ;
#58 = FACE_OUTER_BOUND ( 'NONE', #3, .T. ) ;
#59 = ORIENTED_EDGE ( 'NONE', *, *, #104, .F. ) ;
#60 = DIRECTION ( 'NONE',  ( 1.895813576284393923E-16, -1.000000000000000000, 0.000000000000000000 ) ) ;
#61 = ORIENTED_EDGE ( 'NONE', *, *, #276, .F. ) ;
#62 = CARTESIAN_POINT ( 'NONE',  ( 0.000000000000000000, 0.000000000000000000, 0.000000000000000000 ) ) ;
#63 = ORIENTED_EDGE ( 'NONE', *, *, #104, .T. ) ;
#64 = AXIS2_PLACEMENT_3D ( 'NONE', #204, #43, #94 ) ;
#65 = CYLINDRICAL_SURFACE ( 'NONE', #201, 12.50000000000000000 ) ;
#66 = FILL_AREA_STYLE_COLOUR ( '', #338 ) ;
#67 = DIRECTION ( 'NONE',  ( 1.000000000000000000, 0.000000000000000000, -1.224646799147353207E-16 ) ) ;
#68 = VERTEX_POINT ( 'NONE', #328 ) ;
#69 = DIRECTION ( 'NONE',  ( -1.000000000000000000, 0.000000000000000000, 0.000000000000000000 ) ) ;
#70 =( NAMED_UNIT ( * ) SI_UNIT ( $, .STERADIAN. ) SOLID_ANGLE_UNIT ( ) );
#71 = CARTESIAN_POINT ( 'NONE',  ( 1.530808498934191521E-15, 1.000000000000000000, 12.50000000000000000 ) ) ;
#72 = FILL_AREA_STYLE_COLOUR ( '', #222 ) ;
#73 = DIRECTION ( 'NONE',  ( 1.000000000000000000, 0.000000000000000000, 0.000000000000000000 ) ) ;
#74 =( NAMED_UNIT ( * ) PLANE_ANGLE_UNIT ( ) SI_UNIT ( $, .RADIAN. ) );
#75 = COLOUR_RGB ( '',0.7921568627450980005, 0.8196078431372548767, 0.9333333333333333481 ) ;
#76 = ADVANCED_FACE ( 'NONE', ( #278 ), #344, .T. ) ;
#77 = SURFACE_STYLE_USAGE ( .BOTH. , #50 ) ;
#78 = EDGE_CURVE ( 'NONE', #282, #172, #188, .T. ) ;
#79 = SURFACE_STYLE_USAGE ( .BOTH. , #196 ) ;
#80 =( GEOMETRIC_REPRESENTATION_CONTEXT ( 3 ) GLOBAL_UNCERTAINTY_ASSIGNED_CONTEXT ( ( #139 ) ) GLOBAL_UNIT_ASSIGNED_CONTEXT ( ( #122, #315, #205 ) ) REPRESENTATION_CONTEXT ( 'NONE', 'WORKASPACE' ) );
#81 = AXIS2_PLACEMENT_3D ( 'NONE', #206, #113, #141 ) ;
#82 = SURFACE_STYLE_FILL_AREA ( #221 ) ;
#83 =( NAMED_UNIT ( * ) SI_UNIT ( $, .STERADIAN. ) SOLID_ANGLE_UNIT ( ) );
#84 = DIRECTION ( 'NONE',  ( -1.895813576284393923E-16, 1.000000000000000000, -0.000000000000000000 ) ) ;
#85 = MANIFOLD_SOLID_BREP ( 'Revolve - Cutting Edge', #161 ) ;
#86 = CARTESIAN_POINT ( 'NONE',  ( -12.50000000000001066, 125.0000000000000000, 0.000000000000000000 ) ) ;
#87 = CIRCLE ( 'NONE', #300, 11.50000000000000000 ) ;
#88 = MANIFOLD_SOLID_BREP ( 'Revolve - Tool Body (Straight Shanked)', #5 ) ;
#89 = CYLINDRICAL_SURFACE ( 'NONE', #64, 12.50000000000000000 ) ;
#90 = PLANE ( 'NONE',  #306 ) ;
#91 = ORIENTED_EDGE ( 'NONE', *, *, #230, .F. ) ;
#92 = EDGE_LOOP ( 'NONE', ( #238, #120, #19, #31 ) ) ;
#93 = VECTOR ( 'NONE', #290, 1000.000000000000000 ) ;
#94 = DIRECTION ( 'NONE',  ( -1.000000000000000000, 0.000000000000000000, 0.000000000000000000 ) ) ;
#95 =( NAMED_UNIT ( * ) PLANE_ANGLE_UNIT ( ) SI_UNIT ( $, .RADIAN. ) );
#96 = SURFACE_STYLE_FILL_AREA ( #9 ) ;
#97 = CARTESIAN_POINT ( 'NONE',  ( 0.000000000000000000, 1.000000000000000000, 0.000000000000000000 ) ) ;
#98 = CIRCLE ( 'NONE', #305, 12.50000000000000533 ) ;
#99 = CARTESIAN_POINT ( 'NONE',  ( 7.155734338404330842E-15, 64.00000000000000000, 0.000000000000000000 ) ) ;
#100 = DIRECTION ( 'NONE',  ( -1.000000000000000000, 0.000000000000000000, 0.000000000000000000 ) ) ;
#101 = CARTESIAN_POINT ( 'NONE',  ( 0.000000000000000000, 0.000000000000000000, 0.000000000000000000 ) ) ;
#102 = PRESENTATION_STYLE_ASSIGNMENT (( #45 ) ) ;
#103 =( LENGTH_UNIT ( ) NAMED_UNIT ( * ) SI_UNIT ( .MILLI., .METRE. ) );
#104 = EDGE_CURVE ( 'NONE', #289, #256, #310, .T. ) ;
#105 =( NAMED_UNIT ( * ) SI_UNIT ( $, .STERADIAN. ) SOLID_ANGLE_UNIT ( ) );
#106 = AXIS2_PLACEMENT_3D ( 'NONE', #97, #326, #183 ) ;
#107 = AXIS2_PLACEMENT_3D ( 'NONE', #41, #67, #243 ) ;
#108 = CARTESIAN_POINT ( 'NONE',  ( 0.000000000000000000, 0.000000000000000000, 0.000000000000000000 ) ) ;
#109 = FILL_AREA_STYLE_COLOUR ( '', #232 ) ;
#110 = ORIENTED_EDGE ( 'NONE', *, *, #334, .F. ) ;
#111 = FACE_OUTER_BOUND ( 'NONE', #268, .T. ) ;
#112 = VERTEX_POINT ( 'NONE', #52 ) ;
#113 = DIRECTION ( 'NONE',  ( -0.000000000000000000, -1.000000000000000000, -0.000000000000000000 ) ) ;
#114 = ORIENTED_EDGE ( 'NONE', *, *, #246, .T. ) ;
#115 =( GEOMETRIC_REPRESENTATION_CONTEXT ( 3 ) GLOBAL_UNCERTAINTY_ASSIGNED_CONTEXT ( ( #164 ) ) GLOBAL_UNIT_ASSIGNED_CONTEXT ( ( #340, #53, #83 ) ) REPRESENTATION_CONTEXT ( 'NONE', 'WORKASPACE' ) );
#116 = CARTESIAN_POINT ( 'NONE',  ( 12.50000000000000000, 125.0000000000000000, 0.000000000000000000 ) ) ;
#117 = CARTESIAN_POINT ( 'NONE',  ( 0.000000000000000000, 0.000000000000000000, 0.000000000000000000 ) ) ;
#118 = EDGE_CURVE ( 'NONE', #136, #317, #87, .T. ) ;
#119 = CARTESIAN_POINT ( 'NONE',  ( 12.50000000000000000, 64.00000000000000000, 1.530808498934191916E-15 ) ) ;
#120 = ORIENTED_EDGE ( 'NONE', *, *, #334, .T. ) ;
#121 = CARTESIAN_POINT ( 'NONE',  ( 0.000000000000000000, 1.000000000000000000, -12.50000000000000000 ) ) ;
#122 =( LENGTH_UNIT ( ) NAMED_UNIT ( * ) SI_UNIT ( .MILLI., .METRE. ) );
#123 = MECHANICAL_DESIGN_GEOMETRIC_PRESENTATION_REPRESENTATION (  '', ( #286 ), #356 ) ;
#124 = FACE_OUTER_BOUND ( 'NONE', #160, .T. ) ;
#125 = FILL_AREA_STYLE_COLOUR ( '', #209 ) ;
#126 = DIRECTION ( 'NONE',  ( -1.000000000000000000, 0.000000000000000000, 0.000000000000000000 ) ) ;
#127 =( NAMED_UNIT ( * ) PLANE_ANGLE_UNIT ( ) SI_UNIT ( $, .RADIAN. ) );
#128 = DIRECTION ( 'NONE',  ( 0.000000000000000000, 0.000000000000000000, -1.000000000000000000 ) ) ;
#129 = DIRECTION ( 'NONE',  ( 0.000000000000000000, -1.000000000000000000, -0.000000000000000000 ) ) ;
#130 = ADVANCED_FACE ( 'NONE', ( #21 ), #234, .T. ) ;
#131 = DIRECTION ( 'NONE',  ( 0.000000000000000000, 0.000000000000000000, -1.000000000000000000 ) ) ;
#132 = AXIS2_PLACEMENT_3D ( 'NONE', #214, #48, #128 ) ;
#133 = VECTOR ( 'NONE', #84, 1000.000000000000000 ) ;
#134 = DIRECTION ( 'NONE',  ( -0.000000000000000000, -1.000000000000000000, -0.000000000000000000 ) ) ;
#135 = UNCERTAINTY_MEASURE_WITH_UNIT (LENGTH_MEASURE( 1.000000000000000082E-05 ), #103, 'distance_accuracy_value', 'NONE');
#136 = VERTEX_POINT ( 'NONE', #165 ) ;
#137 = CARTESIAN_POINT ( 'NONE',  ( 7.155734338404329264E-15, 64.00000000000000000, 0.000000000000000000 ) ) ;
#138 = PRESENTATION_STYLE_ASSIGNMENT (( #210 ) ) ;
#139 = UNCERTAINTY_MEASURE_WITH_UNIT (LENGTH_MEASURE( 1.000000000000000082E-05 ), #122, 'distance_accuracy_value', 'NONE');
#140 = ADVANCED_BREP_SHAPE_REPRESENTATION ( '59792', ( #85, #88, #39 ), #360 ) ;
#141 = DIRECTION ( 'NONE',  ( 0.000000000000000000, 0.000000000000000000, -1.000000000000000000 ) ) ;
#142 = EDGE_CURVE ( 'NONE', #112, #343, #144, .T. ) ;
#143 = PRESENTATION_LAYER_ASSIGNMENT (  '', '', ( #194 ) ) ;
#144 = LINE ( 'NONE', #370, #314 ) ;
#145 = ORIENTED_EDGE ( 'NONE', *, *, #142, .T. ) ;
#146 = DIRECTION ( 'NONE',  ( 0.000000000000000000, 0.000000000000000000, 1.000000000000000000 ) ) ;
#147 = SURFACE_SIDE_STYLE ('',( #350 ) ) ;
#148 = EDGE_CURVE ( 'NONE', #172, #68, #366, .T. ) ;
#149 = ORIENTED_EDGE ( 'NONE', *, *, #330, .F. ) ;
#150 = MECHANICAL_DESIGN_GEOMETRIC_PRESENTATION_REPRESENTATION (  '', ( #20 ), #199 ) ;
#151 =( NAMED_UNIT ( * ) SI_UNIT ( $, .STERADIAN. ) SOLID_ANGLE_UNIT ( ) );
#152 = FACE_OUTER_BOUND ( 'NONE', #211, .T. ) ;
#153 = DIRECTION ( 'NONE',  ( -1.000000000000000000, 0.000000000000000000, 0.000000000000000000 ) ) ;
#154 = FILL_AREA_STYLE ('',( #72 ) ) ;
#155 = PRESENTATION_LAYER_ASSIGNMENT (  '', '', ( #249 ) ) ;
#156 = APPLICATION_PROTOCOL_DEFINITION ( 'draft international standard', 'automotive_design', 1998, #195 ) ;
#157 = COLOUR_RGB ( '',1.000000000000000000, 0.000000000000000000, 0.000000000000000000 ) ;
#158 = UNCERTAINTY_MEASURE_WITH_UNIT (LENGTH_MEASURE( 1.000000000000000082E-05 ), #162, 'distance_accuracy_value', 'NONE');
#159 = SURFACE_STYLE_USAGE ( .BOTH. , #254 ) ;
#160 = EDGE_LOOP ( 'NONE', ( #26, #292, #368, #61 ) ) ;
#161 = CLOSED_SHELL ( 'NONE', ( #240, #130, #307, #76, #6, #34 ) ) ;
#162 =( LENGTH_UNIT ( ) NAMED_UNIT ( * ) SI_UNIT ( .MILLI., .METRE. ) );
#163 = DIRECTION ( 'NONE',  ( 0.000000000000000000, 0.000000000000000000, -1.000000000000000000 ) ) ;
#164 = UNCERTAINTY_MEASURE_WITH_UNIT (LENGTH_MEASURE( 1.000000000000000082E-05 ), #340, 'distance_accuracy_value', 'NONE');
#165 = CARTESIAN_POINT ( 'NONE',  ( 0.000000000000000000, 0.000000000000000000, -11.50000000000000000 ) ) ;
#166 =( NAMED_UNIT ( * ) PLANE_ANGLE_UNIT ( ) SI_UNIT ( $, .RADIAN. ) );
#167 = CIRCLE ( 'NONE', #293, 1.000000000000000888 ) ;
#168 = FILL_AREA_STYLE ('',( #171 ) ) ;
#169 = DIRECTION ( 'NONE',  ( -1.895813576284393923E-16, 1.000000000000000000, 0.000000000000000000 ) ) ;
#170 = FACE_OUTER_BOUND ( 'NONE', #233, .T. ) ;
#171 = FILL_AREA_STYLE_COLOUR ( '', #301 ) ;
#172 = VERTEX_POINT ( 'NONE', #119 ) ;
#173 = COLOUR_RGB ( '',0.7921568627450980005, 0.8196078431372548767, 0.9333333333333333481 ) ;
#174 = CIRCLE ( 'NONE', #250, 12.49999999999999289 ) ;
#175 = DIRECTION ( 'NONE',  ( -0.000000000000000000, -1.000000000000000000, -0.000000000000000000 ) ) ;
#176 = PRODUCT ( '59792', '59792', '', ( #297 ) ) ;
#177 = ORIENTED_EDGE ( 'NONE', *, *, #258, .F. ) ;
#178 = CARTESIAN_POINT ( 'NONE',  ( 0.000000000000000000, 0.000000000000000000, 0.000000000000000000 ) ) ;
#179 = ORIENTED_EDGE ( 'NONE', *, *, #118, .T. ) ;
#180 = CARTESIAN_POINT ( 'NONE',  ( 1.469576158976823947E-15, 0.000000000000000000, 11.50000000000000000 ) ) ;
#181 = PRESENTATION_LAYER_ASSIGNMENT (  '', '', ( #286 ) ) ;
#182 = STYLED_ITEM ( 'NONE', ( #138 ), #240 ) ;
#183 = DIRECTION ( 'NONE',  ( 0.000000000000000000, 0.000000000000000000, -1.000000000000000000 ) ) ;
#184 = APPLICATION_CONTEXT ( 'automotive_design' ) ;
#185 = SURFACE_SIDE_STYLE ('',( #96 ) ) ;
#186 = ADVANCED_FACE ( 'NONE', ( #58 ), #291, .F. ) ;
#187 = DIRECTION ( 'NONE',  ( -1.895813576284393923E-16, 1.000000000000000000, -0.000000000000000000 ) ) ;
#188 = CIRCLE ( 'NONE', #29, 12.49999999999999289 ) ;
#189 = CIRCLE ( 'NONE', #242, 11.50000000000000000 ) ;
#190 = ORIENTED_EDGE ( 'NONE', *, *, #78, .F. ) ;
#191 = FILL_AREA_STYLE_COLOUR ( '', #75 ) ;
#192 = PRODUCT_DEFINITION_CONTEXT ( 'detailed design', #184, 'design' ) ;
#193 = AXIS2_PLACEMENT_3D ( 'NONE', #117, #296, #248 ) ;
#194 = STYLED_ITEM ( 'NONE', ( #13 ), #307 ) ;
#195 = APPLICATION_CONTEXT ( 'automotive_design' ) ;
#196 = SURFACE_SIDE_STYLE ('',( #82 ) ) ;
#197 = PRESENTATION_STYLE_ASSIGNMENT (( #77 ) ) ;
#198 = EDGE_LOOP ( 'NONE', ( #179, #236 ) ) ;
#199 =( GEOMETRIC_REPRESENTATION_CONTEXT ( 3 ) GLOBAL_UNCERTAINTY_ASSIGNED_CONTEXT ( ( #158 ) ) GLOBAL_UNIT_ASSIGNED_CONTEXT ( ( #162, #257, #362 ) ) REPRESENTATION_CONTEXT ( 'NONE', 'WORKASPACE' ) );
#200 = SURFACE_STYLE_USAGE ( .BOTH. , #147 ) ;
#201 = AXIS2_PLACEMENT_3D ( 'NONE', #62, #175, #313 ) ;
#202 = PRODUCT_DEFINITION_FORMATION_WITH_SPECIFIED_SOURCE ( 'ANY', '', #176, .NOT_KNOWN. ) ;
#203 = ADVANCED_FACE ( 'NONE', ( #111 ), #90, .F. ) ;
#204 = CARTESIAN_POINT ( 'NONE',  ( -4.408728476930469278E-15, 124.9999999999999858, 0.000000000000000000 ) ) ;
#205 =( NAMED_UNIT ( * ) SI_UNIT ( $, .STERADIAN. ) SOLID_ANGLE_UNIT ( ) );
#206 = CARTESIAN_POINT ( 'NONE',  ( 0.000000000000000000, 64.00000000000000000, 0.000000000000000000 ) ) ;
#207 = ORIENTED_EDGE ( 'NONE', *, *, #57, .T. ) ;
#208 = ORIENTED_EDGE ( 'NONE', *, *, #12, .F. ) ;
#209 = COLOUR_RGB ( '',1.000000000000000000, 0.000000000000000000, 0.000000000000000000 ) ;
#210 = SURFACE_STYLE_USAGE ( .BOTH. , #1 ) ;
#211 = EDGE_LOOP ( 'NONE', ( #346, #177 ) ) ;
#212 = DIRECTION ( 'NONE',  ( 0.000000000000000000, 0.000000000000000000, -1.000000000000000000 ) ) ;
#213 = AXIS2_PLACEMENT_3D ( 'NONE', #302, #325, #215 ) ;
#214 = CARTESIAN_POINT ( 'NONE',  ( 0.000000000000000000, 1.000000000000000000, 0.000000000000000000 ) ) ;
#215 = DIRECTION ( 'NONE',  ( -1.000000000000000000, 0.000000000000000000, 0.000000000000000000 ) ) ;
#216 = UNCERTAINTY_MEASURE_WITH_UNIT (LENGTH_MEASURE( 1.000000000000000082E-05 ), #38, 'distance_accuracy_value', 'NONE');
#217 = SURFACE_STYLE_FILL_AREA ( #154 ) ;
#218 = CIRCLE ( 'NONE', #132, 12.50000000000000000 ) ;
#219 = MECHANICAL_DESIGN_GEOMETRIC_PRESENTATION_REPRESENTATION (  '', ( #182 ), #322 ) ;
#220 =( LENGTH_UNIT ( ) NAMED_UNIT ( * ) SI_UNIT ( .MILLI., .METRE. ) );
#221 = FILL_AREA_STYLE ('',( #109 ) ) ;
#222 = COLOUR_RGB ( '',1.000000000000000000, 0.000000000000000000, 0.000000000000000000 ) ;
#223 = EDGE_CURVE ( 'NONE', #289, #112, #225, .T. ) ;
#224 = FILL_AREA_STYLE_COLOUR ( '', #173 ) ;
#225 = CIRCLE ( 'NONE', #81, 12.50000000000000000 ) ;
#226 = UNCERTAINTY_MEASURE_WITH_UNIT (LENGTH_MEASURE( 1.000000000000000082E-05 ), #220, 'distance_accuracy_value', 'NONE');
#227 = ORIENTED_EDGE ( 'NONE', *, *, #246, .F. ) ;
#228 = CARTESIAN_POINT ( 'NONE',  ( 0.000000000000000000, 0.000000000000000000, 0.000000000000000000 ) ) ;
#229 = EDGE_LOOP ( 'NONE', ( #207, #36, #28, #227 ) ) ;
#230 = EDGE_CURVE ( 'NONE', #317, #136, #189, .T. ) ;
#231 = CARTESIAN_POINT ( 'NONE',  ( 0.000000000000000000, 64.00000000000000000, -12.50000000000000000 ) ) ;
#232 = COLOUR_RGB ( '',1.000000000000000000, 0.000000000000000000, 0.000000000000000000 ) ;
#233 = EDGE_LOOP ( 'NONE', ( #365, #241, #63, #208 ) ) ;
#234 = TOROIDAL_SURFACE ( 'NONE', #261, 11.50000000000000000, 1.000000000000000444 ) ;
#235 = FACE_OUTER_BOUND ( 'NONE', #321, .T. ) ;
#236 = ORIENTED_EDGE ( 'NONE', *, *, #230, .T. ) ;
#237 = CARTESIAN_POINT ( 'NONE',  ( 0.000000000000000000, 1.000000000000000000, 0.000000000000000000 ) ) ;
#238 = ORIENTED_EDGE ( 'NONE', *, *, #148, .F. ) ;
#239 = CARTESIAN_POINT ( 'NONE',  ( 0.000000000000000000, 64.00000000000000000, 0.000000000000000000 ) ) ;
#240 = ADVANCED_FACE ( 'NONE', ( #235 ), #65, .T. ) ;
#241 = ORIENTED_EDGE ( 'NONE', *, *, #258, .T. ) ;
#242 = AXIS2_PLACEMENT_3D ( 'NONE', #228, #318, #27 ) ;
#243 = DIRECTION ( 'NONE',  ( -1.224646799147353454E-16, 0.000000000000000000, -1.000000000000000000 ) ) ;
#244 = FILL_AREA_STYLE_COLOUR ( '', #157 ) ;
#245 = CARTESIAN_POINT ( 'NONE',  ( 0.000000000000000000, 64.00000000000000000, 0.000000000000000000 ) ) ;
#246 = EDGE_CURVE ( 'NONE', #256, #136, #167, .T. ) ;
#247 = CYLINDRICAL_SURFACE ( 'NONE', #213, 12.50000000000000000 ) ;
#248 = DIRECTION ( 'NONE',  ( 0.000000000000000000, 0.000000000000000000, -1.000000000000000000 ) ) ;
#249 = STYLED_ITEM ( 'NONE', ( #269 ), #6 ) ;
#250 = AXIS2_PLACEMENT_3D ( 'NONE', #99, #252, #69 ) ;
#251 = SURFACE_SIDE_STYLE ('',( #14 ) ) ;
#252 = DIRECTION ( 'NONE',  ( -1.895813576284393923E-16, 1.000000000000000000, -0.000000000000000000 ) ) ;
#253 = FILL_AREA_STYLE ('',( #125 ) ) ;
#254 = SURFACE_SIDE_STYLE ('',( #285 ) ) ;
#255 = PRESENTATION_LAYER_ASSIGNMENT (  '', '', ( #272 ) ) ;
#256 = VERTEX_POINT ( 'NONE', #121 ) ;
#257 =( NAMED_UNIT ( * ) PLANE_ANGLE_UNIT ( ) SI_UNIT ( $, .RADIAN. ) );
#258 = EDGE_CURVE ( 'NONE', #112, #289, #47, .T. ) ;
#259 = MECHANICAL_DESIGN_GEOMETRIC_PRESENTATION_REPRESENTATION (  '', ( #46 ), #352 ) ;
#260 = DIRECTION ( 'NONE',  ( -0.000000000000000000, -1.000000000000000000, -0.000000000000000000 ) ) ;
#261 = AXIS2_PLACEMENT_3D ( 'NONE', #237, #264, #348 ) ;
#262 =( NAMED_UNIT ( * ) SI_UNIT ( $, .STERADIAN. ) SOLID_ANGLE_UNIT ( ) );
#263 = DIRECTION ( 'NONE',  ( -1.000000000000000000, -1.895813576284393923E-16, 0.000000000000000000 ) ) ;
#264 = DIRECTION ( 'NONE',  ( -0.000000000000000000, -1.000000000000000000, -0.000000000000000000 ) ) ;
#265 = PRESENTATION_LAYER_ASSIGNMENT (  '', '', ( #51 ) ) ;
#266 = CYLINDRICAL_SURFACE ( 'NONE', #193, 12.50000000000000000 ) ;
#267 = CARTESIAN_POINT ( 'NONE',  ( 12.49999999999999467, 124.9999999999999858, 1.530808498934191521E-15 ) ) ;
#268 = EDGE_LOOP ( 'NONE', ( #349, #320 ) ) ;
#269 = PRESENTATION_STYLE_ASSIGNMENT (( #200 ) ) ;
#270 = APPLICATION_PROTOCOL_DEFINITION ( 'draft international standard', 'automotive_design', 1998, #184 ) ;
#271 =( LENGTH_UNIT ( ) NAMED_UNIT ( * ) SI_UNIT ( .MILLI., .METRE. ) );
#272 = STYLED_ITEM ( 'NONE', ( #102 ), #34 ) ;
#273 = CIRCLE ( 'NONE', #107, 1.000000000000000888 ) ;
#274 =( LENGTH_UNIT ( ) NAMED_UNIT ( * ) SI_UNIT ( .MILLI., .METRE. ) );
#275 = SURFACE_STYLE_USAGE ( .BOTH. , #251 ) ;
#276 = EDGE_CURVE ( 'NONE', #282, #2, #364, .T. ) ;
#277 = CARTESIAN_POINT ( 'NONE',  ( -4.408728476930471644E-15, 125.0000000000000000, 0.000000000000000000 ) ) ;
#278 = FACE_OUTER_BOUND ( 'NONE', #298, .T. ) ;
#279 = AXIS2_PLACEMENT_3D ( 'NONE', #245, #304, #16 ) ;
#280 = PLANE ( 'NONE',  #327 ) ;
#281 = CARTESIAN_POINT ( 'NONE',  ( 0.000000000000000000, 0.000000000000000000, -12.50000000000000000 ) ) ;
#282 = VERTEX_POINT ( 'NONE', #288 ) ;
#283 = MECHANICAL_DESIGN_GEOMETRIC_PRESENTATION_REPRESENTATION (  '', ( #272 ), #309 ) ;
#284 = MECHANICAL_DESIGN_GEOMETRIC_PRESENTATION_REPRESENTATION (  '', ( #194 ), #287 ) ;
#285 = SURFACE_STYLE_FILL_AREA ( #359 ) ;
#286 = STYLED_ITEM ( 'NONE', ( #17 ), #85 ) ;
#287 =( GEOMETRIC_REPRESENTATION_CONTEXT ( 3 ) GLOBAL_UNCERTAINTY_ASSIGNED_CONTEXT ( ( #367 ) ) GLOBAL_UNIT_ASSIGNED_CONTEXT ( ( #274, #358, #151 ) ) REPRESENTATION_CONTEXT ( 'NONE', 'WORKASPACE' ) );
#288 = CARTESIAN_POINT ( 'NONE',  ( -12.49999999999998757, 64.00000000000000000, 0.000000000000000000 ) ) ;
#289 = VERTEX_POINT ( 'NONE', #231 ) ;
#290 = DIRECTION ( 'NONE',  ( -1.895813576284393923E-16, 1.000000000000000000, -0.000000000000000000 ) ) ;
#291 = PLANE ( 'NONE',  #23 ) ;
#292 = ORIENTED_EDGE ( 'NONE', *, *, #148, .T. ) ;
#293 = AXIS2_PLACEMENT_3D ( 'NONE', #295, #32, #146 ) ;
#294 = ADVANCED_FACE ( 'NONE', ( #345 ), #89, .T. ) ;
#295 = CARTESIAN_POINT ( 'NONE',  ( 0.000000000000000000, 1.000000000000000000, -11.50000000000000000 ) ) ;
#296 = DIRECTION ( 'NONE',  ( -0.000000000000000000, -1.000000000000000000, -0.000000000000000000 ) ) ;
#297 = PRODUCT_CONTEXT ( 'NONE', #195, 'mechanical' ) ;
#298 = EDGE_LOOP ( 'NONE', ( #149, #323, #114, #91 ) ) ;
#299 = SURFACE_SIDE_STYLE ('',( #217 ) ) ;
#300 = AXIS2_PLACEMENT_3D ( 'NONE', #108, #134, #163 ) ;
#301 = COLOUR_RGB ( '',1.000000000000000000, 0.000000000000000000, 0.000000000000000000 ) ;
#302 = CARTESIAN_POINT ( 'NONE',  ( -4.408728476930469278E-15, 124.9999999999999858, 0.000000000000000000 ) ) ;
#303 =( NAMED_UNIT ( * ) SI_UNIT ( $, .STERADIAN. ) SOLID_ANGLE_UNIT ( ) );
#304 = DIRECTION ( 'NONE',  ( 0.000000000000000000, 1.000000000000000000, 0.000000000000000000 ) ) ;
#305 = AXIS2_PLACEMENT_3D ( 'NONE', #7, #187, #100 ) ;
#306 = AXIS2_PLACEMENT_3D ( 'NONE', #116, #60, #316 ) ;
#307 = ADVANCED_FACE ( 'NONE', ( #35 ), #280, .T. ) ;
#308 = FILL_AREA_STYLE ('',( #224 ) ) ;
#309 =( GEOMETRIC_REPRESENTATION_CONTEXT ( 3 ) GLOBAL_UNCERTAINTY_ASSIGNED_CONTEXT ( ( #363 ) ) GLOBAL_UNIT_ASSIGNED_CONTEXT ( ( #271, #95, #303 ) ) REPRESENTATION_CONTEXT ( 'NONE', 'WORKASPACE' ) );
#310 = LINE ( 'NONE', #281, #37 ) ;
#311 = PRODUCT_RELATED_PRODUCT_CATEGORY ( 'part', '', ( #176 ) ) ;
#312 = PRESENTATION_LAYER_ASSIGNMENT (  '', '', ( #20 ) ) ;
#313 = DIRECTION ( 'NONE',  ( 0.000000000000000000, 0.000000000000000000, -1.000000000000000000 ) ) ;
#314 = VECTOR ( 'NONE', #25, 1000.000000000000000 ) ;
#315 =( NAMED_UNIT ( * ) PLANE_ANGLE_UNIT ( ) SI_UNIT ( $, .RADIAN. ) );
#316 = DIRECTION ( 'NONE',  ( 1.000000000000000000, 1.895813576284393923E-16, 0.000000000000000000 ) ) ;
#317 = VERTEX_POINT ( 'NONE', #180 ) ;
#318 = DIRECTION ( 'NONE',  ( -0.000000000000000000, -1.000000000000000000, -0.000000000000000000 ) ) ;
#319 = ADVANCED_FACE ( 'NONE', ( #124 ), #247, .T. ) ;
#320 = ORIENTED_EDGE ( 'NONE', *, *, #22, .T. ) ;
#321 = EDGE_LOOP ( 'NONE', ( #49, #145, #337, #59 ) ) ;
#322 =( GEOMETRIC_REPRESENTATION_CONTEXT ( 3 ) GLOBAL_UNCERTAINTY_ASSIGNED_CONTEXT ( ( #18 ) ) GLOBAL_UNIT_ASSIGNED_CONTEXT ( ( #54, #166, #262 ) ) REPRESENTATION_CONTEXT ( 'NONE', 'WORKASPACE' ) );
#323 = ORIENTED_EDGE ( 'NONE', *, *, #12, .T. ) ;
#324 = EDGE_CURVE ( 'NONE', #2, #68, #56, .T. ) ;
#325 = DIRECTION ( 'NONE',  ( -1.895813576284393923E-16, 1.000000000000000000, -0.000000000000000000 ) ) ;
#326 = DIRECTION ( 'NONE',  ( -0.000000000000000000, -1.000000000000000000, -0.000000000000000000 ) ) ;
#327 = AXIS2_PLACEMENT_3D ( 'NONE', #101, #129, #212 ) ;
#328 = CARTESIAN_POINT ( 'NONE',  ( 12.50000000000000000, 125.0000000000000000, 1.530808498934191916E-15 ) ) ;
#329 = DIRECTION ( 'NONE',  ( 0.000000000000000000, 0.000000000000000000, 1.000000000000000000 ) ) ;
#330 = EDGE_CURVE ( 'NONE', #343, #317, #273, .T. ) ;
#331 = CIRCLE ( 'NONE', #369, 12.50000000000000000 ) ;
#332 = AXIS2_PLACEMENT_3D ( 'NONE', #277, #355, #126 ) ;
#333 =( NAMED_UNIT ( * ) PLANE_ANGLE_UNIT ( ) SI_UNIT ( $, .RADIAN. ) );
#334 = EDGE_CURVE ( 'NONE', #172, #282, #174, .T. ) ;
#335 = SURFACE_STYLE_FILL_AREA ( #308 ) ;
#336 = PRESENTATION_STYLE_ASSIGNMENT (( #79 ) ) ;
#337 = ORIENTED_EDGE ( 'NONE', *, *, #57, .F. ) ;
#338 = COLOUR_RGB ( '',1.000000000000000000, 0.000000000000000000, 0.000000000000000000 ) ;
#339 = AXIS2_PLACEMENT_3D ( 'NONE', #239, #351, #24 ) ;
#340 =( LENGTH_UNIT ( ) NAMED_UNIT ( * ) SI_UNIT ( .MILLI., .METRE. ) );
#341 = PRODUCT_DEFINITION ( 'UNKNOWN', '', #202, #192 ) ;
#342 = CARTESIAN_POINT ( 'NONE',  ( -12.50000000000000533, 124.9999999999999858, 0.000000000000000000 ) ) ;
#343 = VERTEX_POINT ( 'NONE', #71 ) ;
#344 = TOROIDAL_SURFACE ( 'NONE', #106, 11.50000000000000000, 1.000000000000000444 ) ;
#345 = FACE_OUTER_BOUND ( 'NONE', #92, .T. ) ;
#346 = ORIENTED_EDGE ( 'NONE', *, *, #223, .F. ) ;
#347 = PRODUCT_DEFINITION_SHAPE ( 'NONE', 'NONE',  #341 ) ;
#348 = DIRECTION ( 'NONE',  ( 0.000000000000000000, 0.000000000000000000, -1.000000000000000000 ) ) ;
#349 = ORIENTED_EDGE ( 'NONE', *, *, #324, .T. ) ;
#350 = SURFACE_STYLE_FILL_AREA ( #33 ) ;
#351 = DIRECTION ( 'NONE',  ( -0.000000000000000000, -1.000000000000000000, -0.000000000000000000 ) ) ;
#352 =( GEOMETRIC_REPRESENTATION_CONTEXT ( 3 ) GLOBAL_UNCERTAINTY_ASSIGNED_CONTEXT ( ( #135 ) ) GLOBAL_UNIT_ASSIGNED_CONTEXT ( ( #103, #74, #354 ) ) REPRESENTATION_CONTEXT ( 'NONE', 'WORKASPACE' ) );
#353 = SURFACE_STYLE_USAGE ( .BOTH. , #185 ) ;
#354 =( NAMED_UNIT ( * ) SI_UNIT ( $, .STERADIAN. ) SOLID_ANGLE_UNIT ( ) );
#355 = DIRECTION ( 'NONE',  ( -1.895813576284393923E-16, 1.000000000000000000, -0.000000000000000000 ) ) ;
#356 =( GEOMETRIC_REPRESENTATION_CONTEXT ( 3 ) GLOBAL_UNCERTAINTY_ASSIGNED_CONTEXT ( ( #226 ) ) GLOBAL_UNIT_ASSIGNED_CONTEXT ( ( #220, #333, #105 ) ) REPRESENTATION_CONTEXT ( 'NONE', 'WORKASPACE' ) );
#357 = PRESENTATION_STYLE_ASSIGNMENT (( #275 ) ) ;
#358 =( NAMED_UNIT ( * ) PLANE_ANGLE_UNIT ( ) SI_UNIT ( $, .RADIAN. ) );
#359 = FILL_AREA_STYLE ('',( #191 ) ) ;
#360 =( GEOMETRIC_REPRESENTATION_CONTEXT ( 3 ) GLOBAL_UNCERTAINTY_ASSIGNED_CONTEXT ( ( #216 ) ) GLOBAL_UNIT_ASSIGNED_CONTEXT ( ( #38, #127, #70 ) ) REPRESENTATION_CONTEXT ( 'NONE', 'WORKASPACE' ) );
#361 = PRESENTATION_LAYER_ASSIGNMENT (  '', '', ( #182 ) ) ;
#362 =( NAMED_UNIT ( * ) SI_UNIT ( $, .STERADIAN. ) SOLID_ANGLE_UNIT ( ) );
#363 = UNCERTAINTY_MEASURE_WITH_UNIT (LENGTH_MEASURE( 1.000000000000000082E-05 ), #271, 'distance_accuracy_value', 'NONE');
#364 = LINE ( 'NONE', #342, #133 ) ;
#365 = ORIENTED_EDGE ( 'NONE', *, *, #142, .F. ) ;
#366 = LINE ( 'NONE', #267, #93 ) ;
#367 = UNCERTAINTY_MEASURE_WITH_UNIT (LENGTH_MEASURE( 1.000000000000000082E-05 ), #274, 'distance_accuracy_value', 'NONE');
#368 = ORIENTED_EDGE ( 'NONE', *, *, #324, .F. ) ;
#369 = AXIS2_PLACEMENT_3D ( 'NONE', #11, #44, #131 ) ;
#370 = CARTESIAN_POINT ( 'NONE',  ( 1.530808498934191521E-15, 0.000000000000000000, 12.50000000000000000 ) ) ;
ENDSEC;
END-ISO-10303-21;
