ISO-10303-21;
HEADER;
FILE_DESCRIPTION (( 'STEP AP214' ),
    '1' );
FILE_NAME ('59495.STEP',
    '2023-07-24T15:07:52',
    ( '' ),
    ( '' ),
    'SwSTEP 2.0',
    'SolidWorks 2023',
    '' );
FILE_SCHEMA (( 'AUTOMOTIVE_DESIGN' ));
ENDSEC;

DATA;
#1 = CYLINDRICAL_SURFACE ( 'NONE', #115, 12.49999999999999822 ) ;
#2 = PRESENTATION_LAYER_ASSIGNMENT (  '', '', ( #126 ) ) ;
#3 = CARTESIAN_POINT ( 'NONE',  ( 0.000000000000000000, 1.000000000000000000, 0.000000000000000000 ) ) ;
#4 = DIRECTION ( 'NONE',  ( 0.000000000000000000, 0.000000000000000000, -1.000000000000000000 ) ) ;
#5 = DIRECTION ( 'NONE',  ( -1.217753221838294133E-16, 1.000000000000000000, -0.000000000000000000 ) ) ;
#6 = FILL_AREA_STYLE ('',( #109 ) ) ;
#7 = DIRECTION ( 'NONE',  ( 1.000000000000000000, 0.000000000000000000, -1.224646799147353207E-16 ) ) ;
#8 = FACE_OUTER_BOUND ( 'NONE', #70, .T. ) ;
#9 =( LENGTH_UNIT ( ) NAMED_UNIT ( * ) SI_UNIT ( .MILLI., .METRE. ) );
#10 = ADVANCED_FACE ( 'NONE', ( #248 ), #79, .T. ) ;
#11 =( NAMED_UNIT ( * ) PLANE_ANGLE_UNIT ( ) SI_UNIT ( $, .RADIAN. ) );
#12 = PRESENTATION_STYLE_ASSIGNMENT (( #247 ) ) ;
#13 = PRODUCT ( '59495', '59495', '', ( #277 ) ) ;
#14 = ORIENTED_EDGE ( 'NONE', *, *, #291, .T. ) ;
#15 = CIRCLE ( 'NONE', #222, 12.50000000000000355 ) ;
#16 = AXIS2_PLACEMENT_3D ( 'NONE', #106, #361, #87 ) ;
#17 = DIRECTION ( 'NONE',  ( 0.000000000000000000, 0.000000000000000000, 1.000000000000000000 ) ) ;
#18 = EDGE_LOOP ( 'NONE', ( #201, #324, #101, #333 ) ) ;
#19 = EDGE_CURVE ( 'NONE', #270, #75, #306, .T. ) ;
#20 = MECHANICAL_DESIGN_GEOMETRIC_PRESENTATION_REPRESENTATION (  '', ( #126 ), #268 ) ;
#21 = UNCERTAINTY_MEASURE_WITH_UNIT (LENGTH_MEASURE( 1.000000000000000082E-05 ), #281, 'distance_accuracy_value', 'NONE');
#22 = SURFACE_SIDE_STYLE ('',( #168 ) ) ;
#23 = PRESENTATION_STYLE_ASSIGNMENT (( #305 ) ) ;
#24 = DIRECTION ( 'NONE',  ( -1.000000000000000000, 0.000000000000000000, 0.000000000000000000 ) ) ;
#25 = AXIS2_PLACEMENT_3D ( 'NONE', #336, #190, #86 ) ;
#26 =( NAMED_UNIT ( * ) SI_UNIT ( $, .STERADIAN. ) SOLID_ANGLE_UNIT ( ) );
#27 = PRODUCT_DEFINITION_FORMATION_WITH_SPECIFIED_SOURCE ( 'ANY', '', #13, .NOT_KNOWN. ) ;
#28 = FACE_OUTER_BOUND ( 'NONE', #153, .T. ) ;
#29 = DIRECTION ( 'NONE',  ( -0.000000000000000000, -1.000000000000000000, -0.000000000000000000 ) ) ;
#30 =( LENGTH_UNIT ( ) NAMED_UNIT ( * ) SI_UNIT ( .MILLI., .METRE. ) );
#31 = PLANE ( 'NONE',  #239 ) ;
#32 = DIRECTION ( 'NONE',  ( -0.000000000000000000, -1.000000000000000000, -0.000000000000000000 ) ) ;
#33 = CARTESIAN_POINT ( 'NONE',  ( 0.000000000000000000, 0.000000000000000000, 0.000000000000000000 ) ) ;
#34 = AXIS2_PLACEMENT_3D ( 'NONE', #236, #141, #207 ) ;
#35 = CARTESIAN_POINT ( 'NONE',  ( 12.49999999999999467, 124.9999999999999858, 1.530808498934191324E-15 ) ) ;
#36 =( NAMED_UNIT ( * ) SI_UNIT ( $, .STERADIAN. ) SOLID_ANGLE_UNIT ( ) );
#37 = CARTESIAN_POINT ( 'NONE',  ( 0.000000000000000000, 50.00000000000000000, 0.000000000000000000 ) ) ;
#38 = CARTESIAN_POINT ( 'NONE',  ( -12.49999999999999112, 50.00000000000000000, 0.000000000000000000 ) ) ;
#39 = CARTESIAN_POINT ( 'NONE',  ( 0.000000000000000000, 0.000000000000000000, -11.50000000000000000 ) ) ;
#40 = CIRCLE ( 'NONE', #205, 12.50000000000000000 ) ;
#41 = EDGE_LOOP ( 'NONE', ( #271, #244, #370, #107 ) ) ;
#42 = PRODUCT_DEFINITION_SHAPE ( 'NONE', 'NONE',  #151 ) ;
#43 = ORIENTED_EDGE ( 'NONE', *, *, #117, .T. ) ;
#44 = VERTEX_POINT ( 'NONE', #256 ) ;
#45 = CIRCLE ( 'NONE', #253, 1.000000000000000888 ) ;
#46 = CIRCLE ( 'NONE', #93, 12.50000000000000000 ) ;
#47 = ORIENTED_EDGE ( 'NONE', *, *, #120, .F. ) ;
#48 = MANIFOLD_SOLID_BREP ( 'Revolve - Tool Body (Straight Shanked)', #184 ) ;
#49 = ORIENTED_EDGE ( 'NONE', *, *, #176, .F. ) ;
#50 = UNCERTAINTY_MEASURE_WITH_UNIT (LENGTH_MEASURE( 1.000000000000000082E-05 ), #102, 'distance_accuracy_value', 'NONE');
#51 = ORIENTED_EDGE ( 'NONE', *, *, #287, .F. ) ;
#52 = PLANE ( 'NONE',  #167 ) ;
#53 = CLOSED_SHELL ( 'NONE', ( #10, #189, #294, #329, #359, #203 ) ) ;
#54 = PRESENTATION_LAYER_ASSIGNMENT (  '', '', ( #73 ) ) ;
#55 = SURFACE_STYLE_FILL_AREA ( #166 ) ;
#56 = FILL_AREA_STYLE_COLOUR ( '', #181 ) ;
#57 = DIRECTION ( 'NONE',  ( 0.000000000000000000, 0.000000000000000000, -1.000000000000000000 ) ) ;
#58 = PRODUCT_RELATED_PRODUCT_CATEGORY ( 'part', '', ( #13 ) ) ;
#59 = AXIS2_PLACEMENT_3D ( 'NONE', #116, #68, #232 ) ;
#60 = CARTESIAN_POINT ( 'NONE',  ( 0.000000000000000000, 1.000000000000000000, 0.000000000000000000 ) ) ;
#61 = DIRECTION ( 'NONE',  ( -1.000000000000000000, 0.000000000000000000, 0.000000000000000000 ) ) ;
#62 = FACE_OUTER_BOUND ( 'NONE', #282, .T. ) ;
#63 = CARTESIAN_POINT ( 'NONE',  ( -3.061616997868379493E-15, 124.9999999999999858, 0.000000000000000000 ) ) ;
#64 = DIRECTION ( 'NONE',  ( -1.000000000000000000, 0.000000000000000000, 0.000000000000000000 ) ) ;
#65 = COLOUR_RGB ( '',1.000000000000000000, 0.000000000000000000, 0.000000000000000000 ) ;
#66 = FILL_AREA_STYLE_COLOUR ( '', #138 ) ;
#67 = SURFACE_STYLE_FILL_AREA ( #240 ) ;
#68 = DIRECTION ( 'NONE',  ( -1.217753221838294133E-16, 1.000000000000000000, -0.000000000000000000 ) ) ;
#69 = DIRECTION ( 'NONE',  ( 1.000000000000000000, 1.217753221838294133E-16, 0.000000000000000000 ) ) ;
#70 = EDGE_LOOP ( 'NONE', ( #276, #43 ) ) ;
#71 = DIRECTION ( 'NONE',  ( -1.217753221838294133E-16, 1.000000000000000000, -0.000000000000000000 ) ) ;
#72 = DIRECTION ( 'NONE',  ( 0.000000000000000000, 0.000000000000000000, -1.000000000000000000 ) ) ;
#73 = STYLED_ITEM ( 'NONE', ( #237 ), #189 ) ;
#74 = ORIENTED_EDGE ( 'NONE', *, *, #245, .F. ) ;
#75 = VERTEX_POINT ( 'NONE', #365 ) ;
#76 = FILL_AREA_STYLE_COLOUR ( '', #149 ) ;
#77 = PRESENTATION_LAYER_ASSIGNMENT (  '', '', ( #350 ) ) ;
#78 = CIRCLE ( 'NONE', #255, 1.000000000000000888 ) ;
#79 = CYLINDRICAL_SURFACE ( 'NONE', #238, 12.50000000000000000 ) ;
#80 = CARTESIAN_POINT ( 'NONE',  ( 0.000000000000000000, 0.000000000000000000, 0.000000000000000000 ) ) ;
#81 = DIRECTION ( 'NONE',  ( 0.000000000000000000, 1.000000000000000000, 0.000000000000000000 ) ) ;
#82 = MECHANICAL_DESIGN_GEOMETRIC_PRESENTATION_REPRESENTATION (  '', ( #73 ), #307 ) ;
#83 = PRESENTATION_LAYER_ASSIGNMENT (  '', '', ( #338 ) ) ;
#84 =( NAMED_UNIT ( * ) PLANE_ANGLE_UNIT ( ) SI_UNIT ( $, .RADIAN. ) );
#85 = APPLICATION_PROTOCOL_DEFINITION ( 'draft international standard', 'automotive_design', 1998, #275 ) ;
#86 = DIRECTION ( 'NONE',  ( 0.000000000000000000, 0.000000000000000000, -1.000000000000000000 ) ) ;
#87 = DIRECTION ( 'NONE',  ( 0.000000000000000000, 0.000000000000000000, -1.000000000000000000 ) ) ;
#88 = EDGE_CURVE ( 'NONE', #75, #180, #210, .T. ) ;
#89 = MECHANICAL_DESIGN_GEOMETRIC_PRESENTATION_REPRESENTATION (  '', ( #231 ), #335 ) ;
#90 = SURFACE_STYLE_FILL_AREA ( #341 ) ;
#91 = DIRECTION ( 'NONE',  ( 0.000000000000000000, 0.000000000000000000, -1.000000000000000000 ) ) ;
#92 = DIRECTION ( 'NONE',  ( 0.000000000000000000, 0.000000000000000000, -1.000000000000000000 ) ) ;
#93 = AXIS2_PLACEMENT_3D ( 'NONE', #3, #320, #91 ) ;
#94 = CYLINDRICAL_SURFACE ( 'NONE', #111, 12.49999999999999822 ) ;
#95 = FILL_AREA_STYLE_COLOUR ( '', #249 ) ;
#96 = CARTESIAN_POINT ( 'NONE',  ( 1.530808498934191521E-15, 1.000000000000000000, 12.50000000000000000 ) ) ;
#97 = PRESENTATION_STYLE_ASSIGNMENT (( #260 ) ) ;
#98 = LINE ( 'NONE', #269, #196 ) ;
#99 =( LENGTH_UNIT ( ) NAMED_UNIT ( * ) SI_UNIT ( .MILLI., .METRE. ) );
#100 =( GEOMETRIC_REPRESENTATION_CONTEXT ( 3 ) GLOBAL_UNCERTAINTY_ASSIGNED_CONTEXT ( ( #50 ) ) GLOBAL_UNIT_ASSIGNED_CONTEXT ( ( #102, #355, #158 ) ) REPRESENTATION_CONTEXT ( 'NONE', 'WORKASPACE' ) );
#101 = ORIENTED_EDGE ( 'NONE', *, *, #291, .F. ) ;
#102 =( LENGTH_UNIT ( ) NAMED_UNIT ( * ) SI_UNIT ( .MILLI., .METRE. ) );
#103 = ORIENTED_EDGE ( 'NONE', *, *, #88, .T. ) ;
#104 = TOROIDAL_SURFACE ( 'NONE', #25, 11.50000000000000000, 1.000000000000000444 ) ;
#105 = FILL_AREA_STYLE ('',( #76 ) ) ;
#106 = CARTESIAN_POINT ( 'NONE',  ( 0.000000000000000000, 1.000000000000000000, 0.000000000000000000 ) ) ;
#107 = ORIENTED_EDGE ( 'NONE', *, *, #362, .F. ) ;
#108 = UNCERTAINTY_MEASURE_WITH_UNIT (LENGTH_MEASURE( 1.000000000000000082E-05 ), #9, 'distance_accuracy_value', 'NONE');
#109 = FILL_AREA_STYLE_COLOUR ( '', #65 ) ;
#110 =( NAMED_UNIT ( * ) PLANE_ANGLE_UNIT ( ) SI_UNIT ( $, .RADIAN. ) );
#111 = AXIS2_PLACEMENT_3D ( 'NONE', #63, #5, #169 ) ;
#112 = LINE ( 'NONE', #227, #125 ) ;
#113 = SURFACE_STYLE_USAGE ( .BOTH. , #22 ) ;
#114 = CARTESIAN_POINT ( 'NONE',  ( 0.000000000000000000, 1.000000000000000000, -11.50000000000000000 ) ) ;
#115 = AXIS2_PLACEMENT_3D ( 'NONE', #286, #71, #348 ) ;
#116 = CARTESIAN_POINT ( 'NONE',  ( -3.061616997868379493E-15, 124.9999999999999858, 0.000000000000000000 ) ) ;
#117 = EDGE_CURVE ( 'NONE', #180, #128, #15, .T. ) ;
#118 = CARTESIAN_POINT ( 'NONE',  ( 1.408343819019456176E-15, 1.000000000000000000, 11.50000000000000000 ) ) ;
#119 = MECHANICAL_DESIGN_GEOMETRIC_PRESENTATION_REPRESENTATION (  '', ( #350 ), #331 ) ;
#120 = EDGE_CURVE ( 'NONE', #182, #279, #311, .T. ) ;
#121 = VECTOR ( 'NONE', #292, 1000.000000000000000 ) ;
#122 = DIRECTION ( 'NONE',  ( 0.000000000000000000, 0.000000000000000000, -1.000000000000000000 ) ) ;
#123 = EDGE_LOOP ( 'NONE', ( #217, #354, #241, #319 ) ) ;
#124 = MECHANICAL_DESIGN_GEOMETRIC_PRESENTATION_REPRESENTATION (  '', ( #323 ), #100 ) ;
#125 = VECTOR ( 'NONE', #195, 1000.000000000000000 ) ;
#126 = STYLED_ITEM ( 'NONE', ( #263 ), #294 ) ;
#127 = SURFACE_STYLE_FILL_AREA ( #105 ) ;
#128 = VERTEX_POINT ( 'NONE', #200 ) ;
#129 = UNCERTAINTY_MEASURE_WITH_UNIT (LENGTH_MEASURE( 1.000000000000000082E-05 ), #99, 'distance_accuracy_value', 'NONE');
#130 =( NAMED_UNIT ( * ) SI_UNIT ( $, .STERADIAN. ) SOLID_ANGLE_UNIT ( ) );
#131 = CARTESIAN_POINT ( 'NONE',  ( 0.000000000000000000, 0.000000000000000000, 0.000000000000000000 ) ) ;
#132 =( NAMED_UNIT ( * ) PLANE_ANGLE_UNIT ( ) SI_UNIT ( $, .RADIAN. ) );
#133 = SURFACE_SIDE_STYLE ('',( #226 ) ) ;
#134 = CARTESIAN_POINT ( 'NONE',  ( 6.071532165918824830E-15, 50.00000000000000000, 0.000000000000000000 ) ) ;
#135 = EDGE_CURVE ( 'NONE', #44, #221, #98, .T. ) ;
#136 = PRESENTATION_STYLE_ASSIGNMENT (( #191 ) ) ;
#137 = MECHANICAL_DESIGN_GEOMETRIC_PRESENTATION_REPRESENTATION (  '', ( #144 ), #192 ) ;
#138 = COLOUR_RGB ( '',1.000000000000000000, 0.000000000000000000, 0.000000000000000000 ) ;
#139 = CARTESIAN_POINT ( 'NONE',  ( 0.000000000000000000, 50.00000000000000000, 0.000000000000000000 ) ) ;
#140 =( NAMED_UNIT ( * ) SI_UNIT ( $, .STERADIAN. ) SOLID_ANGLE_UNIT ( ) );
#141 = DIRECTION ( 'NONE',  ( -1.217753221838294133E-16, 1.000000000000000000, -0.000000000000000000 ) ) ;
#142 = PLANE ( 'NONE',  #364 ) ;
#143 = AXIS2_PLACEMENT_3D ( 'NONE', #134, #284, #24 ) ;
#144 = STYLED_ITEM ( 'NONE', ( #23 ), #203 ) ;
#145 = PLANE ( 'NONE',  #250 ) ;
#146 = CARTESIAN_POINT ( 'NONE',  ( 6.071532165918824830E-15, 50.00000000000000000, 0.000000000000000000 ) ) ;
#147 = DIRECTION ( 'NONE',  ( 0.000000000000000000, 0.000000000000000000, 1.000000000000000000 ) ) ;
#148 = DIRECTION ( 'NONE',  ( -1.224646799147353454E-16, 0.000000000000000000, -1.000000000000000000 ) ) ;
#149 = COLOUR_RGB ( '',1.000000000000000000, 0.000000000000000000, 0.000000000000000000 ) ;
#150 = CARTESIAN_POINT ( 'NONE',  ( -3.061616997868379493E-15, 124.9999999999999858, 0.000000000000000000 ) ) ;
#151 = PRODUCT_DEFINITION ( 'UNKNOWN', '', #27, #347 ) ;
#152 = VERTEX_POINT ( 'NONE', #235 ) ;
#153 = EDGE_LOOP ( 'NONE', ( #187, #259 ) ) ;
#154 = PRESENTATION_LAYER_ASSIGNMENT (  '', '', ( #231 ) ) ;
#155 =( NAMED_UNIT ( * ) PLANE_ANGLE_UNIT ( ) SI_UNIT ( $, .RADIAN. ) );
#156 = ORIENTED_EDGE ( 'NONE', *, *, #258, .F. ) ;
#157 = FACE_OUTER_BOUND ( 'NONE', #123, .T. ) ;
#158 =( NAMED_UNIT ( * ) SI_UNIT ( $, .STERADIAN. ) SOLID_ANGLE_UNIT ( ) );
#159 = SHAPE_DEFINITION_REPRESENTATION ( #42, #194 ) ;
#160 = UNCERTAINTY_MEASURE_WITH_UNIT (LENGTH_MEASURE( 1.000000000000000082E-05 ), #30, 'distance_accuracy_value', 'NONE');
#161 = PRESENTATION_LAYER_ASSIGNMENT (  '', '', ( #323 ) ) ;
#162 = CIRCLE ( 'NONE', #243, 12.50000000000000000 ) ;
#163 = TOROIDAL_SURFACE ( 'NONE', #315, 11.50000000000000000, 1.000000000000000444 ) ;
#164 = ADVANCED_FACE ( 'NONE', ( #8 ), #142, .F. ) ;
#165 =( NAMED_UNIT ( * ) PLANE_ANGLE_UNIT ( ) SI_UNIT ( $, .RADIAN. ) );
#166 = FILL_AREA_STYLE ('',( #340 ) ) ;
#167 = AXIS2_PLACEMENT_3D ( 'NONE', #139, #81, #363 ) ;
#168 = SURFACE_STYLE_FILL_AREA ( #337 ) ;
#169 = DIRECTION ( 'NONE',  ( -1.000000000000000000, 0.000000000000000000, 0.000000000000000000 ) ) ;
#170 = DIRECTION ( 'NONE',  ( -1.217753221838294133E-16, 1.000000000000000000, -0.000000000000000000 ) ) ;
#171 = FACE_OUTER_BOUND ( 'NONE', #327, .T. ) ;
#172 = DIRECTION ( 'NONE',  ( -0.000000000000000000, -1.000000000000000000, -0.000000000000000000 ) ) ;
#173 = CIRCLE ( 'NONE', #59, 12.50000000000000355 ) ;
#174 = FACE_OUTER_BOUND ( 'NONE', #328, .T. ) ;
#175 =( NAMED_UNIT ( * ) SI_UNIT ( $, .STERADIAN. ) SOLID_ANGLE_UNIT ( ) );
#176 = EDGE_CURVE ( 'NONE', #152, #44, #40, .T. ) ;
#177 = SURFACE_SIDE_STYLE ('',( #67 ) ) ;
#178 =( NAMED_UNIT ( * ) SI_UNIT ( $, .STERADIAN. ) SOLID_ANGLE_UNIT ( ) );
#179 =( NAMED_UNIT ( * ) SI_UNIT ( $, .STERADIAN. ) SOLID_ANGLE_UNIT ( ) );
#180 = VERTEX_POINT ( 'NONE', #293 ) ;
#181 = COLOUR_RGB ( '',1.000000000000000000, 0.000000000000000000, 0.000000000000000000 ) ;
#182 = VERTEX_POINT ( 'NONE', #39 ) ;
#183 = SURFACE_SIDE_STYLE ('',( #127 ) ) ;
#184 = CLOSED_SHELL ( 'NONE', ( #214, #225, #242, #164 ) ) ;
#185 = ORIENTED_EDGE ( 'NONE', *, *, #230, .F. ) ;
#186 = AXIS2_PLACEMENT_3D ( 'NONE', #33, #316, #206 ) ;
#187 = ORIENTED_EDGE ( 'NONE', *, *, #120, .T. ) ;
#188 = EDGE_CURVE ( 'NONE', #221, #279, #45, .T. ) ;
#189 = ADVANCED_FACE ( 'NONE', ( #309 ), #104, .T. ) ;
#190 = DIRECTION ( 'NONE',  ( -0.000000000000000000, -1.000000000000000000, -0.000000000000000000 ) ) ;
#191 = SURFACE_STYLE_USAGE ( .BOTH. , #251 ) ;
#192 =( GEOMETRIC_REPRESENTATION_CONTEXT ( 3 ) GLOBAL_UNCERTAINTY_ASSIGNED_CONTEXT ( ( #21 ) ) GLOBAL_UNIT_ASSIGNED_CONTEXT ( ( #281, #132, #26 ) ) REPRESENTATION_CONTEXT ( 'NONE', 'WORKASPACE' ) );
#193 = MECHANICAL_DESIGN_GEOMETRIC_PRESENTATION_REPRESENTATION (  '', ( #338 ), #208 ) ;
#194 = ADVANCED_BREP_SHAPE_REPRESENTATION ( '59495', ( #297, #48, #353 ), #218 ) ;
#195 = DIRECTION ( 'NONE',  ( -1.217753221838294133E-16, 1.000000000000000000, -0.000000000000000000 ) ) ;
#196 = VECTOR ( 'NONE', #172, 1000.000000000000000 ) ;
#197 = AXIS2_PLACEMENT_3D ( 'NONE', #304, #368, #234 ) ;
#198 = SURFACE_SIDE_STYLE ('',( #90 ) ) ;
#199 =( LENGTH_UNIT ( ) NAMED_UNIT ( * ) SI_UNIT ( .MILLI., .METRE. ) );
#200 = CARTESIAN_POINT ( 'NONE',  ( -12.50000000000000711, 124.9999999999999858, 0.000000000000000000 ) ) ;
#201 = ORIENTED_EDGE ( 'NONE', *, *, #176, .T. ) ;
#202 = LINE ( 'NONE', #317, #121 ) ;
#203 = ADVANCED_FACE ( 'NONE', ( #62 ), #52, .T. ) ;
#204 = DIRECTION ( 'NONE',  ( -1.217753221838294133E-16, 1.000000000000000000, 0.000000000000000000 ) ) ;
#205 = AXIS2_PLACEMENT_3D ( 'NONE', #37, #313, #72 ) ;
#206 = DIRECTION ( 'NONE',  ( 0.000000000000000000, 0.000000000000000000, -1.000000000000000000 ) ) ;
#207 = DIRECTION ( 'NONE',  ( -1.000000000000000000, 0.000000000000000000, 0.000000000000000000 ) ) ;
#208 =( GEOMETRIC_REPRESENTATION_CONTEXT ( 3 ) GLOBAL_UNCERTAINTY_ASSIGNED_CONTEXT ( ( #129 ) ) GLOBAL_UNIT_ASSIGNED_CONTEXT ( ( #99, #155, #179 ) ) REPRESENTATION_CONTEXT ( 'NONE', 'WORKASPACE' ) );
#209 =( NAMED_UNIT ( * ) PLANE_ANGLE_UNIT ( ) SI_UNIT ( $, .RADIAN. ) );
#210 = LINE ( 'NONE', #35, #215 ) ;
#211 =( LENGTH_UNIT ( ) NAMED_UNIT ( * ) SI_UNIT ( .MILLI., .METRE. ) );
#212 = VERTEX_POINT ( 'NONE', #366 ) ;
#213 = SURFACE_STYLE_USAGE ( .BOTH. , #183 ) ;
#214 = ADVANCED_FACE ( 'NONE', ( #174 ), #1, .T. ) ;
#215 = VECTOR ( 'NONE', #170, 1000.000000000000000 ) ;
#216 = STYLED_ITEM ( 'NONE', ( #97 ), #329 ) ;
#217 = ORIENTED_EDGE ( 'NONE', *, *, #135, .F. ) ;
#218 =( GEOMETRIC_REPRESENTATION_CONTEXT ( 3 ) GLOBAL_UNCERTAINTY_ASSIGNED_CONTEXT ( ( #220 ) ) GLOBAL_UNIT_ASSIGNED_CONTEXT ( ( #289, #285, #36 ) ) REPRESENTATION_CONTEXT ( 'NONE', 'WORKASPACE' ) );
#219 = APPLICATION_PROTOCOL_DEFINITION ( 'draft international standard', 'automotive_design', 1998, #266 ) ;
#220 = UNCERTAINTY_MEASURE_WITH_UNIT (LENGTH_MEASURE( 1.000000000000000082E-05 ), #289, 'distance_accuracy_value', 'NONE');
#221 = VERTEX_POINT ( 'NONE', #96 ) ;
#222 = AXIS2_PLACEMENT_3D ( 'NONE', #150, #264, #64 ) ;
#223 = PRESENTATION_LAYER_ASSIGNMENT (  '', '', ( #144 ) ) ;
#224 =( GEOMETRIC_REPRESENTATION_CONTEXT ( 3 ) GLOBAL_UNCERTAINTY_ASSIGNED_CONTEXT ( ( #278 ) ) GLOBAL_UNIT_ASSIGNED_CONTEXT ( ( #199, #209, #175 ) ) REPRESENTATION_CONTEXT ( 'NONE', 'WORKASPACE' ) );
#225 = ADVANCED_FACE ( 'NONE', ( #171 ), #31, .F. ) ;
#226 = SURFACE_STYLE_FILL_AREA ( #254 ) ;
#227 = CARTESIAN_POINT ( 'NONE',  ( -12.50000000000000178, 124.9999999999999858, 0.000000000000000000 ) ) ;
#228 = PRESENTATION_STYLE_ASSIGNMENT (( #113 ) ) ;
#229 = FILL_AREA_STYLE_COLOUR ( '', #342 ) ;
#230 = EDGE_CURVE ( 'NONE', #212, #182, #78, .T. ) ;
#231 = STYLED_ITEM ( 'NONE', ( #136 ), #297 ) ;
#232 = DIRECTION ( 'NONE',  ( -1.000000000000000000, 0.000000000000000000, 0.000000000000000000 ) ) ;
#233 = CARTESIAN_POINT ( 'NONE',  ( 0.000000000000000000, 0.000000000000000000, 0.000000000000000000 ) ) ;
#234 = DIRECTION ( 'NONE',  ( 0.000000000000000000, 0.000000000000000000, -1.000000000000000000 ) ) ;
#235 = CARTESIAN_POINT ( 'NONE',  ( 0.000000000000000000, 50.00000000000000000, -12.50000000000000000 ) ) ;
#236 = CARTESIAN_POINT ( 'NONE',  ( 6.071532165918824830E-15, 50.00000000000000000, 0.000000000000000000 ) ) ;
#237 = PRESENTATION_STYLE_ASSIGNMENT (( #262 ) ) ;
#238 = AXIS2_PLACEMENT_3D ( 'NONE', #131, #357, #280 ) ;
#239 = AXIS2_PLACEMENT_3D ( 'NONE', #146, #204, #265 ) ;
#240 = FILL_AREA_STYLE ('',( #95 ) ) ;
#241 = ORIENTED_EDGE ( 'NONE', *, *, #261, .T. ) ;
#242 = ADVANCED_FACE ( 'NONE', ( #257 ), #94, .T. ) ;
#243 = AXIS2_PLACEMENT_3D ( 'NONE', #267, #369, #122 ) ;
#244 = ORIENTED_EDGE ( 'NONE', *, *, #326, .T. ) ;
#245 = EDGE_CURVE ( 'NONE', #75, #270, #325, .T. ) ;
#246 = ORIENTED_EDGE ( 'NONE', *, *, #88, .F. ) ;
#247 = SURFACE_STYLE_USAGE ( .BOTH. , #321 ) ;
#248 = FACE_OUTER_BOUND ( 'NONE', #18, .T. ) ;
#249 = COLOUR_RGB ( '',1.000000000000000000, 0.000000000000000000, 0.000000000000000000 ) ;
#250 = AXIS2_PLACEMENT_3D ( 'NONE', #302, #339, #57 ) ;
#251 = SURFACE_SIDE_STYLE ('',( #55 ) ) ;
#252 = ORIENTED_EDGE ( 'NONE', *, *, #117, .F. ) ;
#253 = AXIS2_PLACEMENT_3D ( 'NONE', #118, #7, #148 ) ;
#254 = FILL_AREA_STYLE ('',( #56 ) ) ;
#255 = AXIS2_PLACEMENT_3D ( 'NONE', #114, #61, #147 ) ;
#256 = CARTESIAN_POINT ( 'NONE',  ( 1.530808498934191521E-15, 50.00000000000000000, 12.50000000000000000 ) ) ;
#257 = FACE_OUTER_BOUND ( 'NONE', #272, .T. ) ;
#258 = EDGE_CURVE ( 'NONE', #128, #180, #173, .T. ) ;
#259 = ORIENTED_EDGE ( 'NONE', *, *, #362, .T. ) ;
#260 = SURFACE_STYLE_USAGE ( .BOTH. , #344 ) ;
#261 = EDGE_CURVE ( 'NONE', #152, #212, #202, .T. ) ;
#262 = SURFACE_STYLE_USAGE ( .BOTH. , #177 ) ;
#263 = PRESENTATION_STYLE_ASSIGNMENT (( #310 ) ) ;
#264 = DIRECTION ( 'NONE',  ( -1.217753221838294133E-16, 1.000000000000000000, -0.000000000000000000 ) ) ;
#265 = DIRECTION ( 'NONE',  ( -1.000000000000000000, -1.217753221838294133E-16, 0.000000000000000000 ) ) ;
#266 = APPLICATION_CONTEXT ( 'automotive_design' ) ;
#267 = CARTESIAN_POINT ( 'NONE',  ( 0.000000000000000000, 50.00000000000000000, 0.000000000000000000 ) ) ;
#268 =( GEOMETRIC_REPRESENTATION_CONTEXT ( 3 ) GLOBAL_UNCERTAINTY_ASSIGNED_CONTEXT ( ( #108 ) ) GLOBAL_UNIT_ASSIGNED_CONTEXT ( ( #9, #110, #130 ) ) REPRESENTATION_CONTEXT ( 'NONE', 'WORKASPACE' ) );
#269 = CARTESIAN_POINT ( 'NONE',  ( 1.530808498934191521E-15, 0.000000000000000000, 12.50000000000000000 ) ) ;
#270 = VERTEX_POINT ( 'NONE', #38 ) ;
#271 = ORIENTED_EDGE ( 'NONE', *, *, #188, .F. ) ;
#272 = EDGE_LOOP ( 'NONE', ( #246, #351, #300, #252 ) ) ;
#273 = COLOUR_RGB ( '',0.7921568627450980005, 0.8196078431372548767, 0.9333333333333333481 ) ;
#274 = PRESENTATION_LAYER_ASSIGNMENT (  '', '', ( #216 ) ) ;
#275 = APPLICATION_CONTEXT ( 'automotive_design' ) ;
#276 = ORIENTED_EDGE ( 'NONE', *, *, #258, .T. ) ;
#277 = PRODUCT_CONTEXT ( 'NONE', #275, 'mechanical' ) ;
#278 = UNCERTAINTY_MEASURE_WITH_UNIT (LENGTH_MEASURE( 1.000000000000000082E-05 ), #199, 'distance_accuracy_value', 'NONE');
#279 = VERTEX_POINT ( 'NONE', #343 ) ;
#280 = DIRECTION ( 'NONE',  ( 0.000000000000000000, 0.000000000000000000, -1.000000000000000000 ) ) ;
#281 =( LENGTH_UNIT ( ) NAMED_UNIT ( * ) SI_UNIT ( .MILLI., .METRE. ) );
#282 = EDGE_LOOP ( 'NONE', ( #49, #51 ) ) ;
#283 =( LENGTH_UNIT ( ) NAMED_UNIT ( * ) SI_UNIT ( .MILLI., .METRE. ) );
#284 = DIRECTION ( 'NONE',  ( -1.217753221838294133E-16, 1.000000000000000000, -0.000000000000000000 ) ) ;
#285 =( NAMED_UNIT ( * ) PLANE_ANGLE_UNIT ( ) SI_UNIT ( $, .RADIAN. ) );
#286 = CARTESIAN_POINT ( 'NONE',  ( -3.061616997868379493E-15, 124.9999999999999858, 0.000000000000000000 ) ) ;
#287 = EDGE_CURVE ( 'NONE', #44, #152, #162, .T. ) ;
#288 = CIRCLE ( 'NONE', #186, 11.50000000000000000 ) ;
#289 =( LENGTH_UNIT ( ) NAMED_UNIT ( * ) SI_UNIT ( .MILLI., .METRE. ) );
#290 = FILL_AREA_STYLE ('',( #66 ) ) ;
#291 = EDGE_CURVE ( 'NONE', #212, #221, #46, .T. ) ;
#292 = DIRECTION ( 'NONE',  ( -0.000000000000000000, -1.000000000000000000, -0.000000000000000000 ) ) ;
#293 = CARTESIAN_POINT ( 'NONE',  ( 12.50000000000000000, 124.9999999999999858, 1.530808498934191719E-15 ) ) ;
#294 = ADVANCED_FACE ( 'NONE', ( #28 ), #145, .T. ) ;
#295 = ORIENTED_EDGE ( 'NONE', *, *, #19, .F. ) ;
#296 = PRESENTATION_STYLE_ASSIGNMENT (( #213 ) ) ;
#297 = MANIFOLD_SOLID_BREP ( 'Revolve - Cutting Edge', #53 ) ;
#298 = ORIENTED_EDGE ( 'NONE', *, *, #19, .T. ) ;
#299 = ORIENTED_EDGE ( 'NONE', *, *, #322, .F. ) ;
#300 = ORIENTED_EDGE ( 'NONE', *, *, #322, .T. ) ;
#301 = UNCERTAINTY_MEASURE_WITH_UNIT (LENGTH_MEASURE( 1.000000000000000082E-05 ), #211, 'distance_accuracy_value', 'NONE');
#302 = CARTESIAN_POINT ( 'NONE',  ( 0.000000000000000000, 0.000000000000000000, 0.000000000000000000 ) ) ;
#303 = DIRECTION ( 'NONE',  ( 1.000000000000000000, 0.000000000000000000, 0.000000000000000000 ) ) ;
#304 = CARTESIAN_POINT ( 'NONE',  ( 0.000000000000000000, 0.000000000000000000, 0.000000000000000000 ) ) ;
#305 = SURFACE_STYLE_USAGE ( .BOTH. , #133 ) ;
#306 = CIRCLE ( 'NONE', #143, 12.49999999999999645 ) ;
#307 =( GEOMETRIC_REPRESENTATION_CONTEXT ( 3 ) GLOBAL_UNCERTAINTY_ASSIGNED_CONTEXT ( ( #301 ) ) GLOBAL_UNIT_ASSIGNED_CONTEXT ( ( #211, #11, #345 ) ) REPRESENTATION_CONTEXT ( 'NONE', 'WORKASPACE' ) );
#308 = FACE_OUTER_BOUND ( 'NONE', #41, .T. ) ;
#309 = FACE_OUTER_BOUND ( 'NONE', #360, .T. ) ;
#310 = SURFACE_STYLE_USAGE ( .BOTH. , #198 ) ;
#311 = CIRCLE ( 'NONE', #358, 11.50000000000000000 ) ;
#312 = CYLINDRICAL_SURFACE ( 'NONE', #197, 12.50000000000000000 ) ;
#313 = DIRECTION ( 'NONE',  ( -0.000000000000000000, -1.000000000000000000, -0.000000000000000000 ) ) ;
#314 = MECHANICAL_DESIGN_GEOMETRIC_PRESENTATION_REPRESENTATION (  '', ( #216 ), #224 ) ;
#315 = AXIS2_PLACEMENT_3D ( 'NONE', #60, #29, #92 ) ;
#316 = DIRECTION ( 'NONE',  ( -0.000000000000000000, -1.000000000000000000, -0.000000000000000000 ) ) ;
#317 = CARTESIAN_POINT ( 'NONE',  ( 0.000000000000000000, 0.000000000000000000, -12.50000000000000000 ) ) ;
#318 = CARTESIAN_POINT ( 'NONE',  ( 12.50000000000000000, 124.9999999999999858, 0.000000000000000000 ) ) ;
#319 = ORIENTED_EDGE ( 'NONE', *, *, #326, .F. ) ;
#320 = DIRECTION ( 'NONE',  ( -0.000000000000000000, -1.000000000000000000, -0.000000000000000000 ) ) ;
#321 = SURFACE_SIDE_STYLE ('',( #356 ) ) ;
#322 = EDGE_CURVE ( 'NONE', #270, #128, #112, .T. ) ;
#323 = STYLED_ITEM ( 'NONE', ( #296 ), #10 ) ;
#324 = ORIENTED_EDGE ( 'NONE', *, *, #135, .T. ) ;
#325 = CIRCLE ( 'NONE', #34, 12.49999999999999645 ) ;
#326 = EDGE_CURVE ( 'NONE', #221, #212, #334, .T. ) ;
#327 = EDGE_LOOP ( 'NONE', ( #295, #74 ) ) ;
#328 = EDGE_LOOP ( 'NONE', ( #298, #103, #156, #299 ) ) ;
#329 = ADVANCED_FACE ( 'NONE', ( #308 ), #163, .T. ) ;
#330 = ORIENTED_EDGE ( 'NONE', *, *, #188, .T. ) ;
#331 =( GEOMETRIC_REPRESENTATION_CONTEXT ( 3 ) GLOBAL_UNCERTAINTY_ASSIGNED_CONTEXT ( ( #160 ) ) GLOBAL_UNIT_ASSIGNED_CONTEXT ( ( #30, #165, #178 ) ) REPRESENTATION_CONTEXT ( 'NONE', 'WORKASPACE' ) );
#332 = UNCERTAINTY_MEASURE_WITH_UNIT (LENGTH_MEASURE( 1.000000000000000082E-05 ), #283, 'distance_accuracy_value', 'NONE');
#333 = ORIENTED_EDGE ( 'NONE', *, *, #261, .F. ) ;
#334 = CIRCLE ( 'NONE', #16, 12.50000000000000000 ) ;
#335 =( GEOMETRIC_REPRESENTATION_CONTEXT ( 3 ) GLOBAL_UNCERTAINTY_ASSIGNED_CONTEXT ( ( #332 ) ) GLOBAL_UNIT_ASSIGNED_CONTEXT ( ( #283, #84, #140 ) ) REPRESENTATION_CONTEXT ( 'NONE', 'WORKASPACE' ) );
#336 = CARTESIAN_POINT ( 'NONE',  ( 0.000000000000000000, 1.000000000000000000, 0.000000000000000000 ) ) ;
#337 = FILL_AREA_STYLE ('',( #367 ) ) ;
#338 = STYLED_ITEM ( 'NONE', ( #12 ), #359 ) ;
#339 = DIRECTION ( 'NONE',  ( 0.000000000000000000, -1.000000000000000000, -0.000000000000000000 ) ) ;
#340 = FILL_AREA_STYLE_COLOUR ( '', #352 ) ;
#341 = FILL_AREA_STYLE ('',( #229 ) ) ;
#342 = COLOUR_RGB ( '',1.000000000000000000, 0.000000000000000000, 0.000000000000000000 ) ;
#343 = CARTESIAN_POINT ( 'NONE',  ( 1.469576158976823947E-15, 0.000000000000000000, 11.50000000000000000 ) ) ;
#344 = SURFACE_SIDE_STYLE ('',( #349 ) ) ;
#345 =( NAMED_UNIT ( * ) SI_UNIT ( $, .STERADIAN. ) SOLID_ANGLE_UNIT ( ) );
#346 = DIRECTION ( 'NONE',  ( 1.217753221838294133E-16, -1.000000000000000000, 0.000000000000000000 ) ) ;
#347 = PRODUCT_DEFINITION_CONTEXT ( 'detailed design', #266, 'design' ) ;
#348 = DIRECTION ( 'NONE',  ( -1.000000000000000000, 0.000000000000000000, 0.000000000000000000 ) ) ;
#349 = SURFACE_STYLE_FILL_AREA ( #6 ) ;
#350 = STYLED_ITEM ( 'NONE', ( #228 ), #48 ) ;
#351 = ORIENTED_EDGE ( 'NONE', *, *, #245, .T. ) ;
#352 = COLOUR_RGB ( '',0.7921568627450980005, 0.8196078431372548767, 0.9333333333333333481 ) ;
#353 = AXIS2_PLACEMENT_3D ( 'NONE', #80, #17, #303 ) ;
#354 = ORIENTED_EDGE ( 'NONE', *, *, #287, .T. ) ;
#355 =( NAMED_UNIT ( * ) PLANE_ANGLE_UNIT ( ) SI_UNIT ( $, .RADIAN. ) );
#356 = SURFACE_STYLE_FILL_AREA ( #290 ) ;
#357 = DIRECTION ( 'NONE',  ( -0.000000000000000000, -1.000000000000000000, -0.000000000000000000 ) ) ;
#358 = AXIS2_PLACEMENT_3D ( 'NONE', #233, #32, #4 ) ;
#359 = ADVANCED_FACE ( 'NONE', ( #157 ), #312, .T. ) ;
#360 = EDGE_LOOP ( 'NONE', ( #14, #330, #47, #185 ) ) ;
#361 = DIRECTION ( 'NONE',  ( -0.000000000000000000, -1.000000000000000000, -0.000000000000000000 ) ) ;
#362 = EDGE_CURVE ( 'NONE', #279, #182, #288, .T. ) ;
#363 = DIRECTION ( 'NONE',  ( 0.000000000000000000, -0.000000000000000000, 1.000000000000000000 ) ) ;
#364 = AXIS2_PLACEMENT_3D ( 'NONE', #318, #346, #69 ) ;
#365 = CARTESIAN_POINT ( 'NONE',  ( 12.50000000000000000, 50.00000000000000000, 1.530808498934192113E-15 ) ) ;
#366 = CARTESIAN_POINT ( 'NONE',  ( 0.000000000000000000, 1.000000000000000000, -12.50000000000000000 ) ) ;
#367 = FILL_AREA_STYLE_COLOUR ( '', #273 ) ;
#368 = DIRECTION ( 'NONE',  ( -0.000000000000000000, -1.000000000000000000, -0.000000000000000000 ) ) ;
#369 = DIRECTION ( 'NONE',  ( -0.000000000000000000, -1.000000000000000000, -0.000000000000000000 ) ) ;
#370 = ORIENTED_EDGE ( 'NONE', *, *, #230, .T. ) ;
ENDSEC;
END-ISO-10303-21;
