ISO-10303-21;
HEADER;
FILE_DESCRIPTION (( 'STEP AP214' ),
    '1' );
FILE_NAME ('Micro_AEMM-040-4.STEP',
    '2022-03-15T14:25:32',
    ( '' ),
    ( '' ),
    'SwSTEP 2.0',
    'SolidWorks 2022',
    '' );
FILE_SCHEMA (( 'AUTOMOTIVE_DESIGN' ));
ENDSEC;

DATA;
#1 = CARTESIAN_POINT ( 'NONE',  ( 0.000000000000000000, 0.000000000000000000, 2.244094000000000033 ) ) ;
#2 = LENGTH_MEASURE_WITH_UNIT ( LENGTH_MEASURE( 0.02539999999999999897 ), #274 );
#3 = FACE_OUTER_BOUND ( 'NONE', #168, .T. ) ;
#4 = EDGE_CURVE ( 'NONE', #224, #72, #38, .T. ) ;
#5 = DIRECTION ( 'NONE',  ( -0.000000000000000000, -0.000000000000000000, -1.000000000000000000 ) ) ;
#6 = CARTESIAN_POINT ( 'NONE',  ( 0.000000000000000000, 0.000000000000000000, 2.244094000000000033 ) ) ;
#7 = EDGE_CURVE ( 'NONE', #68, #74, #31, .T. ) ;
#8 = FACE_OUTER_BOUND ( 'NONE', #195, .T. ) ;
#9 = MECHANICAL_DESIGN_GEOMETRIC_PRESENTATION_REPRESENTATION (  '', ( #193 ), #161 ) ;
#10 = CIRCLE ( 'NONE', #181, 0.07866125999999999674 ) ;
#11 =( GEOMETRIC_REPRESENTATION_CONTEXT ( 3 ) GLOBAL_UNCERTAINTY_ASSIGNED_CONTEXT ( ( #214 ) ) GLOBAL_UNIT_ASSIGNED_CONTEXT ( ( #265, #16, #174 ) ) REPRESENTATION_CONTEXT ( 'NONE', 'WORKASPACE' ) );
#12 = DIRECTION ( 'NONE',  ( -0.000000000000000000, -0.000000000000000000, -1.000000000000000000 ) ) ;
#13 = CIRCLE ( 'NONE', #79, 0.07866125999999999674 ) ;
#14 = STYLED_ITEM ( 'NONE', ( #93 ), #170 ) ;
#15 = CARTESIAN_POINT ( 'NONE',  ( -0.1031100000000002570, 0.000000000000000000, 2.244094000000000033 ) ) ;
#16 =( NAMED_UNIT ( * ) PLANE_ANGLE_UNIT ( ) SI_UNIT ( $, .RADIAN. ) );
#17 = ORIENTED_EDGE ( 'NONE', *, *, #36, .T. ) ;
#18 =( LENGTH_UNIT ( ) NAMED_UNIT ( * ) SI_UNIT ( $, .METRE. ) );
#19 = DIRECTION ( 'NONE',  ( -1.000000000000000000, 0.000000000000000000, 1.224646799147352961E-16 ) ) ;
#20 = DIRECTION ( 'NONE',  ( 1.000000000000000000, 0.000000000000000000, 0.000000000000000000 ) ) ;
#21 = AXIS2_PLACEMENT_3D ( 'NONE', #34, #12, #163 ) ;
#22 = CARTESIAN_POINT ( 'NONE',  ( 5.303590139535433909E-17, 0.000000000000000000, 0.4330709999999999837 ) ) ;
#23 = DIRECTION ( 'NONE',  ( -1.224646799147353207E-16, -0.000000000000000000, -1.000000000000000000 ) ) ;
#24 = LINE ( 'NONE', #159, #166 ) ;
#25 =( CONVERSION_BASED_UNIT ( 'INCH', #2 ) LENGTH_UNIT ( ) NAMED_UNIT ( #43 ) );
#26 = VECTOR ( 'NONE', #232, 39.37007874015747433 ) ;
#27 = CARTESIAN_POINT ( 'NONE',  ( 0.000000000000000000, 0.000000000000000000, 2.244094000000000033 ) ) ;
#28 = EDGE_CURVE ( 'NONE', #45, #191, #60, .T. ) ;
#29 = CARTESIAN_POINT ( 'NONE',  ( 0.07866126000000003837, 0.000000000000000000, 0.4330709999999999837 ) ) ;
#30 = CARTESIAN_POINT ( 'NONE',  ( -0.1181099999999999234, 0.000000000000000000, 0.6567959219688248584 ) ) ;
#31 = CIRCLE ( 'NONE', #32, 0.1031100000000002570 ) ;
#32 = AXIS2_PLACEMENT_3D ( 'NONE', #296, #291, #206 ) ;
#33 = CIRCLE ( 'NONE', #145, 0.1031100000000002570 ) ;
#34 = CARTESIAN_POINT ( 'NONE',  ( 0.000000000000000000, 0.000000000000000000, 2.244094000000000033 ) ) ;
#35 = EDGE_LOOP ( 'NONE', ( #92, #137, #49, #154 ) ) ;
#36 = EDGE_CURVE ( 'NONE', #191, #45, #122, .T. ) ;
#37 = LINE ( 'NONE', #190, #222 ) ;
#38 = CIRCLE ( 'NONE', #157, 0.07866125999999999674 ) ;
#39 = PRESENTATION_LAYER_ASSIGNMENT (  '', '', ( #193 ) ) ;
#40 =( NAMED_UNIT ( * ) SI_UNIT ( $, .STERADIAN. ) SOLID_ANGLE_UNIT ( ) );
#41 = SHAPE_DEFINITION_REPRESENTATION ( #290, #170 ) ;
#42 = PRODUCT_DEFINITION_CONTEXT ( 'detailed design', #243, 'design' ) ;
#43 = DIMENSIONAL_EXPONENTS ( 1.000000000000000000, 0.000000000000000000, 0.000000000000000000, 0.000000000000000000, 0.000000000000000000, 0.000000000000000000, 0.000000000000000000 ) ;
#44 = CARTESIAN_POINT ( 'NONE',  ( 0.07866126000000003837, 0.000000000000000000, 0.4330709999999999837 ) ) ;
#45 = VERTEX_POINT ( 'NONE', #175 ) ;
#46 = EDGE_LOOP ( 'NONE', ( #293, #183, #267, #219 ) ) ;
#47 = CARTESIAN_POINT ( 'NONE',  ( 1.179729942015078748E-33, 0.000000000000000000, 9.633226027589770864E-18 ) ) ;
#48 = VECTOR ( 'NONE', #220, 39.37007874015748143 ) ;
#49 = ORIENTED_EDGE ( 'NONE', *, *, #242, .T. ) ;
#50 = FILL_AREA_STYLE_COLOUR ( '', #148 ) ;
#51 = EDGE_CURVE ( 'NONE', #273, #136, #13, .T. ) ;
#52 = DIRECTION ( 'NONE',  ( -1.000000000000000000, 0.000000000000000000, 1.224646799147352961E-16 ) ) ;
#53 = CYLINDRICAL_SURFACE ( 'NONE', #269, 0.07866125999999999674 ) ;
#54 = AXIS2_PLACEMENT_3D ( 'NONE', #58, #282, #149 ) ;
#55 = CONICAL_SURFACE ( 'NONE', #153, 0.1031100000000002570, 0.7853981633974318477 ) ;
#56 = CARTESIAN_POINT ( 'NONE',  ( 5.303590139535433909E-17, 0.000000000000000000, 0.4330709999999999837 ) ) ;
#57 = SURFACE_SIDE_STYLE ('',( #184 ) ) ;
#58 = CARTESIAN_POINT ( 'NONE',  ( 0.000000000000000000, 0.000000000000000000, 0.000000000000000000 ) ) ;
#59 = EDGE_CURVE ( 'NONE', #136, #241, #118, .T. ) ;
#60 = CIRCLE ( 'NONE', #98, 0.1181100000000000066 ) ;
#61 = FACE_OUTER_BOUND ( 'NONE', #263, .T. ) ;
#62 = EDGE_LOOP ( 'NONE', ( #164, #115, #213, #240 ) ) ;
#63 =( CONVERSION_BASED_UNIT ( 'INCH', #283 ) LENGTH_UNIT ( ) NAMED_UNIT ( #294 ) );
#64 = ORIENTED_EDGE ( 'NONE', *, *, #119, .T. ) ;
#65 = AXIS2_PLACEMENT_3D ( 'NONE', #194, #109, #127 ) ;
#66 = VECTOR ( 'NONE', #129, 39.37007874015748143 ) ;
#67 = CYLINDRICAL_SURFACE ( 'NONE', #54, 0.07866125999999999674 ) ;
#68 = VERTEX_POINT ( 'NONE', #297 ) ;
#69 = PRODUCT_CONTEXT ( 'NONE', #201, 'mechanical' ) ;
#70 = ORIENTED_EDGE ( 'NONE', *, *, #242, .F. ) ;
#71 = EDGE_LOOP ( 'NONE', ( #150, #17, #177, #261 ) ) ;
#72 = VERTEX_POINT ( 'NONE', #95 ) ;
#73 = FILL_AREA_STYLE ('',( #288 ) ) ;
#74 = VERTEX_POINT ( 'NONE', #15 ) ;
#75 = CONICAL_SURFACE ( 'NONE', #258, 0.1031100000000002570, 0.7853981633974318477 ) ;
#76 = CARTESIAN_POINT ( 'NONE',  ( 1.179729942015078748E-33, 0.000000000000000000, 9.633226027589770864E-18 ) ) ;
#77 = DIRECTION ( 'NONE',  ( -0.000000000000000000, -0.000000000000000000, -1.000000000000000000 ) ) ;
#78 = CARTESIAN_POINT ( 'NONE',  ( 0.000000000000000000, 0.000000000000000000, 2.244094000000000033 ) ) ;
#79 = AXIS2_PLACEMENT_3D ( 'NONE', #22, #23, #198 ) ;
#80 = CARTESIAN_POINT ( 'NONE',  ( 0.000000000000000000, 0.000000000000000000, 2.244094000000000033 ) ) ;
#81 = EDGE_CURVE ( 'NONE', #204, #241, #221, .T. ) ;
#82 =( NAMED_UNIT ( * ) PLANE_ANGLE_UNIT ( ) SI_UNIT ( $, .RADIAN. ) );
#83 = DIRECTION ( 'NONE',  ( 1.000000000000000000, 0.000000000000000000, 0.000000000000000000 ) ) ;
#84 = ORIENTED_EDGE ( 'NONE', *, *, #235, .T. ) ;
#85 = EDGE_LOOP ( 'NONE', ( #134, #223, #64, #108 ) ) ;
#86 = FACE_OUTER_BOUND ( 'NONE', #35, .T. ) ;
#87 = CONICAL_SURFACE ( 'NONE', #152, 0.07866125999999999674, 0.1745329251994338915 ) ;
#88 = SURFACE_STYLE_FILL_AREA ( #73 ) ;
#89 = CARTESIAN_POINT ( 'NONE',  ( 0.000000000000000000, 0.000000000000000000, 2.229093999999999465 ) ) ;
#90 = ADVANCED_FACE ( 'NONE', ( #244 ), #138, .T. ) ;
#91 = ORIENTED_EDGE ( 'NONE', *, *, #81, .F. ) ;
#92 = ORIENTED_EDGE ( 'NONE', *, *, #255, .F. ) ;
#93 = PRESENTATION_STYLE_ASSIGNMENT (( #113 ) ) ;
#94 = DIRECTION ( 'NONE',  ( 0.000000000000000000, 0.000000000000000000, -1.000000000000000000 ) ) ;
#95 = CARTESIAN_POINT ( 'NONE',  ( -0.07866125999999999674, 0.000000000000000000, 1.926645205517954173E-17 ) ) ;
#96 = ADVANCED_FACE ( 'NONE', ( #120 ), #121, .T. ) ;
#97 = DIRECTION ( 'NONE',  ( -1.000000000000000000, 0.000000000000000000, 0.000000000000000000 ) ) ;
#98 = AXIS2_PLACEMENT_3D ( 'NONE', #266, #94, #271 ) ;
#99 = DIRECTION ( 'NONE',  ( -0.7071067811865358044, 0.000000000000000000, -0.7071067811865590080 ) ) ;
#100 =( GEOMETRIC_REPRESENTATION_CONTEXT ( 3 ) GLOBAL_UNCERTAINTY_ASSIGNED_CONTEXT ( ( #103 ) ) GLOBAL_UNIT_ASSIGNED_CONTEXT ( ( #63, #82, #40 ) ) REPRESENTATION_CONTEXT ( 'NONE', 'WORKASPACE' ) );
#101 = EDGE_CURVE ( 'NONE', #241, #204, #210, .T. ) ;
#102 = DIRECTION ( 'NONE',  ( 0.000000000000000000, 0.000000000000000000, 1.000000000000000000 ) ) ;
#103 = UNCERTAINTY_MEASURE_WITH_UNIT (LENGTH_MEASURE( 1.000000000000000082E-05 ), #63, 'distance_accuracy_value', 'NONE');
#104 = CARTESIAN_POINT ( 'NONE',  ( 8.043430235321561285E-17, 0.000000000000000000, 0.6567959219688248584 ) ) ;
#105 = LINE ( 'NONE', #298, #128 ) ;
#106 = FACE_OUTER_BOUND ( 'NONE', #85, .T. ) ;
#107 = ADVANCED_FACE ( 'NONE', ( #141 ), #87, .T. ) ;
#108 = ORIENTED_EDGE ( 'NONE', *, *, #36, .F. ) ;
#109 = DIRECTION ( 'NONE',  ( -1.224646799147353207E-16, -0.000000000000000000, -1.000000000000000000 ) ) ;
#110 = DIRECTION ( 'NONE',  ( -0.000000000000000000, -0.000000000000000000, -1.000000000000000000 ) ) ;
#111 = ADVANCED_FACE ( 'NONE', ( #3 ), #53, .T. ) ;
#112 = DIRECTION ( 'NONE',  ( 0.000000000000000000, 0.000000000000000000, 1.000000000000000000 ) ) ;
#113 = SURFACE_STYLE_USAGE ( .BOTH. , #289 ) ;
#114 = ORIENTED_EDGE ( 'NONE', *, *, #7, .T. ) ;
#115 = ORIENTED_EDGE ( 'NONE', *, *, #247, .F. ) ;
#116 = PRODUCT ( 'Micro_AEMM-040-4', 'Micro_AEMM-040-4', '', ( #69 ) ) ;
#117 = ORIENTED_EDGE ( 'NONE', *, *, #51, .T. ) ;
#118 = LINE ( 'NONE', #44, #48 ) ;
#119 = EDGE_CURVE ( 'NONE', #74, #45, #105, .T. ) ;
#120 = FACE_OUTER_BOUND ( 'NONE', #71, .T. ) ;
#121 = CYLINDRICAL_SURFACE ( 'NONE', #237, 0.1181100000000000066 ) ;
#122 = CIRCLE ( 'NONE', #199, 0.1181100000000000066 ) ;
#123 = FACE_OUTER_BOUND ( 'NONE', #131, .T. ) ;
#124 = COLOUR_RGB ( '',0.7921568627450980005, 0.8196078431372548767, 0.9333333333333333481 ) ;
#125 = FILL_AREA_STYLE ('',( #50 ) ) ;
#126 = FACE_OUTER_BOUND ( 'NONE', #46, .T. ) ;
#127 = DIRECTION ( 'NONE',  ( -1.000000000000000000, 0.000000000000000000, 0.000000000000000000 ) ) ;
#128 = VECTOR ( 'NONE', #99, 39.37007874015748854 ) ;
#129 = DIRECTION ( 'NONE',  ( -1.224646799147353207E-16, -0.000000000000000000, -1.000000000000000000 ) ) ;
#130 = CARTESIAN_POINT ( 'NONE',  ( 0.1181100000000000899, 1.446430334472940009E-17, 0.6567959219688248584 ) ) ;
#131 = EDGE_LOOP ( 'NONE', ( #257, #114 ) ) ;
#132 = EDGE_CURVE ( 'NONE', #68, #191, #24, .T. ) ;
#133 = PRESENTATION_LAYER_ASSIGNMENT (  '', '', ( #14 ) ) ;
#134 = ORIENTED_EDGE ( 'NONE', *, *, #132, .F. ) ;
#135 = DIRECTION ( 'NONE',  ( 0.000000000000000000, 0.000000000000000000, 1.000000000000000000 ) ) ;
#136 = VERTEX_POINT ( 'NONE', #29 ) ;
#137 = ORIENTED_EDGE ( 'NONE', *, *, #247, .T. ) ;
#138 = CONICAL_SURFACE ( 'NONE', #180, 0.07866125999999999674, 0.1745329251994338915 ) ;
#139 = EDGE_LOOP ( 'NONE', ( #239, #284, #227, #268 ) ) ;
#140 = ADVANCED_FACE ( 'NONE', ( #126 ), #75, .T. ) ;
#141 = FACE_OUTER_BOUND ( 'NONE', #139, .T. ) ;
#142 = LINE ( 'NONE', #185, #26 ) ;
#143 = CARTESIAN_POINT ( 'NONE',  ( 5.303590139535433909E-17, 0.000000000000000000, 0.4330709999999999837 ) ) ;
#144 = CARTESIAN_POINT ( 'NONE',  ( 0.07866125999999999674, 9.633226027589770864E-18, 0.000000000000000000 ) ) ;
#145 = AXIS2_PLACEMENT_3D ( 'NONE', #6, #196, #83 ) ;
#146 = EDGE_CURVE ( 'NONE', #273, #204, #142, .T. ) ;
#147 = CARTESIAN_POINT ( 'NONE',  ( 0.07866125999999999674, 9.633226027589770864E-18, -9.633226027589770864E-18 ) ) ;
#148 = COLOUR_RGB ( '',0.7921568627450980005, 0.8196078431372548767, 0.9333333333333333481 ) ;
#149 = DIRECTION ( 'NONE',  ( -1.000000000000000000, 0.000000000000000000, 1.224646799147352961E-16 ) ) ;
#150 = ORIENTED_EDGE ( 'NONE', *, *, #235, .F. ) ;
#151 = DIRECTION ( 'NONE',  ( 1.000000000000000000, 0.000000000000000000, 0.000000000000000000 ) ) ;
#152 = AXIS2_PLACEMENT_3D ( 'NONE', #56, #251, #253 ) ;
#153 = AXIS2_PLACEMENT_3D ( 'NONE', #80, #264, #286 ) ;
#154 = ORIENTED_EDGE ( 'NONE', *, *, #4, .F. ) ;
#155 = DIRECTION ( 'NONE',  ( 0.000000000000000000, 0.000000000000000000, -1.000000000000000000 ) ) ;
#156 = ORIENTED_EDGE ( 'NONE', *, *, #165, .F. ) ;
#157 = AXIS2_PLACEMENT_3D ( 'NONE', #47, #182, #19 ) ;
#158 = DIRECTION ( 'NONE',  ( 1.224646799147353207E-16, 0.000000000000000000, 1.000000000000000000 ) ) ;
#159 = CARTESIAN_POINT ( 'NONE',  ( 0.1031100000000002570, 1.262733314600838667E-17, 2.244094000000000033 ) ) ;
#160 = MANIFOLD_SOLID_BREP ( 'Cut-Revolve1', #172 ) ;
#161 =( GEOMETRIC_REPRESENTATION_CONTEXT ( 3 ) GLOBAL_UNCERTAINTY_ASSIGNED_CONTEXT ( ( #176 ) ) GLOBAL_UNIT_ASSIGNED_CONTEXT ( ( #25, #277, #233 ) ) REPRESENTATION_CONTEXT ( 'NONE', 'WORKASPACE' ) );
#162 = DIRECTION ( 'NONE',  ( -1.224646799147353207E-16, -0.000000000000000000, -1.000000000000000000 ) ) ;
#163 = DIRECTION ( 'NONE',  ( -1.000000000000000000, 0.000000000000000000, 0.000000000000000000 ) ) ;
#164 = ORIENTED_EDGE ( 'NONE', *, *, #146, .F. ) ;
#165 = EDGE_CURVE ( 'NONE', #72, #224, #10, .T. ) ;
#166 = VECTOR ( 'NONE', #208, 39.37007874015748854 ) ;
#167 =( LENGTH_UNIT ( ) NAMED_UNIT ( * ) SI_UNIT ( $, .METRE. ) );
#168 = EDGE_LOOP ( 'NONE', ( #117, #203, #156, #70 ) ) ;
#169 = APPLICATION_PROTOCOL_DEFINITION ( 'draft international standard', 'automotive_design', 1998, #201 ) ;
#170 = ADVANCED_BREP_SHAPE_REPRESENTATION ( 'Micro_AEMM-040-4', ( #160, #275 ), #100 ) ;
#171 = CARTESIAN_POINT ( 'NONE',  ( 0.1181100000000000066, 1.446430334472939084E-17, 2.229093999999999465 ) ) ;
#172 = CLOSED_SHELL ( 'NONE', ( #111, #107, #140, #202, #96, #173, #276, #90, #230, #228 ) ) ;
#173 = ADVANCED_FACE ( 'NONE', ( #123 ), #209, .T. ) ;
#174 =( NAMED_UNIT ( * ) SI_UNIT ( $, .STERADIAN. ) SOLID_ANGLE_UNIT ( ) );
#175 = CARTESIAN_POINT ( 'NONE',  ( -0.1181100000000000066, 0.000000000000000000, 2.229093999999999465 ) ) ;
#176 = UNCERTAINTY_MEASURE_WITH_UNIT (LENGTH_MEASURE( 1.000000000000000082E-05 ), #25, 'distance_accuracy_value', 'NONE');
#177 = ORIENTED_EDGE ( 'NONE', *, *, #281, .T. ) ;
#178 = ORIENTED_EDGE ( 'NONE', *, *, #165, .T. ) ;
#179 = PRODUCT_DEFINITION ( 'UNKNOWN', '', #218, #42 ) ;
#180 = AXIS2_PLACEMENT_3D ( 'NONE', #143, #158, #254 ) ;
#181 = AXIS2_PLACEMENT_3D ( 'NONE', #76, #250, #52 ) ;
#182 = DIRECTION ( 'NONE',  ( -1.224646799147353207E-16, -0.000000000000000000, -1.000000000000000000 ) ) ;
#183 = ORIENTED_EDGE ( 'NONE', *, *, #132, .T. ) ;
#184 = SURFACE_STYLE_FILL_AREA ( #125 ) ;
#185 = CARTESIAN_POINT ( 'NONE',  ( -0.07866125999999994123, 9.633226027589770864E-18, 0.4330709999999999837 ) ) ;
#186 = DIRECTION ( 'NONE',  ( -1.000000000000000000, 0.000000000000000000, 1.224646799147352961E-16 ) ) ;
#187 = DIRECTION ( 'NONE',  ( 1.000000000000000000, 0.000000000000000000, -0.000000000000000000 ) ) ;
#188 = AXIS2_PLACEMENT_3D ( 'NONE', #259, #112, #256 ) ;
#189 = PRESENTATION_STYLE_ASSIGNMENT (( #229 ) ) ;
#190 = CARTESIAN_POINT ( 'NONE',  ( -0.1181100000000000066, 0.000000000000000000, 2.244094000000000033 ) ) ;
#191 = VERTEX_POINT ( 'NONE', #171 ) ;
#192 = LINE ( 'NONE', #234, #216 ) ;
#193 = STYLED_ITEM ( 'NONE', ( #189 ), #160 ) ;
#194 = CARTESIAN_POINT ( 'NONE',  ( 5.303590139535433909E-17, 0.000000000000000000, 0.4330709999999999837 ) ) ;
#195 = EDGE_LOOP ( 'NONE', ( #248, #84, #91, #245 ) ) ;
#196 = DIRECTION ( 'NONE',  ( 0.000000000000000000, 0.000000000000000000, 1.000000000000000000 ) ) ;
#197 = APPLICATION_PROTOCOL_DEFINITION ( 'draft international standard', 'automotive_design', 1998, #243 ) ;
#198 = DIRECTION ( 'NONE',  ( -1.000000000000000000, 0.000000000000000000, 0.000000000000000000 ) ) ;
#199 = AXIS2_PLACEMENT_3D ( 'NONE', #89, #155, #246 ) ;
#200 = CARTESIAN_POINT ( 'NONE',  ( 8.043430235321561285E-17, 0.000000000000000000, 0.6567959219688248584 ) ) ;
#201 = APPLICATION_CONTEXT ( 'automotive_design' ) ;
#202 = ADVANCED_FACE ( 'NONE', ( #8 ), #236, .T. ) ;
#203 = ORIENTED_EDGE ( 'NONE', *, *, #255, .T. ) ;
#204 = VERTEX_POINT ( 'NONE', #30 ) ;
#205 = AXIS2_PLACEMENT_3D ( 'NONE', #1, #102, #187 ) ;
#206 = DIRECTION ( 'NONE',  ( 1.000000000000000000, 0.000000000000000000, 0.000000000000000000 ) ) ;
#207 = CARTESIAN_POINT ( 'NONE',  ( 0.000000000000000000, 0.000000000000000000, 0.000000000000000000 ) ) ;
#208 = DIRECTION ( 'NONE',  ( 0.7071067811865358044, 8.659560562354788645E-17, -0.7071067811865590080 ) ) ;
#209 = PLANE ( 'NONE',  #205 ) ;
#210 = CIRCLE ( 'NONE', #280, 0.1181100000000000066 ) ;
#211 = LINE ( 'NONE', #147, #66 ) ;
#212 = CARTESIAN_POINT ( 'NONE',  ( -0.07866125999999994123, 1.204876468615957931E-17, 0.4330709999999999837 ) ) ;
#213 = ORIENTED_EDGE ( 'NONE', *, *, #59, .T. ) ;
#214 = UNCERTAINTY_MEASURE_WITH_UNIT (LENGTH_MEASURE( 1.000000000000000082E-05 ), #265, 'distance_accuracy_value', 'NONE');
#215 = LINE ( 'NONE', #260, #252 ) ;
#216 = VECTOR ( 'NONE', #5, 39.37007874015748143 ) ;
#217 = DIRECTION ( 'NONE',  ( -1.224646799147353207E-16, -0.000000000000000000, -1.000000000000000000 ) ) ;
#218 = PRODUCT_DEFINITION_FORMATION_WITH_SPECIFIED_SOURCE ( 'ANY', '', #116, .NOT_KNOWN. ) ;
#219 = ORIENTED_EDGE ( 'NONE', *, *, #119, .F. ) ;
#220 = DIRECTION ( 'NONE',  ( 0.1736481776669313859, 0.000000000000000000, 0.9848077530122077983 ) ) ;
#221 = CIRCLE ( 'NONE', #285, 0.1181100000000000066 ) ;
#222 = VECTOR ( 'NONE', #110, 39.37007874015748143 ) ;
#223 = ORIENTED_EDGE ( 'NONE', *, *, #287, .F. ) ;
#224 = VERTEX_POINT ( 'NONE', #144 ) ;
#225 = CARTESIAN_POINT ( 'NONE',  ( 0.000000000000000000, 0.000000000000000000, 0.000000000000000000 ) ) ;
#226 = ORIENTED_EDGE ( 'NONE', *, *, #4, .T. ) ;
#227 = ORIENTED_EDGE ( 'NONE', *, *, #81, .T. ) ;
#228 = ADVANCED_FACE ( 'NONE', ( #61 ), #238, .F. ) ;
#229 = SURFACE_STYLE_USAGE ( .BOTH. , #57 ) ;
#230 = ADVANCED_FACE ( 'NONE', ( #86 ), #67, .T. ) ;
#231 = MECHANICAL_DESIGN_GEOMETRIC_PRESENTATION_REPRESENTATION (  '', ( #14 ), #11 ) ;
#232 = DIRECTION ( 'NONE',  ( -0.1736481776669311916, 2.126576849575783316E-17, 0.9848077530122080203 ) ) ;
#233 =( NAMED_UNIT ( * ) SI_UNIT ( $, .STERADIAN. ) SOLID_ANGLE_UNIT ( ) );
#234 = CARTESIAN_POINT ( 'NONE',  ( 0.1181100000000000066, 1.446430334472939084E-17, 2.244094000000000033 ) ) ;
#235 = EDGE_CURVE ( 'NONE', #191, #241, #192, .T. ) ;
#236 = CYLINDRICAL_SURFACE ( 'NONE', #21, 0.1181100000000000066 ) ;
#237 = AXIS2_PLACEMENT_3D ( 'NONE', #27, #77, #299 ) ;
#238 = PLANE ( 'NONE',  #188 ) ;
#239 = ORIENTED_EDGE ( 'NONE', *, *, #51, .F. ) ;
#240 = ORIENTED_EDGE ( 'NONE', *, *, #101, .T. ) ;
#241 = VERTEX_POINT ( 'NONE', #130 ) ;
#242 = EDGE_CURVE ( 'NONE', #273, #72, #215, .T. ) ;
#243 = APPLICATION_CONTEXT ( 'automotive_design' ) ;
#244 = FACE_OUTER_BOUND ( 'NONE', #62, .T. ) ;
#245 = ORIENTED_EDGE ( 'NONE', *, *, #281, .F. ) ;
#246 = DIRECTION ( 'NONE',  ( 1.000000000000000000, 0.000000000000000000, 0.000000000000000000 ) ) ;
#247 = EDGE_CURVE ( 'NONE', #136, #273, #295, .T. ) ;
#248 = ORIENTED_EDGE ( 'NONE', *, *, #28, .T. ) ;
#249 = DIRECTION ( 'NONE',  ( 1.000000000000000000, 0.000000000000000000, 0.000000000000000000 ) ) ;
#250 = DIRECTION ( 'NONE',  ( -1.224646799147353207E-16, -0.000000000000000000, -1.000000000000000000 ) ) ;
#251 = DIRECTION ( 'NONE',  ( 1.224646799147353207E-16, 0.000000000000000000, 1.000000000000000000 ) ) ;
#252 = VECTOR ( 'NONE', #217, 39.37007874015748143 ) ;
#253 = DIRECTION ( 'NONE',  ( 1.000000000000000000, 0.000000000000000000, 0.000000000000000000 ) ) ;
#254 = DIRECTION ( 'NONE',  ( 1.000000000000000000, 0.000000000000000000, 0.000000000000000000 ) ) ;
#255 = EDGE_CURVE ( 'NONE', #136, #224, #211, .T. ) ;
#256 = DIRECTION ( 'NONE',  ( 1.000000000000000000, 0.000000000000000000, -0.000000000000000000 ) ) ;
#257 = ORIENTED_EDGE ( 'NONE', *, *, #287, .T. ) ;
#258 = AXIS2_PLACEMENT_3D ( 'NONE', #78, #278, #97 ) ;
#259 = CARTESIAN_POINT ( 'NONE',  ( 0.000000000000000000, 0.000000000000000000, 0.000000000000000000 ) ) ;
#260 = CARTESIAN_POINT ( 'NONE',  ( -0.07866125999999999674, 0.000000000000000000, 9.633226027589770864E-18 ) ) ;
#261 = ORIENTED_EDGE ( 'NONE', *, *, #101, .F. ) ;
#262 = PRODUCT_RELATED_PRODUCT_CATEGORY ( 'part', '', ( #116 ) ) ;
#263 = EDGE_LOOP ( 'NONE', ( #178, #226 ) ) ;
#264 = DIRECTION ( 'NONE',  ( 0.000000000000000000, 0.000000000000000000, -1.000000000000000000 ) ) ;
#265 =( CONVERSION_BASED_UNIT ( 'INCH', #272 ) LENGTH_UNIT ( ) NAMED_UNIT ( #270 ) );
#266 = CARTESIAN_POINT ( 'NONE',  ( 0.000000000000000000, 0.000000000000000000, 2.229093999999999465 ) ) ;
#267 = ORIENTED_EDGE ( 'NONE', *, *, #28, .F. ) ;
#268 = ORIENTED_EDGE ( 'NONE', *, *, #59, .F. ) ;
#269 = AXIS2_PLACEMENT_3D ( 'NONE', #207, #279, #186 ) ;
#270 = DIMENSIONAL_EXPONENTS ( 1.000000000000000000, 0.000000000000000000, 0.000000000000000000, 0.000000000000000000, 0.000000000000000000, 0.000000000000000000, 0.000000000000000000 ) ;
#271 = DIRECTION ( 'NONE',  ( 1.000000000000000000, 0.000000000000000000, 0.000000000000000000 ) ) ;
#272 = LENGTH_MEASURE_WITH_UNIT ( LENGTH_MEASURE( 0.02539999999999999897 ), #18 );
#273 = VERTEX_POINT ( 'NONE', #212 ) ;
#274 =( LENGTH_UNIT ( ) NAMED_UNIT ( * ) SI_UNIT ( $, .METRE. ) );
#275 = AXIS2_PLACEMENT_3D ( 'NONE', #225, #135, #20 ) ;
#276 = ADVANCED_FACE ( 'NONE', ( #106 ), #55, .T. ) ;
#277 =( NAMED_UNIT ( * ) PLANE_ANGLE_UNIT ( ) SI_UNIT ( $, .RADIAN. ) );
#278 = DIRECTION ( 'NONE',  ( 0.000000000000000000, 0.000000000000000000, -1.000000000000000000 ) ) ;
#279 = DIRECTION ( 'NONE',  ( -1.224646799147353207E-16, -0.000000000000000000, -1.000000000000000000 ) ) ;
#280 = AXIS2_PLACEMENT_3D ( 'NONE', #104, #162, #249 ) ;
#281 = EDGE_CURVE ( 'NONE', #45, #204, #37, .T. ) ;
#282 = DIRECTION ( 'NONE',  ( -1.224646799147353207E-16, -0.000000000000000000, -1.000000000000000000 ) ) ;
#283 = LENGTH_MEASURE_WITH_UNIT ( LENGTH_MEASURE( 0.02539999999999999897 ), #167 );
#284 = ORIENTED_EDGE ( 'NONE', *, *, #146, .T. ) ;
#285 = AXIS2_PLACEMENT_3D ( 'NONE', #200, #292, #151 ) ;
#286 = DIRECTION ( 'NONE',  ( -1.000000000000000000, 0.000000000000000000, 0.000000000000000000 ) ) ;
#287 = EDGE_CURVE ( 'NONE', #74, #68, #33, .T. ) ;
#288 = FILL_AREA_STYLE_COLOUR ( '', #124 ) ;
#289 = SURFACE_SIDE_STYLE ('',( #88 ) ) ;
#290 = PRODUCT_DEFINITION_SHAPE ( 'NONE', 'NONE',  #179 ) ;
#291 = DIRECTION ( 'NONE',  ( 0.000000000000000000, 0.000000000000000000, 1.000000000000000000 ) ) ;
#292 = DIRECTION ( 'NONE',  ( -1.224646799147353207E-16, -0.000000000000000000, -1.000000000000000000 ) ) ;
#293 = ORIENTED_EDGE ( 'NONE', *, *, #7, .F. ) ;
#294 = DIMENSIONAL_EXPONENTS ( 1.000000000000000000, 0.000000000000000000, 0.000000000000000000, 0.000000000000000000, 0.000000000000000000, 0.000000000000000000, 0.000000000000000000 ) ;
#295 = CIRCLE ( 'NONE', #65, 0.07866125999999999674 ) ;
#296 = CARTESIAN_POINT ( 'NONE',  ( 0.000000000000000000, 0.000000000000000000, 2.244094000000000033 ) ) ;
#297 = CARTESIAN_POINT ( 'NONE',  ( 0.1031100000000002570, 1.354581824536888722E-17, 2.244094000000000033 ) ) ;
#298 = CARTESIAN_POINT ( 'NONE',  ( -0.1031100000000002570, 0.000000000000000000, 2.244094000000000033 ) ) ;
#299 = DIRECTION ( 'NONE',  ( -1.000000000000000000, 0.000000000000000000, 0.000000000000000000 ) ) ;
ENDSEC;
END-ISO-10303-21;
