ISO-10303-21;
HEADER;
FILE_DESCRIPTION (( 'STEP AP214' ),
    '1' );
FILE_NAME ('Micro_BEMM-030-2.STEP',
    '2021-09-03T13:20:43',
    ( '' ),
    ( '' ),
    'SwSTEP 2.0',
    'SolidWorks 2020',
    '' );
FILE_SCHEMA (( 'AUTOMOTIVE_DESIGN' ));
ENDSEC;

DATA;
#1 = ORIENTED_EDGE ( 'NONE', *, *, #97, .F. ) ;
#2 = CIRCLE ( 'NONE', #122, 0.05905499999999998251 ) ;
#3 = AXIS2_PLACEMENT_3D ( 'NONE', #188, #248, #164 ) ;
#4 = FACE_OUTER_BOUND ( 'NONE', #316, .T. ) ;
#5 = CARTESIAN_POINT ( 'NONE',  ( -0.04405500000000001082, 0.0000000000000000000, 1.496062999999999921 ) ) ;
#6 = VERTEX_POINT ( 'NONE', #32 ) ;
#7 = DIRECTION ( 'NONE',  ( -1.000000000000000000, 0.0000000000000000000, 0.0000000000000000000 ) ) ;
#8 = ORIENTED_EDGE ( 'NONE', *, *, #96, .T. ) ;
#9 = AXIS2_PLACEMENT_3D ( 'NONE', #66, #138, #48 ) ;
#10 = ADVANCED_FACE ( 'NONE', ( #4 ), #198, .T. ) ;
#11 = DIRECTION ( 'NONE',  ( 0.0000000000000000000, 1.000000000000000000, 0.0000000000000000000 ) ) ;
#12 = EDGE_LOOP ( 'NONE', ( #191, #112, #83, #189 ) ) ;
#13 = FACE_OUTER_BOUND ( 'NONE', #257, .T. ) ;
#14 = DIRECTION ( 'NONE',  ( 0.1736481776669321631, 0.0000000000000000000, 0.9848077530122076872 ) ) ;
#15 = AXIS2_PLACEMENT_3D ( 'NONE', #135, #292, #264 ) ;
#16 = ORIENTED_EDGE ( 'NONE', *, *, #137, .F. ) ;
#17 = DIRECTION ( 'NONE',  ( 1.224646799147352961E-16, 0.0000000000000000000, 1.000000000000000000 ) ) ;
#18 = CYLINDRICAL_SURFACE ( 'NONE', #46, 0.05899594499999997327 ) ;
#19 = ORIENTED_EDGE ( 'NONE', *, *, #170, .T. ) ;
#20 =( NAMED_UNIT ( * ) PLANE_ANGLE_UNIT ( ) SI_UNIT ( $, .RADIAN. ) );
#21 = DIRECTION ( 'NONE',  ( 1.000000000000000000, 0.0000000000000000000, 0.0000000000000000000 ) ) ;
#22 =( LENGTH_UNIT ( ) NAMED_UNIT ( * ) SI_UNIT ( $, .METRE. ) );
#23 = ORIENTED_EDGE ( 'NONE', *, *, #308, .T. ) ;
#24 = VERTEX_POINT ( 'NONE', #98 ) ;
#25 = EDGE_CURVE ( 'NONE', #153, #129, #38, .T. ) ;
#26 = AXIS2_PLACEMENT_3D ( 'NONE', #64, #213, #212 ) ;
#27 = AXIS2_PLACEMENT_3D ( 'NONE', #255, #33, #144 ) ;
#28 = CARTESIAN_POINT ( 'NONE',  ( 7.232163918832683761E-17, 0.0000000000000000000, 0.5905510000000000481 ) ) ;
#29 = CARTESIAN_POINT ( 'NONE',  ( -0.05905499999999991312, 0.0000000000000000000, 0.5908859175478575754 ) ) ;
#30 = CIRCLE ( 'NONE', #56, 0.04405500000000001082 ) ;
#31 = EDGE_CURVE ( 'NONE', #129, #153, #229, .T. ) ;
#32 = CARTESIAN_POINT ( 'NONE',  ( -0.05905499999999998251, 0.0000000000000000000, 1.481063000000000240 ) ) ;
#33 = DIRECTION ( 'NONE',  ( 0.0000000000000000000, 0.0000000000000000000, 1.000000000000000000 ) ) ;
#34 = DIRECTION ( 'NONE',  ( -1.000000000000000000, 0.0000000000000000000, 0.0000000000000000000 ) ) ;
#35 = MANIFOLD_SOLID_BREP ( 'Fillet1', #154 ) ;
#36 = EDGE_LOOP ( 'NONE', ( #273, #80, #139 ) ) ;
#37 = ADVANCED_FACE ( 'NONE', ( #128 ), #228, .T. ) ;
#38 = CIRCLE ( 'NONE', #301, 0.05899594499999997327 ) ;
#39 = DIRECTION ( 'NONE',  ( -1.000000000000000000, 1.224646799147353454E-16, 0.0000000000000000000 ) ) ;
#40 = ORIENTED_EDGE ( 'NONE', *, *, #177, .T. ) ;
#41 = SPHERICAL_SURFACE ( 'NONE', #200, 0.05899594499999999409 ) ;
#42 = CARTESIAN_POINT ( 'NONE',  ( 0.0000000000000000000, 0.0000000000000000000, 1.496062999999999921 ) ) ;
#43 = CYLINDRICAL_SURFACE ( 'NONE', #15, 0.05899594499999997327 ) ;
#44 = CIRCLE ( 'NONE', #99, 0.05899594499999997327 ) ;
#45 = EDGE_CURVE ( 'NONE', #242, #307, #243, .T. ) ;
#46 = AXIS2_PLACEMENT_3D ( 'NONE', #114, #157, #155 ) ;
#47 = LINE ( 'NONE', #230, #118 ) ;
#48 = DIRECTION ( 'NONE',  ( -1.000000000000000000, 0.0000000000000000000, 0.0000000000000000000 ) ) ;
#49 = ORIENTED_EDGE ( 'NONE', *, *, #85, .T. ) ;
#50 = SURFACE_STYLE_FILL_AREA ( #72 ) ;
#51 =( CONVERSION_BASED_UNIT ( 'INCH', #115 ) LENGTH_UNIT ( ) NAMED_UNIT ( #172 ) );
#52 =( NAMED_UNIT ( * ) SI_UNIT ( $, .STERADIAN. ) SOLID_ANGLE_UNIT ( ) );
#53 = DIRECTION ( 'NONE',  ( 1.000000000000000000, 0.0000000000000000000, 0.0000000000000000000 ) ) ;
#54 =( NAMED_UNIT ( * ) SI_UNIT ( $, .STERADIAN. ) SOLID_ANGLE_UNIT ( ) );
#55 = VERTEX_POINT ( 'NONE', #29 ) ;
#56 = AXIS2_PLACEMENT_3D ( 'NONE', #42, #262, #109 ) ;
#57 = LINE ( 'NONE', #150, #160 ) ;
#58 = VERTEX_POINT ( 'NONE', #5 ) ;
#59 = ORIENTED_EDGE ( 'NONE', *, *, #137, .T. ) ;
#60 = CARTESIAN_POINT ( 'NONE',  ( 0.05905500000000004496, 7.232151672364700045E-18, 0.5908859175478575754 ) ) ;
#61 = CONICAL_SURFACE ( 'NONE', #87, 0.05899594499999997327, 0.1745329251994346687 ) ;
#62 = DIRECTION ( 'NONE',  ( 0.7071067811865536790, 8.659560562355008046E-17, -0.7071067811865412445 ) ) ;
#63 = DIRECTION ( 'NONE',  ( -0.0000000000000000000, -0.0000000000000000000, -1.000000000000000000 ) ) ;
#64 = CARTESIAN_POINT ( 'NONE',  ( 0.0000000000000000000, 0.0000000000000000000, 1.496062999999999921 ) ) ;
#65 = ORIENTED_EDGE ( 'NONE', *, *, #308, .F. ) ;
#66 = CARTESIAN_POINT ( 'NONE',  ( 0.0000000000000000000, 0.0000000000000000000, 1.496062999999999921 ) ) ;
#67 =( CONVERSION_BASED_UNIT ( 'INCH', #195 ) LENGTH_UNIT ( ) NAMED_UNIT ( #304 ) );
#68 = CYLINDRICAL_SURFACE ( 'NONE', #9, 0.05905499999999998251 ) ;
#69 = CIRCLE ( 'NONE', #106, 0.05905499999999998251 ) ;
#70 = MECHANICAL_DESIGN_GEOMETRIC_PRESENTATION_REPRESENTATION (  '', ( #186 ), #323 ) ;
#71 = PRODUCT_DEFINITION_CONTEXT ( 'detailed design', #107, 'design' ) ;
#72 = FILL_AREA_STYLE ('',( #300 ) ) ;
#73 = PRODUCT_DEFINITION_SHAPE ( 'NONE', 'NONE',  #298 ) ;
#74 =( LENGTH_UNIT ( ) NAMED_UNIT ( * ) SI_UNIT ( $, .METRE. ) );
#75 = PRESENTATION_LAYER_ASSIGNMENT (  '', '', ( #186 ) ) ;
#76 = DIRECTION ( 'NONE',  ( -1.000000000000000000, 0.0000000000000000000, 1.447052840699615392E-16 ) ) ;
#77 = EDGE_CURVE ( 'NONE', #236, #55, #69, .T. ) ;
#78 = SURFACE_SIDE_STYLE ('',( #281 ) ) ;
#79 = FILL_AREA_STYLE_COLOUR ( '', #134 ) ;
#80 = ORIENTED_EDGE ( 'NONE', *, *, #325, .T. ) ;
#81 = VECTOR ( 'NONE', #14, 39.37007874015748854 ) ;
#82 = EDGE_LOOP ( 'NONE', ( #174, #246, #151, #65 ) ) ;
#83 = ORIENTED_EDGE ( 'NONE', *, *, #25, .T. ) ;
#84 = DIRECTION ( 'NONE',  ( 0.0000000000000000000, 0.0000000000000000000, -1.000000000000000000 ) ) ;
#85 = EDGE_CURVE ( 'NONE', #307, #55, #57, .T. ) ;
#86 = FACE_OUTER_BOUND ( 'NONE', #12, .T. ) ;
#87 = AXIS2_PLACEMENT_3D ( 'NONE', #130, #17, #287 ) ;
#88 = CARTESIAN_POINT ( 'NONE',  ( 0.04405500000000001082, 6.313666573004179469E-18, 1.496062999999999921 ) ) ;
#89 = CARTESIAN_POINT ( 'NONE',  ( 0.0000000000000000000, 0.0000000000000000000, 1.496062999999999921 ) ) ;
#90 = CARTESIAN_POINT ( 'NONE',  ( 0.05899594500000004266, 0.0000000000000000000, 0.5905510000000000481 ) ) ;
#91 = SURFACE_STYLE_USAGE ( .BOTH. , #318 ) ;
#92 = MECHANICAL_DESIGN_GEOMETRIC_PRESENTATION_REPRESENTATION (  '', ( #180 ), #110 ) ;
#93 = CARTESIAN_POINT ( 'NONE',  ( -0.04405500000000001082, 0.0000000000000000000, 1.496062999999999921 ) ) ;
#94 = DIRECTION ( 'NONE',  ( 0.0000000000000000000, -1.000000000000000000, 0.0000000000000000000 ) ) ;
#95 = DIRECTION ( 'NONE',  ( 0.0000000000000000000, 0.0000000000000000000, -1.000000000000000000 ) ) ;
#96 = EDGE_CURVE ( 'NONE', #55, #236, #156, .T. ) ;
#97 = EDGE_CURVE ( 'NONE', #307, #242, #44, .T. ) ;
#98 = CARTESIAN_POINT ( 'NONE',  ( 1.083737928103849376E-17, 0.0000000000000000000, 0.0000000000000000000 ) ) ;
#99 = AXIS2_PLACEMENT_3D ( 'NONE', #28, #120, #7 ) ;
#100 = VECTOR ( 'NONE', #142, 39.37007874015748143 ) ;
#101 = CARTESIAN_POINT ( 'NONE',  ( 0.0000000000000000000, 0.0000000000000000000, 1.496062999999999921 ) ) ;
#102 = EDGE_LOOP ( 'NONE', ( #286, #193, #204, #256 ) ) ;
#103 = ADVANCED_FACE ( 'NONE', ( #310 ), #61, .T. ) ;
#104 = DIRECTION ( 'NONE',  ( 1.224646799147352961E-16, 0.0000000000000000000, 1.000000000000000000 ) ) ;
#105 = VERTEX_POINT ( 'NONE', #288 ) ;
#106 = AXIS2_PLACEMENT_3D ( 'NONE', #302, #121, #173 ) ;
#107 = APPLICATION_CONTEXT ( 'automotive_design' ) ;
#108 = DIRECTION ( 'NONE',  ( 1.000000000000000000, 0.0000000000000000000, 0.0000000000000000000 ) ) ;
#109 = DIRECTION ( 'NONE',  ( 1.000000000000000000, 0.0000000000000000000, 0.0000000000000000000 ) ) ;
#110 =( GEOMETRIC_REPRESENTATION_CONTEXT ( 3 ) GLOBAL_UNCERTAINTY_ASSIGNED_CONTEXT ( ( #268 ) ) GLOBAL_UNIT_ASSIGNED_CONTEXT ( ( #305, #124, #54 ) ) REPRESENTATION_CONTEXT ( 'NONE', 'WORKASPACE' ) );
#111 = LINE ( 'NONE', #267, #141 ) ;
#112 = ORIENTED_EDGE ( 'NONE', *, *, #303, .T. ) ;
#113 = DIRECTION ( 'NONE',  ( 1.000000000000000000, 0.0000000000000000000, -0.0000000000000000000 ) ) ;
#114 = CARTESIAN_POINT ( 'NONE',  ( 0.0000000000000000000, 0.0000000000000000000, 0.0000000000000000000 ) ) ;
#115 = LENGTH_MEASURE_WITH_UNIT ( LENGTH_MEASURE( 0.02539999999999999897 ), #245 );
#116 =( NAMED_UNIT ( * ) SI_UNIT ( $, .STERADIAN. ) SOLID_ANGLE_UNIT ( ) );
#117 = CARTESIAN_POINT ( 'NONE',  ( 7.232163918832683761E-17, 0.0000000000000000000, 0.5905510000000000481 ) ) ;
#118 = VECTOR ( 'NONE', #63, 39.37007874015748143 ) ;
#119 = ADVANCED_FACE ( 'NONE', ( #311 ), #289, .T. ) ;
#120 = DIRECTION ( 'NONE',  ( -1.224646799147352961E-16, -0.0000000000000000000, -1.000000000000000000 ) ) ;
#121 = DIRECTION ( 'NONE',  ( -1.224646799147352961E-16, -0.0000000000000000000, -1.000000000000000000 ) ) ;
#122 = AXIS2_PLACEMENT_3D ( 'NONE', #294, #84, #131 ) ;
#123 = CONICAL_SURFACE ( 'NONE', #314, 0.04405500000000001082, 0.7853981633974570498 ) ;
#124 =( NAMED_UNIT ( * ) PLANE_ANGLE_UNIT ( ) SI_UNIT ( $, .RADIAN. ) );
#125 = ORIENTED_EDGE ( 'NONE', *, *, #207, .F. ) ;
#126 = DIRECTION ( 'NONE',  ( -0.1736481776669319688, 2.126576849575792869E-17, 0.9848077530122077983 ) ) ;
#127 = APPLICATION_CONTEXT ( 'automotive_design' ) ;
#128 = FACE_OUTER_BOUND ( 'NONE', #36, .T. ) ;
#129 = VERTEX_POINT ( 'NONE', #232 ) ;
#130 = CARTESIAN_POINT ( 'NONE',  ( 7.232163918832683761E-17, 0.0000000000000000000, 0.5905510000000000481 ) ) ;
#131 = DIRECTION ( 'NONE',  ( 1.000000000000000000, 0.0000000000000000000, 0.0000000000000000000 ) ) ;
#132 = ORIENTED_EDGE ( 'NONE', *, *, #254, .F. ) ;
#133 = DIRECTION ( 'NONE',  ( -1.000000000000000000, 0.0000000000000000000, 0.0000000000000000000 ) ) ;
#134 = COLOUR_RGB ( '',0.7921568627450980005, 0.8196078431372548767, 0.9333333333333333481 ) ;
#135 = CARTESIAN_POINT ( 'NONE',  ( 0.0000000000000000000, 0.0000000000000000000, 0.0000000000000000000 ) ) ;
#136 = DIRECTION ( 'NONE',  ( -0.0000000000000000000, -0.0000000000000000000, -1.000000000000000000 ) ) ;
#137 = EDGE_CURVE ( 'NONE', #6, #105, #2, .T. ) ;
#138 = DIRECTION ( 'NONE',  ( -0.0000000000000000000, -0.0000000000000000000, -1.000000000000000000 ) ) ;
#139 = ORIENTED_EDGE ( 'NONE', *, *, #31, .F. ) ;
#140 = DIRECTION ( 'NONE',  ( 1.000000000000000000, 0.0000000000000000000, 0.0000000000000000000 ) ) ;
#141 = VECTOR ( 'NONE', #136, 39.37007874015748143 ) ;
#142 = DIRECTION ( 'NONE',  ( -1.224646799147352961E-16, -0.0000000000000000000, -1.000000000000000000 ) ) ;
#143 = DIRECTION ( 'NONE',  ( -0.7071067811865536790, 0.0000000000000000000, -0.7071067811865412445 ) ) ;
#144 = DIRECTION ( 'NONE',  ( 1.000000000000000000, 0.0000000000000000000, 0.0000000000000000000 ) ) ;
#145 = CARTESIAN_POINT ( 'NONE',  ( 7.224919520692328148E-18, 0.0000000000000000000, 0.05899594499999999409 ) ) ;
#146 = ORIENTED_EDGE ( 'NONE', *, *, #285, .T. ) ;
#147 = DIRECTION ( 'NONE',  ( -1.000000000000000000, 0.0000000000000000000, 1.447052840699615392E-16 ) ) ;
#148 = DIRECTION ( 'NONE',  ( 1.000000000000000000, 0.0000000000000000000, 0.0000000000000000000 ) ) ;
#149 = VECTOR ( 'NONE', #62, 39.37007874015748854 ) ;
#150 = CARTESIAN_POINT ( 'NONE',  ( -0.05899594499999990388, 7.224919520692326607E-18, 0.5905510000000000481 ) ) ;
#151 = ORIENTED_EDGE ( 'NONE', *, *, #295, .T. ) ;
#152 = FILL_AREA_STYLE ('',( #79 ) ) ;
#153 = VERTEX_POINT ( 'NONE', #315 ) ;
#154 = CLOSED_SHELL ( 'NONE', ( #270, #261, #103, #218, #10, #291, #165, #119, #319, #280, #37 ) ) ;
#155 = DIRECTION ( 'NONE',  ( -1.000000000000000000, 0.0000000000000000000, 1.224646799147352714E-16 ) ) ;
#156 = CIRCLE ( 'NONE', #220, 0.05905499999999998251 ) ;
#157 = DIRECTION ( 'NONE',  ( -1.224646799147352961E-16, -0.0000000000000000000, -1.000000000000000000 ) ) ;
#158 = CARTESIAN_POINT ( 'NONE',  ( 7.224919520692328148E-18, 0.0000000000000000000, 0.05899594499999999409 ) ) ;
#159 = DIRECTION ( 'NONE',  ( 0.0000000000000000000, 0.0000000000000000000, -1.000000000000000000 ) ) ;
#160 = VECTOR ( 'NONE', #126, 39.37007874015748143 ) ;
#161 = LINE ( 'NONE', #312, #290 ) ;
#162 = ORIENTED_EDGE ( 'NONE', *, *, #25, .F. ) ;
#163 = DIRECTION ( 'NONE',  ( 0.0000000000000000000, 0.0000000000000000000, 1.000000000000000000 ) ) ;
#164 = DIRECTION ( 'NONE',  ( 1.000000000000000000, 0.0000000000000000000, 0.0000000000000000000 ) ) ;
#165 = ADVANCED_FACE ( 'NONE', ( #13 ), #237, .T. ) ;
#166 = ORIENTED_EDGE ( 'NONE', *, *, #295, .F. ) ;
#167 = CIRCLE ( 'NONE', #205, 0.05899594499999999409 ) ;
#168 = VERTEX_POINT ( 'NONE', #88 ) ;
#169 = CARTESIAN_POINT ( 'NONE',  ( -0.05899594499999990388, 7.228535596528510244E-18, 0.5905510000000000481 ) ) ;
#170 = EDGE_CURVE ( 'NONE', #24, #129, #167, .T. ) ;
#171 = DIRECTION ( 'NONE',  ( 0.0000000000000000000, 1.000000000000000000, 0.0000000000000000000 ) ) ;
#172 = DIMENSIONAL_EXPONENTS ( 1.000000000000000000, 0.0000000000000000000, 0.0000000000000000000, 0.0000000000000000000, 0.0000000000000000000, 0.0000000000000000000, 0.0000000000000000000 ) ;
#173 = DIRECTION ( 'NONE',  ( 1.000000000000000000, 0.0000000000000000000, 0.0000000000000000000 ) ) ;
#174 = ORIENTED_EDGE ( 'NONE', *, *, #177, .F. ) ;
#175 =( GEOMETRIC_REPRESENTATION_CONTEXT ( 3 ) GLOBAL_UNCERTAINTY_ASSIGNED_CONTEXT ( ( #247 ) ) GLOBAL_UNIT_ASSIGNED_CONTEXT ( ( #67, #20, #116 ) ) REPRESENTATION_CONTEXT ( 'NONE', 'WORKASPACE' ) );
#176 = FACE_OUTER_BOUND ( 'NONE', #263, .T. ) ;
#177 = EDGE_CURVE ( 'NONE', #168, #105, #185, .T. ) ;
#178 = EDGE_LOOP ( 'NONE', ( #321, #19, #162 ) ) ;
#179 = DIRECTION ( 'NONE',  ( 0.0000000000000000000, 0.0000000000000000000, 1.000000000000000000 ) ) ;
#180 = STYLED_ITEM ( 'NONE', ( #309 ), #35 ) ;
#181 = CIRCLE ( 'NONE', #299, 0.05899594499999999409 ) ;
#182 = CARTESIAN_POINT ( 'NONE',  ( 0.0000000000000000000, 0.0000000000000000000, 1.496062999999999921 ) ) ;
#183 = CARTESIAN_POINT ( 'NONE',  ( 0.04405500000000001082, 5.395181473643666598E-18, 1.496062999999999921 ) ) ;
#184 = EDGE_CURVE ( 'NONE', #58, #168, #30, .T. ) ;
#185 = LINE ( 'NONE', #183, #149 ) ;
#186 = STYLED_ITEM ( 'NONE', ( #296 ), #272 ) ;
#187 = EDGE_LOOP ( 'NONE', ( #1, #49, #8, #265 ) ) ;
#188 = CARTESIAN_POINT ( 'NONE',  ( 0.0000000000000000000, 0.0000000000000000000, 1.481063000000000240 ) ) ;
#189 = ORIENTED_EDGE ( 'NONE', *, *, #240, .F. ) ;
#190 = APPLICATION_PROTOCOL_DEFINITION ( 'draft international standard', 'automotive_design', 1998, #127 ) ;
#191 = ORIENTED_EDGE ( 'NONE', *, *, #97, .T. ) ;
#192 =( NAMED_UNIT ( * ) PLANE_ANGLE_UNIT ( ) SI_UNIT ( $, .RADIAN. ) );
#193 = ORIENTED_EDGE ( 'NONE', *, *, #45, .F. ) ;
#194 = PRODUCT_DEFINITION_FORMATION_WITH_SPECIFIED_SOURCE ( 'ANY', '', #238, .NOT_KNOWN. ) ;
#195 = LENGTH_MEASURE_WITH_UNIT ( LENGTH_MEASURE( 0.02539999999999999897 ), #22 );
#196 = EDGE_CURVE ( 'NONE', #242, #236, #293, .T. ) ;
#197 = SHAPE_DEFINITION_REPRESENTATION ( #73, #272 ) ;
#198 = CYLINDRICAL_SURFACE ( 'NONE', #235, 0.05905499999999998251 ) ;
#199 = PRESENTATION_LAYER_ASSIGNMENT (  '', '', ( #180 ) ) ;
#200 = AXIS2_PLACEMENT_3D ( 'NONE', #266, #11, #108 ) ;
#201 = EDGE_LOOP ( 'NONE', ( #125, #23, #320, #249 ) ) ;
#202 = ORIENTED_EDGE ( 'NONE', *, *, #184, .T. ) ;
#203 = SURFACE_STYLE_USAGE ( .BOTH. , #78 ) ;
#204 = ORIENTED_EDGE ( 'NONE', *, *, #196, .T. ) ;
#205 = AXIS2_PLACEMENT_3D ( 'NONE', #158, #317, #39 ) ;
#206 = AXIS2_PLACEMENT_3D ( 'NONE', #210, #163, #140 ) ;
#207 = EDGE_CURVE ( 'NONE', #105, #236, #47, .T. ) ;
#208 = CARTESIAN_POINT ( 'NONE',  ( 7.224919520692328148E-18, 0.0000000000000000000, 0.05899594499999999409 ) ) ;
#209 = ORIENTED_EDGE ( 'NONE', *, *, #207, .T. ) ;
#210 = CARTESIAN_POINT ( 'NONE',  ( 0.0000000000000000000, 0.0000000000000000000, 1.496062999999999921 ) ) ;
#211 = ORIENTED_EDGE ( 'NONE', *, *, #303, .F. ) ;
#212 = DIRECTION ( 'NONE',  ( -1.000000000000000000, 0.0000000000000000000, 0.0000000000000000000 ) ) ;
#213 = DIRECTION ( 'NONE',  ( 0.0000000000000000000, 0.0000000000000000000, -1.000000000000000000 ) ) ;
#214 = FACE_OUTER_BOUND ( 'NONE', #178, .T. ) ;
#215 = FACE_OUTER_BOUND ( 'NONE', #201, .T. ) ;
#216 = CIRCLE ( 'NONE', #3, 0.05905499999999998251 ) ;
#217 = LINE ( 'NONE', #93, #221 ) ;
#218 = ADVANCED_FACE ( 'NONE', ( #176 ), #123, .T. ) ;
#219 = ORIENTED_EDGE ( 'NONE', *, *, #96, .F. ) ;
#220 = AXIS2_PLACEMENT_3D ( 'NONE', #284, #226, #53 ) ;
#221 = VECTOR ( 'NONE', #143, 39.37007874015748854 ) ;
#222 = LENGTH_MEASURE_WITH_UNIT ( LENGTH_MEASURE( 0.02539999999999999897 ), #74 );
#223 = EDGE_LOOP ( 'NONE', ( #211, #227, #260, #233 ) ) ;
#224 = CONICAL_SURFACE ( 'NONE', #244, 0.05899594499999997327, 0.1745329251994346687 ) ;
#225 = DIRECTION ( 'NONE',  ( -1.224646799147352961E-16, -0.0000000000000000000, -1.000000000000000000 ) ) ;
#226 = DIRECTION ( 'NONE',  ( -1.224646799147352961E-16, -0.0000000000000000000, -1.000000000000000000 ) ) ;
#227 = ORIENTED_EDGE ( 'NONE', *, *, #45, .T. ) ;
#228 = SPHERICAL_SURFACE ( 'NONE', #322, 0.05899594499999999409 ) ;
#229 = CIRCLE ( 'NONE', #277, 0.05899594499999997327 ) ;
#230 = CARTESIAN_POINT ( 'NONE',  ( 0.05905499999999998251, 7.232151672364692341E-18, 1.496062999999999921 ) ) ;
#231 = UNCERTAINTY_MEASURE_WITH_UNIT (LENGTH_MEASURE( 1.000000000000000082E-05 ), #51, 'distance_accuracy_value', 'NONE');
#232 = CARTESIAN_POINT ( 'NONE',  ( -0.05899594499999995939, 0.0000000000000000000, 0.05899594500000000796 ) ) ;
#233 = ORIENTED_EDGE ( 'NONE', *, *, #31, .T. ) ;
#234 = DIRECTION ( 'NONE',  ( -1.224646799147352961E-16, -0.0000000000000000000, -1.000000000000000000 ) ) ;
#235 = AXIS2_PLACEMENT_3D ( 'NONE', #101, #253, #34 ) ;
#236 = VERTEX_POINT ( 'NONE', #60 ) ;
#237 = PLANE ( 'NONE',  #313 ) ;
#238 = PRODUCT ( 'Micro_BEMM-030-2', 'Micro_BEMM-030-2', '', ( #282 ) ) ;
#239 = FACE_OUTER_BOUND ( 'NONE', #223, .T. ) ;
#240 = EDGE_CURVE ( 'NONE', #307, #129, #161, .T. ) ;
#241 = FACE_OUTER_BOUND ( 'NONE', #102, .T. ) ;
#242 = VERTEX_POINT ( 'NONE', #269 ) ;
#243 = CIRCLE ( 'NONE', #297, 0.05899594499999997327 ) ;
#244 = AXIS2_PLACEMENT_3D ( 'NONE', #117, #324, #21 ) ;
#245 =( LENGTH_UNIT ( ) NAMED_UNIT ( * ) SI_UNIT ( $, .METRE. ) );
#246 = ORIENTED_EDGE ( 'NONE', *, *, #184, .F. ) ;
#247 = UNCERTAINTY_MEASURE_WITH_UNIT (LENGTH_MEASURE( 1.000000000000000082E-05 ), #67, 'distance_accuracy_value', 'NONE');
#248 = DIRECTION ( 'NONE',  ( 0.0000000000000000000, 0.0000000000000000000, -1.000000000000000000 ) ) ;
#249 = ORIENTED_EDGE ( 'NONE', *, *, #77, .F. ) ;
#250 = PRODUCT_RELATED_PRODUCT_CATEGORY ( 'part', '', ( #238 ) ) ;
#251 = CARTESIAN_POINT ( 'NONE',  ( 7.224919520692328148E-18, 0.0000000000000000000, 0.05899594499999999409 ) ) ;
#252 = COLOUR_RGB ( '',0.7921568627450980005, 0.8196078431372548767, 0.9333333333333333481 ) ;
#253 = DIRECTION ( 'NONE',  ( -0.0000000000000000000, -0.0000000000000000000, -1.000000000000000000 ) ) ;
#254 = EDGE_CURVE ( 'NONE', #6, #55, #111, .T. ) ;
#255 = CARTESIAN_POINT ( 'NONE',  ( 0.0000000000000000000, 0.0000000000000000000, 0.0000000000000000000 ) ) ;
#256 = ORIENTED_EDGE ( 'NONE', *, *, #77, .T. ) ;
#257 = EDGE_LOOP ( 'NONE', ( #202, #146 ) ) ;
#258 = CARTESIAN_POINT ( 'NONE',  ( 7.224919520692328148E-18, 0.0000000000000000000, 0.05899594499999999409 ) ) ;
#259 = DIRECTION ( 'NONE',  ( 1.224646799147352961E-16, 0.0000000000000000000, 1.000000000000000000 ) ) ;
#260 = ORIENTED_EDGE ( 'NONE', *, *, #240, .T. ) ;
#261 = ADVANCED_FACE ( 'NONE', ( #86 ), #43, .T. ) ;
#262 = DIRECTION ( 'NONE',  ( 0.0000000000000000000, 0.0000000000000000000, 1.000000000000000000 ) ) ;
#263 = EDGE_LOOP ( 'NONE', ( #274, #40, #16, #166 ) ) ;
#264 = DIRECTION ( 'NONE',  ( -1.000000000000000000, 0.0000000000000000000, 1.224646799147352714E-16 ) ) ;
#265 = ORIENTED_EDGE ( 'NONE', *, *, #196, .F. ) ;
#266 = CARTESIAN_POINT ( 'NONE',  ( 7.224919520692328148E-18, 0.0000000000000000000, 0.05899594499999999409 ) ) ;
#267 = CARTESIAN_POINT ( 'NONE',  ( -0.05905499999999998251, 0.0000000000000000000, 1.496062999999999921 ) ) ;
#268 = UNCERTAINTY_MEASURE_WITH_UNIT (LENGTH_MEASURE( 1.000000000000000082E-05 ), #305, 'distance_accuracy_value', 'NONE');
#269 = CARTESIAN_POINT ( 'NONE',  ( 0.05899594500000004266, 0.0000000000000000000, 0.5905510000000000481 ) ) ;
#270 = ADVANCED_FACE ( 'NONE', ( #214 ), #41, .T. ) ;
#271 = LINE ( 'NONE', #275, #100 ) ;
#272 = ADVANCED_BREP_SHAPE_REPRESENTATION ( 'Micro_BEMM-030-2', ( #35, #27 ), #175 ) ;
#273 = ORIENTED_EDGE ( 'NONE', *, *, #170, .F. ) ;
#274 = ORIENTED_EDGE ( 'NONE', *, *, #285, .F. ) ;
#275 = CARTESIAN_POINT ( 'NONE',  ( 0.05899594499999997327, 7.224919520692326607E-18, -7.224919520692323526E-18 ) ) ;
#276 = APPLICATION_PROTOCOL_DEFINITION ( 'draft international standard', 'automotive_design', 1998, #107 ) ;
#277 = AXIS2_PLACEMENT_3D ( 'NONE', #258, #259, #147 ) ;
#278 = CIRCLE ( 'NONE', #206, 0.04405500000000001082 ) ;
#279 = CARTESIAN_POINT ( 'NONE',  ( 7.232163918832683761E-17, 0.0000000000000000000, 0.5905510000000000481 ) ) ;
#280 = ADVANCED_FACE ( 'NONE', ( #239 ), #18, .T. ) ;
#281 = SURFACE_STYLE_FILL_AREA ( #152 ) ;
#282 = PRODUCT_CONTEXT ( 'NONE', #127, 'mechanical' ) ;
#283 = DIRECTION ( 'NONE',  ( -1.000000000000000000, 0.0000000000000000000, 0.0000000000000000000 ) ) ;
#284 = CARTESIAN_POINT ( 'NONE',  ( 7.236265475862304269E-17, 0.0000000000000000000, 0.5908859175478575754 ) ) ;
#285 = EDGE_CURVE ( 'NONE', #168, #58, #278, .T. ) ;
#286 = ORIENTED_EDGE ( 'NONE', *, *, #85, .F. ) ;
#287 = DIRECTION ( 'NONE',  ( 1.000000000000000000, 0.0000000000000000000, 0.0000000000000000000 ) ) ;
#288 = CARTESIAN_POINT ( 'NONE',  ( 0.05905499999999998251, 7.232151672364692341E-18, 1.481063000000000240 ) ) ;
#289 = CONICAL_SURFACE ( 'NONE', #26, 0.04405500000000001082, 0.7853981633974570498 ) ;
#290 = VECTOR ( 'NONE', #234, 39.37007874015748143 ) ;
#291 = ADVANCED_FACE ( 'NONE', ( #215 ), #68, .T. ) ;
#292 = DIRECTION ( 'NONE',  ( -1.224646799147352961E-16, -0.0000000000000000000, -1.000000000000000000 ) ) ;
#293 = LINE ( 'NONE', #90, #81 ) ;
#294 = CARTESIAN_POINT ( 'NONE',  ( 0.0000000000000000000, 0.0000000000000000000, 1.481063000000000240 ) ) ;
#295 = EDGE_CURVE ( 'NONE', #58, #6, #217, .T. ) ;
#296 = PRESENTATION_STYLE_ASSIGNMENT (( #91 ) ) ;
#297 = AXIS2_PLACEMENT_3D ( 'NONE', #279, #225, #283 ) ;
#298 = PRODUCT_DEFINITION ( 'UNKNOWN', '', #194, #71 ) ;
#299 = AXIS2_PLACEMENT_3D ( 'NONE', #251, #94, #95 ) ;
#300 = FILL_AREA_STYLE_COLOUR ( '', #252 ) ;
#301 = AXIS2_PLACEMENT_3D ( 'NONE', #145, #104, #76 ) ;
#302 = CARTESIAN_POINT ( 'NONE',  ( 7.236265475862304269E-17, 0.0000000000000000000, 0.5908859175478575754 ) ) ;
#303 = EDGE_CURVE ( 'NONE', #242, #153, #271, .T. ) ;
#304 = DIMENSIONAL_EXPONENTS ( 1.000000000000000000, 0.0000000000000000000, 0.0000000000000000000, 0.0000000000000000000, 0.0000000000000000000, 0.0000000000000000000, 0.0000000000000000000 ) ;
#305 =( CONVERSION_BASED_UNIT ( 'INCH', #222 ) LENGTH_UNIT ( ) NAMED_UNIT ( #306 ) );
#306 = DIMENSIONAL_EXPONENTS ( 1.000000000000000000, 0.0000000000000000000, 0.0000000000000000000, 0.0000000000000000000, 0.0000000000000000000, 0.0000000000000000000, 0.0000000000000000000 ) ;
#307 = VERTEX_POINT ( 'NONE', #169 ) ;
#308 = EDGE_CURVE ( 'NONE', #105, #6, #216, .T. ) ;
#309 = PRESENTATION_STYLE_ASSIGNMENT (( #203 ) ) ;
#310 = FACE_OUTER_BOUND ( 'NONE', #187, .T. ) ;
#311 = FACE_OUTER_BOUND ( 'NONE', #82, .T. ) ;
#312 = CARTESIAN_POINT ( 'NONE',  ( -0.05899594499999997327, 0.0000000000000000000, 7.224919520692323526E-18 ) ) ;
#313 = AXIS2_PLACEMENT_3D ( 'NONE', #89, #179, #113 ) ;
#314 = AXIS2_PLACEMENT_3D ( 'NONE', #182, #159, #133 ) ;
#315 = CARTESIAN_POINT ( 'NONE',  ( 0.05899594499999998021, 7.224919520692326607E-18, 0.05899594499999998715 ) ) ;
#316 = EDGE_LOOP ( 'NONE', ( #59, #209, #219, #132 ) ) ;
#317 = DIRECTION ( 'NONE',  ( 1.224646799147353207E-16, 1.000000000000000000, -0.0000000000000000000 ) ) ;
#318 = SURFACE_SIDE_STYLE ('',( #50 ) ) ;
#319 = ADVANCED_FACE ( 'NONE', ( #241 ), #224, .T. ) ;
#320 = ORIENTED_EDGE ( 'NONE', *, *, #254, .T. ) ;
#321 = ORIENTED_EDGE ( 'NONE', *, *, #325, .F. ) ;
#322 = AXIS2_PLACEMENT_3D ( 'NONE', #208, #171, #148 ) ;
#323 =( GEOMETRIC_REPRESENTATION_CONTEXT ( 3 ) GLOBAL_UNCERTAINTY_ASSIGNED_CONTEXT ( ( #231 ) ) GLOBAL_UNIT_ASSIGNED_CONTEXT ( ( #51, #192, #52 ) ) REPRESENTATION_CONTEXT ( 'NONE', 'WORKASPACE' ) );
#324 = DIRECTION ( 'NONE',  ( 1.224646799147352961E-16, 0.0000000000000000000, 1.000000000000000000 ) ) ;
#325 = EDGE_CURVE ( 'NONE', #24, #153, #181, .T. ) ;
ENDSEC;
END-ISO-10303-21;
