ISO-10303-21;
HEADER;
FILE_DESCRIPTION (( 'STEP AP214' ),
    '1' );
FILE_NAME ('Micro_EMS-125-3.STEP',
    '2021-09-01T17:41:03',
    ( '' ),
    ( '' ),
    'SwSTEP 2.0',
    'SolidWorks 2020',
    '' );
FILE_SCHEMA (( 'AUTOMOTIVE_DESIGN' ));
ENDSEC;

DATA;
#1 = ORIENTED_EDGE ( 'NONE', *, *, #84, .F. ) ;
#2 = DIMENSIONAL_EXPONENTS ( 1.000000000000000000, 0.0000000000000000000, 0.0000000000000000000, 0.0000000000000000000, 0.0000000000000000000, 0.0000000000000000000, 0.0000000000000000000 ) ;
#3 = VECTOR ( 'NONE', #263, 39.37007874015748143 ) ;
#4 = CONICAL_SURFACE ( 'NONE', #44, 0.06243750000000001382, 0.1745329251994337805 ) ;
#5 = CARTESIAN_POINT ( 'NONE',  ( 6.123233995736768501E-17, 0.0000000000000000000, 0.5000000000000000000 ) ) ;
#6 = CARTESIAN_POINT ( 'NONE',  ( -0.06243749999999995137, 7.650215473423624771E-18, 0.5000000000000000000 ) ) ;
#7 = DIRECTION ( 'NONE',  ( 1.000000000000000000, 0.0000000000000000000, -0.0000000000000000000 ) ) ;
#8 = SURFACE_SIDE_STYLE ('',( #147 ) ) ;
#9 = COLOUR_RGB ( '',0.7921568627450980005, 0.8196078431372548767, 0.9333333333333333481 ) ;
#10 = DIRECTION ( 'NONE',  ( 1.224646799147353700E-16, 0.0000000000000000000, 1.000000000000000000 ) ) ;
#11 = CARTESIAN_POINT ( 'NONE',  ( 6.123233995736768501E-17, 0.0000000000000000000, 0.5000000000000000000 ) ) ;
#12 = LENGTH_MEASURE_WITH_UNIT ( LENGTH_MEASURE( 0.02539999999999999897 ), #38 );
#13 = EDGE_CURVE ( 'NONE', #71, #157, #185, .T. ) ;
#14 = CYLINDRICAL_SURFACE ( 'NONE', #96, 0.06250000000000002776 ) ;
#15 = PRODUCT_DEFINITION_SHAPE ( 'NONE', 'NONE',  #113 ) ;
#16 = ADVANCED_FACE ( 'NONE', ( #51 ), #127, .T. ) ;
#17 = ORIENTED_EDGE ( 'NONE', *, *, #13, .T. ) ;
#18 = AXIS2_PLACEMENT_3D ( 'NONE', #236, #287, #7 ) ;
#19 = DIRECTION ( 'NONE',  ( 0.0000000000000000000, 0.0000000000000000000, -1.000000000000000000 ) ) ;
#20 = VECTOR ( 'NONE', #282, 39.37007874015748143 ) ;
#21 = CARTESIAN_POINT ( 'NONE',  ( 0.04750000000000064587, 6.735557395310483192E-18, 1.500000000000000222 ) ) ;
#22 = AXIS2_PLACEMENT_3D ( 'NONE', #133, #175, #224 ) ;
#23 = CARTESIAN_POINT ( 'NONE',  ( -0.06249999999999996531, 0.0000000000000000000, 0.5003544551137261154 ) ) ;
#24 = DIMENSIONAL_EXPONENTS ( 1.000000000000000000, 0.0000000000000000000, 0.0000000000000000000, 0.0000000000000000000, 0.0000000000000000000, 0.0000000000000000000, 0.0000000000000000000 ) ;
#25 = LENGTH_MEASURE_WITH_UNIT ( LENGTH_MEASURE( 0.02539999999999999897 ), #277 );
#26 = ORIENTED_EDGE ( 'NONE', *, *, #152, .F. ) ;
#27 = ORIENTED_EDGE ( 'NONE', *, *, #211, .T. ) ;
#28 = AXIS2_PLACEMENT_3D ( 'NONE', #78, #82, #55 ) ;
#29 = DIRECTION ( 'NONE',  ( 0.0000000000000000000, 0.0000000000000000000, -1.000000000000000000 ) ) ;
#30 = CARTESIAN_POINT ( 'NONE',  ( 6.127574818941429733E-17, 0.0000000000000000000, 0.5003544551137261154 ) ) ;
#31 = LINE ( 'NONE', #265, #151 ) ;
#32 = CIRCLE ( 'NONE', #143, 0.06243749999999999994 ) ;
#33 = DIRECTION ( 'NONE',  ( 1.000000000000000000, 0.0000000000000000000, -0.0000000000000000000 ) ) ;
#34 = ADVANCED_BREP_SHAPE_REPRESENTATION ( 'Micro_EMS-125-3', ( #230, #249 ), #49 ) ;
#35 = LINE ( 'NONE', #169, #198 ) ;
#36 = EDGE_CURVE ( 'NONE', #278, #157, #168, .T. ) ;
#37 = DIRECTION ( 'NONE',  ( -0.1736481776669310528, 2.126576849575781776E-17, 0.9848077530122080203 ) ) ;
#38 =( LENGTH_UNIT ( ) NAMED_UNIT ( * ) SI_UNIT ( $, .METRE. ) );
#39 = ORIENTED_EDGE ( 'NONE', *, *, #290, .T. ) ;
#40 = CIRCLE ( 'NONE', #54, 0.04750000000000064587 ) ;
#41 = DIRECTION ( 'NONE',  ( -0.0000000000000000000, -0.0000000000000000000, -1.000000000000000000 ) ) ;
#42 = ORIENTED_EDGE ( 'NONE', *, *, #99, .F. ) ;
#43 =( NAMED_UNIT ( * ) PLANE_ANGLE_UNIT ( ) SI_UNIT ( $, .RADIAN. ) );
#44 = AXIS2_PLACEMENT_3D ( 'NONE', #11, #10, #174 ) ;
#45 = VERTEX_POINT ( 'NONE', #21 ) ;
#46 = UNCERTAINTY_MEASURE_WITH_UNIT (LENGTH_MEASURE( 1.000000000000000082E-05 ), #179, 'distance_accuracy_value', 'NONE');
#47 = ORIENTED_EDGE ( 'NONE', *, *, #152, .T. ) ;
#48 = COLOUR_RGB ( '',0.7921568627450980005, 0.8196078431372548767, 0.9333333333333333481 ) ;
#49 =( GEOMETRIC_REPRESENTATION_CONTEXT ( 3 ) GLOBAL_UNCERTAINTY_ASSIGNED_CONTEXT ( ( #46 ) ) GLOBAL_UNIT_ASSIGNED_CONTEXT ( ( #179, #107, #199 ) ) REPRESENTATION_CONTEXT ( 'NONE', 'WORKASPACE' ) );
#50 = DIRECTION ( 'NONE',  ( 0.0000000000000000000, 0.0000000000000000000, 1.000000000000000000 ) ) ;
#51 = FACE_OUTER_BOUND ( 'NONE', #95, .T. ) ;
#52 = EDGE_LOOP ( 'NONE', ( #86, #280 ) ) ;
#53 = ORIENTED_EDGE ( 'NONE', *, *, #252, .F. ) ;
#54 = AXIS2_PLACEMENT_3D ( 'NONE', #171, #286, #126 ) ;
#55 = DIRECTION ( 'NONE',  ( -1.000000000000000000, 0.0000000000000000000, 1.224646799147353947E-16 ) ) ;
#56 = FACE_OUTER_BOUND ( 'NONE', #189, .T. ) ;
#57 = DIRECTION ( 'NONE',  ( -0.7071067811865462405, 0.0000000000000000000, -0.7071067811865486830 ) ) ;
#58 = PRESENTATION_LAYER_ASSIGNMENT (  '', '', ( #204 ) ) ;
#59 = PRESENTATION_STYLE_ASSIGNMENT (( #195 ) ) ;
#60 = ADVANCED_FACE ( 'NONE', ( #205 ), #94, .T. ) ;
#61 = PRODUCT_RELATED_PRODUCT_CATEGORY ( 'part', '', ( #115 ) ) ;
#62 = DIRECTION ( 'NONE',  ( 0.0000000000000000000, 0.0000000000000000000, 1.000000000000000000 ) ) ;
#63 =( CONVERSION_BASED_UNIT ( 'INCH', #89 ) LENGTH_UNIT ( ) NAMED_UNIT ( #257 ) );
#64 = VERTEX_POINT ( 'NONE', #23 ) ;
#65 = FACE_OUTER_BOUND ( 'NONE', #256, .T. ) ;
#66 = ORIENTED_EDGE ( 'NONE', *, *, #79, .T. ) ;
#67 = CARTESIAN_POINT ( 'NONE',  ( -0.06243749999999995137, 7.646388452176288915E-18, 0.5000000000000000000 ) ) ;
#68 = EDGE_LOOP ( 'NONE', ( #53, #27, #201, #208 ) ) ;
#69 = LINE ( 'NONE', #67, #210 ) ;
#70 = EDGE_CURVE ( 'NONE', #64, #157, #110, .T. ) ;
#71 = VERTEX_POINT ( 'NONE', #276 ) ;
#72 = CARTESIAN_POINT ( 'NONE',  ( 6.123233995736768501E-17, 0.0000000000000000000, 0.5000000000000000000 ) ) ;
#73 = ORIENTED_EDGE ( 'NONE', *, *, #192, .F. ) ;
#74 = VECTOR ( 'NONE', #144, 39.37007874015748143 ) ;
#75 = FILL_AREA_STYLE ('',( #293 ) ) ;
#76 = ORIENTED_EDGE ( 'NONE', *, *, #290, .F. ) ;
#77 = DIRECTION ( 'NONE',  ( 1.000000000000000000, 0.0000000000000000000, 0.0000000000000000000 ) ) ;
#78 = CARTESIAN_POINT ( 'NONE',  ( 9.364125142994982608E-34, 0.0000000000000000000, 7.646388452176290456E-18 ) ) ;
#79 = EDGE_CURVE ( 'NONE', #71, #164, #135, .T. ) ;
#80 = STYLED_ITEM ( 'NONE', ( #59 ), #230 ) ;
#81 = CARTESIAN_POINT ( 'NONE',  ( -0.06243749999999999994, 0.0000000000000000000, 1.529277690435258091E-17 ) ) ;
#82 = DIRECTION ( 'NONE',  ( -1.224646799147353700E-16, -0.0000000000000000000, -1.000000000000000000 ) ) ;
#83 = DIRECTION ( 'NONE',  ( -1.000000000000000000, 0.0000000000000000000, 0.0000000000000000000 ) ) ;
#84 = EDGE_CURVE ( 'NONE', #71, #166, #251, .T. ) ;
#85 = DIRECTION ( 'NONE',  ( -1.224646799147353700E-16, -0.0000000000000000000, -1.000000000000000000 ) ) ;
#86 = ORIENTED_EDGE ( 'NONE', *, *, #99, .T. ) ;
#87 = CYLINDRICAL_SURFACE ( 'NONE', #22, 0.06243750000000001382 ) ;
#88 = ORIENTED_EDGE ( 'NONE', *, *, #155, .F. ) ;
#89 = LENGTH_MEASURE_WITH_UNIT ( LENGTH_MEASURE( 0.02539999999999999897 ), #132 );
#90 = DIRECTION ( 'NONE',  ( -0.0000000000000000000, -0.0000000000000000000, -1.000000000000000000 ) ) ;
#91 = PRESENTATION_LAYER_ASSIGNMENT (  '', '', ( #80 ) ) ;
#92 = DIRECTION ( 'NONE',  ( 1.000000000000000000, 0.0000000000000000000, 0.0000000000000000000 ) ) ;
#93 = PRESENTATION_STYLE_ASSIGNMENT (( #139 ) ) ;
#94 = CYLINDRICAL_SURFACE ( 'NONE', #131, 0.06250000000000002776 ) ;
#95 = EDGE_LOOP ( 'NONE', ( #26, #142, #176, #186 ) ) ;
#96 = AXIS2_PLACEMENT_3D ( 'NONE', #109, #41, #271 ) ;
#97 = ADVANCED_FACE ( 'NONE', ( #130 ), #125, .F. ) ;
#98 = CARTESIAN_POINT ( 'NONE',  ( 0.06250000000000002776, 7.654042494670959086E-18, 1.500000000000000222 ) ) ;
#99 = EDGE_CURVE ( 'NONE', #121, #166, #158, .T. ) ;
#100 = PLANE ( 'NONE',  #18 ) ;
#101 = DIRECTION ( 'NONE',  ( -1.000000000000000000, 0.0000000000000000000, 0.0000000000000000000 ) ) ;
#102 = AXIS2_PLACEMENT_3D ( 'NONE', #149, #202, #242 ) ;
#103 = CARTESIAN_POINT ( 'NONE',  ( -0.06250000000000002776, 0.0000000000000000000, 1.500000000000000222 ) ) ;
#104 = DIRECTION ( 'NONE',  ( -1.000000000000000000, 0.0000000000000000000, 1.224646799147353947E-16 ) ) ;
#105 = CARTESIAN_POINT ( 'NONE',  ( 0.06250000000000008327, 7.654042494670966789E-18, 0.5003544551137261154 ) ) ;
#106 = AXIS2_PLACEMENT_3D ( 'NONE', #145, #29, #83 ) ;
#107 =( NAMED_UNIT ( * ) PLANE_ANGLE_UNIT ( ) SI_UNIT ( $, .RADIAN. ) );
#108 = VERTEX_POINT ( 'NONE', #214 ) ;
#109 = CARTESIAN_POINT ( 'NONE',  ( 0.0000000000000000000, 0.0000000000000000000, 1.500000000000000222 ) ) ;
#110 = CIRCLE ( 'NONE', #264, 0.06250000000000002776 ) ;
#111 = AXIS2_PLACEMENT_3D ( 'NONE', #241, #270, #292 ) ;
#112 = CARTESIAN_POINT ( 'NONE',  ( 0.06250000000000002776, 7.654042494670959086E-18, 1.485000000000000764 ) ) ;
#113 = PRODUCT_DEFINITION ( 'UNKNOWN', '', #159, #275 ) ;
#114 = ORIENTED_EDGE ( 'NONE', *, *, #36, .F. ) ;
#115 = PRODUCT ( 'Micro_EMS-125-3', 'Micro_EMS-125-3', '', ( #160 ) ) ;
#116 = DIRECTION ( 'NONE',  ( -1.224646799147353700E-16, -0.0000000000000000000, -1.000000000000000000 ) ) ;
#117 = AXIS2_PLACEMENT_3D ( 'NONE', #221, #19, #156 ) ;
#118 = UNCERTAINTY_MEASURE_WITH_UNIT (LENGTH_MEASURE( 1.000000000000000082E-05 ), #63, 'distance_accuracy_value', 'NONE');
#119 = DIRECTION ( 'NONE',  ( 1.224646799147353700E-16, 0.0000000000000000000, 1.000000000000000000 ) ) ;
#120 = SHAPE_DEFINITION_REPRESENTATION ( #15, #34 ) ;
#121 = VERTEX_POINT ( 'NONE', #81 ) ;
#122 = SURFACE_STYLE_FILL_AREA ( #75 ) ;
#123 = ORIENTED_EDGE ( 'NONE', *, *, #70, .F. ) ;
#124 = CARTESIAN_POINT ( 'NONE',  ( -0.06250000000000002776, 0.0000000000000000000, 1.485000000000000764 ) ) ;
#125 = PLANE ( 'NONE',  #248 ) ;
#126 = DIRECTION ( 'NONE',  ( 1.000000000000000000, 0.0000000000000000000, 0.0000000000000000000 ) ) ;
#127 = CONICAL_SURFACE ( 'NONE', #296, 0.06243750000000001382, 0.1745329251994337805 ) ;
#128 = DIRECTION ( 'NONE',  ( 0.0000000000000000000, 0.0000000000000000000, -1.000000000000000000 ) ) ;
#129 = EDGE_CURVE ( 'NONE', #108, #227, #35, .T. ) ;
#130 = FACE_OUTER_BOUND ( 'NONE', #52, .T. ) ;
#131 = AXIS2_PLACEMENT_3D ( 'NONE', #295, #90, #274 ) ;
#132 =( LENGTH_UNIT ( ) NAMED_UNIT ( * ) SI_UNIT ( $, .METRE. ) );
#133 = CARTESIAN_POINT ( 'NONE',  ( 0.0000000000000000000, 0.0000000000000000000, 0.0000000000000000000 ) ) ;
#134 = FACE_OUTER_BOUND ( 'NONE', #231, .T. ) ;
#135 = CIRCLE ( 'NONE', #170, 0.06243750000000001382 ) ;
#136 = CARTESIAN_POINT ( 'NONE',  ( 6.127574818941429733E-17, 0.0000000000000000000, 0.5003544551137261154 ) ) ;
#137 = DIRECTION ( 'NONE',  ( -1.224646799147353700E-16, -0.0000000000000000000, -1.000000000000000000 ) ) ;
#138 = AXIS2_PLACEMENT_3D ( 'NONE', #197, #128, #237 ) ;
#139 = SURFACE_STYLE_USAGE ( .BOTH. , #187 ) ;
#140 = EDGE_LOOP ( 'NONE', ( #114, #39, #229, #73 ) ) ;
#141 = ORIENTED_EDGE ( 'NONE', *, *, #228, .T. ) ;
#142 = ORIENTED_EDGE ( 'NONE', *, *, #294, .T. ) ;
#143 = AXIS2_PLACEMENT_3D ( 'NONE', #261, #148, #104 ) ;
#144 = DIRECTION ( 'NONE',  ( -1.224646799147353700E-16, -0.0000000000000000000, -1.000000000000000000 ) ) ;
#145 = CARTESIAN_POINT ( 'NONE',  ( 0.0000000000000000000, 0.0000000000000000000, 1.500000000000000222 ) ) ;
#146 = FACE_OUTER_BOUND ( 'NONE', #188, .T. ) ;
#147 = SURFACE_STYLE_FILL_AREA ( #212 ) ;
#148 = DIRECTION ( 'NONE',  ( -1.224646799147353700E-16, -0.0000000000000000000, -1.000000000000000000 ) ) ;
#149 = CARTESIAN_POINT ( 'NONE',  ( 0.0000000000000000000, 0.0000000000000000000, 1.485000000000000764 ) ) ;
#150 = ORIENTED_EDGE ( 'NONE', *, *, #84, .T. ) ;
#151 = VECTOR ( 'NONE', #284, 39.37007874015748854 ) ;
#152 = EDGE_CURVE ( 'NONE', #164, #71, #232, .T. ) ;
#153 = FACE_OUTER_BOUND ( 'NONE', #140, .T. ) ;
#154 = ORIENTED_EDGE ( 'NONE', *, *, #36, .T. ) ;
#155 = EDGE_CURVE ( 'NONE', #227, #64, #285, .T. ) ;
#156 = DIRECTION ( 'NONE',  ( 1.000000000000000000, 0.0000000000000000000, 0.0000000000000000000 ) ) ;
#157 = VERTEX_POINT ( 'NONE', #105 ) ;
#158 = CIRCLE ( 'NONE', #28, 0.06243749999999999994 ) ;
#159 = PRODUCT_DEFINITION_FORMATION_WITH_SPECIFIED_SOURCE ( 'ANY', '', #115, .NOT_KNOWN. ) ;
#160 = PRODUCT_CONTEXT ( 'NONE', #291, 'mechanical' ) ;
#161 = ORIENTED_EDGE ( 'NONE', *, *, #252, .T. ) ;
#162 = DIRECTION ( 'NONE',  ( -1.000000000000000000, 0.0000000000000000000, 0.0000000000000000000 ) ) ;
#163 =( NAMED_UNIT ( * ) PLANE_ANGLE_UNIT ( ) SI_UNIT ( $, .RADIAN. ) );
#164 = VERTEX_POINT ( 'NONE', #6 ) ;
#165 =( NAMED_UNIT ( * ) SI_UNIT ( $, .STERADIAN. ) SOLID_ANGLE_UNIT ( ) );
#166 = VERTEX_POINT ( 'NONE', #259 ) ;
#167 = EDGE_CURVE ( 'NONE', #164, #121, #218, .T. ) ;
#168 = LINE ( 'NONE', #98, #239 ) ;
#169 = CARTESIAN_POINT ( 'NONE',  ( -0.04750000000000064587, 0.0000000000000000000, 1.500000000000000222 ) ) ;
#170 = AXIS2_PLACEMENT_3D ( 'NONE', #72, #137, #162 ) ;
#171 = CARTESIAN_POINT ( 'NONE',  ( 0.0000000000000000000, 0.0000000000000000000, 1.500000000000000222 ) ) ;
#172 = CARTESIAN_POINT ( 'NONE',  ( -0.06243750000000001382, 0.0000000000000000000, 7.646388452176291997E-18 ) ) ;
#173 = CYLINDRICAL_SURFACE ( 'NONE', #111, 0.06243750000000001382 ) ;
#174 = DIRECTION ( 'NONE',  ( 1.000000000000000000, 0.0000000000000000000, 0.0000000000000000000 ) ) ;
#175 = DIRECTION ( 'NONE',  ( -1.224646799147353700E-16, -0.0000000000000000000, -1.000000000000000000 ) ) ;
#176 = ORIENTED_EDGE ( 'NONE', *, *, #70, .T. ) ;
#177 = CIRCLE ( 'NONE', #117, 0.06250000000000002776 ) ;
#178 = ADVANCED_FACE ( 'NONE', ( #146 ), #297, .T. ) ;
#179 =( CONVERSION_BASED_UNIT ( 'INCH', #12 ) LENGTH_UNIT ( ) NAMED_UNIT ( #24 ) );
#180 = CARTESIAN_POINT ( 'NONE',  ( 0.0000000000000000000, 0.0000000000000000000, 1.500000000000000222 ) ) ;
#181 = APPLICATION_CONTEXT ( 'automotive_design' ) ;
#182 = APPLICATION_PROTOCOL_DEFINITION ( 'draft international standard', 'automotive_design', 1998, #181 ) ;
#183 = AXIS2_PLACEMENT_3D ( 'NONE', #30, #238, #194 ) ;
#184 = ADVANCED_FACE ( 'NONE', ( #56 ), #100, .T. ) ;
#185 = LINE ( 'NONE', #206, #20 ) ;
#186 = ORIENTED_EDGE ( 'NONE', *, *, #13, .F. ) ;
#187 = SURFACE_SIDE_STYLE ('',( #122 ) ) ;
#188 = EDGE_LOOP ( 'NONE', ( #298, #299, #268, #76 ) ) ;
#189 = EDGE_LOOP ( 'NONE', ( #141, #161 ) ) ;
#190 = AXIS2_PLACEMENT_3D ( 'NONE', #180, #266, #267 ) ;
#191 = DIRECTION ( 'NONE',  ( -0.0000000000000000000, -0.0000000000000000000, -1.000000000000000000 ) ) ;
#192 = EDGE_CURVE ( 'NONE', #157, #64, #234, .T. ) ;
#193 = CARTESIAN_POINT ( 'NONE',  ( 0.0000000000000000000, 0.0000000000000000000, 0.0000000000000000000 ) ) ;
#194 = DIRECTION ( 'NONE',  ( 1.000000000000000000, 0.0000000000000000000, 0.0000000000000000000 ) ) ;
#195 = SURFACE_STYLE_USAGE ( .BOTH. , #8 ) ;
#196 = FACE_OUTER_BOUND ( 'NONE', #68, .T. ) ;
#197 = CARTESIAN_POINT ( 'NONE',  ( 0.0000000000000000000, 0.0000000000000000000, 1.500000000000000222 ) ) ;
#198 = VECTOR ( 'NONE', #57, 39.37007874015748854 ) ;
#199 =( NAMED_UNIT ( * ) SI_UNIT ( $, .STERADIAN. ) SOLID_ANGLE_UNIT ( ) );
#200 = ORIENTED_EDGE ( 'NONE', *, *, #247, .T. ) ;
#201 = ORIENTED_EDGE ( 'NONE', *, *, #247, .F. ) ;
#202 = DIRECTION ( 'NONE',  ( 0.0000000000000000000, 0.0000000000000000000, -1.000000000000000000 ) ) ;
#203 = ADVANCED_FACE ( 'NONE', ( #217 ), #4, .T. ) ;
#204 = STYLED_ITEM ( 'NONE', ( #93 ), #34 ) ;
#205 = FACE_OUTER_BOUND ( 'NONE', #258, .T. ) ;
#206 = CARTESIAN_POINT ( 'NONE',  ( 0.06243750000000006933, 0.0000000000000000000, 0.5000000000000000000 ) ) ;
#207 = CARTESIAN_POINT ( 'NONE',  ( 0.06243750000000001382, 7.646388452176288915E-18, -7.646388452176291997E-18 ) ) ;
#208 = ORIENTED_EDGE ( 'NONE', *, *, #129, .F. ) ;
#209 = ORIENTED_EDGE ( 'NONE', *, *, #167, .F. ) ;
#210 = VECTOR ( 'NONE', #37, 39.37007874015748854 ) ;
#211 = EDGE_CURVE ( 'NONE', #45, #278, #31, .T. ) ;
#212 = FILL_AREA_STYLE ('',( #215 ) ) ;
#213 = EDGE_CURVE ( 'NONE', #166, #121, #32, .T. ) ;
#214 = CARTESIAN_POINT ( 'NONE',  ( -0.04750000000000064587, 0.0000000000000000000, 1.500000000000000222 ) ) ;
#215 = FILL_AREA_STYLE_COLOUR ( '', #9 ) ;
#216 = MECHANICAL_DESIGN_GEOMETRIC_PRESENTATION_REPRESENTATION (  '', ( #204 ), #254 ) ;
#217 = FACE_OUTER_BOUND ( 'NONE', #246, .T. ) ;
#218 = LINE ( 'NONE', #172, #74 ) ;
#219 = ADVANCED_FACE ( 'NONE', ( #196 ), #288, .T. ) ;
#220 = AXIS2_PLACEMENT_3D ( 'NONE', #283, #85, #101 ) ;
#221 = CARTESIAN_POINT ( 'NONE',  ( 0.0000000000000000000, 0.0000000000000000000, 1.485000000000000764 ) ) ;
#222 = UNCERTAINTY_MEASURE_WITH_UNIT (LENGTH_MEASURE( 1.000000000000000082E-05 ), #273, 'distance_accuracy_value', 'NONE');
#223 =( GEOMETRIC_REPRESENTATION_CONTEXT ( 3 ) GLOBAL_UNCERTAINTY_ASSIGNED_CONTEXT ( ( #118 ) ) GLOBAL_UNIT_ASSIGNED_CONTEXT ( ( #63, #43, #289 ) ) REPRESENTATION_CONTEXT ( 'NONE', 'WORKASPACE' ) );
#224 = DIRECTION ( 'NONE',  ( -1.000000000000000000, 0.0000000000000000000, 1.224646799147353700E-16 ) ) ;
#225 = ORIENTED_EDGE ( 'NONE', *, *, #294, .F. ) ;
#226 = CIRCLE ( 'NONE', #102, 0.06250000000000002776 ) ;
#227 = VERTEX_POINT ( 'NONE', #124 ) ;
#228 = EDGE_CURVE ( 'NONE', #108, #45, #40, .T. ) ;
#229 = ORIENTED_EDGE ( 'NONE', *, *, #155, .T. ) ;
#230 = MANIFOLD_SOLID_BREP ( 'Cut-Revolve1', #269 ) ;
#231 = EDGE_LOOP ( 'NONE', ( #47, #150, #42, #209 ) ) ;
#232 = CIRCLE ( 'NONE', #220, 0.06243750000000001382 ) ;
#233 = ORIENTED_EDGE ( 'NONE', *, *, #213, .F. ) ;
#234 = CIRCLE ( 'NONE', #183, 0.06250000000000002776 ) ;
#235 = ADVANCED_FACE ( 'NONE', ( #134 ), #173, .T. ) ;
#236 = CARTESIAN_POINT ( 'NONE',  ( 0.0000000000000000000, 0.0000000000000000000, 1.500000000000000222 ) ) ;
#237 = DIRECTION ( 'NONE',  ( -1.000000000000000000, 0.0000000000000000000, 0.0000000000000000000 ) ) ;
#238 = DIRECTION ( 'NONE',  ( -1.224646799147353700E-16, -0.0000000000000000000, -1.000000000000000000 ) ) ;
#239 = VECTOR ( 'NONE', #191, 39.37007874015748143 ) ;
#240 = MECHANICAL_DESIGN_GEOMETRIC_PRESENTATION_REPRESENTATION (  '', ( #80 ), #223 ) ;
#241 = CARTESIAN_POINT ( 'NONE',  ( 0.0000000000000000000, 0.0000000000000000000, 0.0000000000000000000 ) ) ;
#242 = DIRECTION ( 'NONE',  ( 1.000000000000000000, 0.0000000000000000000, 0.0000000000000000000 ) ) ;
#243 = ORIENTED_EDGE ( 'NONE', *, *, #192, .T. ) ;
#244 = CIRCLE ( 'NONE', #190, 0.04750000000000064587 ) ;
#245 = APPLICATION_PROTOCOL_DEFINITION ( 'draft international standard', 'automotive_design', 1998, #291 ) ;
#246 = EDGE_LOOP ( 'NONE', ( #225, #255, #17, #243 ) ) ;
#247 = EDGE_CURVE ( 'NONE', #227, #278, #177, .T. ) ;
#248 = AXIS2_PLACEMENT_3D ( 'NONE', #193, #62, #33 ) ;
#249 = AXIS2_PLACEMENT_3D ( 'NONE', #253, #50, #279 ) ;
#250 = ORIENTED_EDGE ( 'NONE', *, *, #167, .T. ) ;
#251 = LINE ( 'NONE', #207, #3 ) ;
#252 = EDGE_CURVE ( 'NONE', #45, #108, #244, .T. ) ;
#253 = CARTESIAN_POINT ( 'NONE',  ( 0.0000000000000000000, 0.0000000000000000000, 0.0000000000000000000 ) ) ;
#254 =( GEOMETRIC_REPRESENTATION_CONTEXT ( 3 ) GLOBAL_UNCERTAINTY_ASSIGNED_CONTEXT ( ( #222 ) ) GLOBAL_UNIT_ASSIGNED_CONTEXT ( ( #273, #163, #165 ) ) REPRESENTATION_CONTEXT ( 'NONE', 'WORKASPACE' ) );
#255 = ORIENTED_EDGE ( 'NONE', *, *, #79, .F. ) ;
#256 = EDGE_LOOP ( 'NONE', ( #1, #66, #250, #233 ) ) ;
#257 = DIMENSIONAL_EXPONENTS ( 1.000000000000000000, 0.0000000000000000000, 0.0000000000000000000, 0.0000000000000000000, 0.0000000000000000000, 0.0000000000000000000, 0.0000000000000000000 ) ;
#258 = EDGE_LOOP ( 'NONE', ( #200, #154, #123, #88 ) ) ;
#259 = CARTESIAN_POINT ( 'NONE',  ( 0.06243749999999999994, 7.646388452176287375E-18, -9.478001694819074349E-34 ) ) ;
#260 = DIRECTION ( 'NONE',  ( -0.0000000000000000000, -0.0000000000000000000, -1.000000000000000000 ) ) ;
#261 = CARTESIAN_POINT ( 'NONE',  ( 9.364125142994982608E-34, 0.0000000000000000000, 7.646388452176290456E-18 ) ) ;
#262 = ADVANCED_FACE ( 'NONE', ( #65 ), #87, .T. ) ;
#263 = DIRECTION ( 'NONE',  ( -1.224646799147353700E-16, -0.0000000000000000000, -1.000000000000000000 ) ) ;
#264 = AXIS2_PLACEMENT_3D ( 'NONE', #136, #116, #92 ) ;
#265 = CARTESIAN_POINT ( 'NONE',  ( 0.04750000000000064587, 5.817072295950006528E-18, 1.500000000000000222 ) ) ;
#266 = DIRECTION ( 'NONE',  ( 0.0000000000000000000, 0.0000000000000000000, 1.000000000000000000 ) ) ;
#267 = DIRECTION ( 'NONE',  ( 1.000000000000000000, 0.0000000000000000000, 0.0000000000000000000 ) ) ;
#268 = ORIENTED_EDGE ( 'NONE', *, *, #129, .T. ) ;
#269 = CLOSED_SHELL ( 'NONE', ( #235, #16, #219, #60, #281, #184, #178, #203, #262, #97 ) ) ;
#270 = DIRECTION ( 'NONE',  ( -1.224646799147353700E-16, -0.0000000000000000000, -1.000000000000000000 ) ) ;
#271 = DIRECTION ( 'NONE',  ( -1.000000000000000000, 0.0000000000000000000, 0.0000000000000000000 ) ) ;
#272 = VECTOR ( 'NONE', #260, 39.37007874015748143 ) ;
#273 =( CONVERSION_BASED_UNIT ( 'INCH', #25 ) LENGTH_UNIT ( ) NAMED_UNIT ( #2 ) );
#274 = DIRECTION ( 'NONE',  ( -1.000000000000000000, 0.0000000000000000000, 0.0000000000000000000 ) ) ;
#275 = PRODUCT_DEFINITION_CONTEXT ( 'detailed design', #181, 'design' ) ;
#276 = CARTESIAN_POINT ( 'NONE',  ( 0.06243750000000006933, 0.0000000000000000000, 0.5000000000000000000 ) ) ;
#277 =( LENGTH_UNIT ( ) NAMED_UNIT ( * ) SI_UNIT ( $, .METRE. ) );
#278 = VERTEX_POINT ( 'NONE', #112 ) ;
#279 = DIRECTION ( 'NONE',  ( 1.000000000000000000, 0.0000000000000000000, 0.0000000000000000000 ) ) ;
#280 = ORIENTED_EDGE ( 'NONE', *, *, #213, .T. ) ;
#281 = ADVANCED_FACE ( 'NONE', ( #153 ), #14, .T. ) ;
#282 = DIRECTION ( 'NONE',  ( 0.1736481776669312749, 0.0000000000000000000, 0.9848077530122077983 ) ) ;
#283 = CARTESIAN_POINT ( 'NONE',  ( 6.123233995736768501E-17, 0.0000000000000000000, 0.5000000000000000000 ) ) ;
#284 = DIRECTION ( 'NONE',  ( 0.7071067811865462405, 8.659560562354916834E-17, -0.7071067811865486830 ) ) ;
#285 = LINE ( 'NONE', #103, #272 ) ;
#286 = DIRECTION ( 'NONE',  ( 0.0000000000000000000, 0.0000000000000000000, 1.000000000000000000 ) ) ;
#287 = DIRECTION ( 'NONE',  ( 0.0000000000000000000, 0.0000000000000000000, 1.000000000000000000 ) ) ;
#288 = CONICAL_SURFACE ( 'NONE', #106, 0.04750000000000064587, 0.7853981633974466137 ) ;
#289 =( NAMED_UNIT ( * ) SI_UNIT ( $, .STERADIAN. ) SOLID_ANGLE_UNIT ( ) );
#290 = EDGE_CURVE ( 'NONE', #278, #227, #226, .T. ) ;
#291 = APPLICATION_CONTEXT ( 'automotive_design' ) ;
#292 = DIRECTION ( 'NONE',  ( -1.000000000000000000, 0.0000000000000000000, 1.224646799147353700E-16 ) ) ;
#293 = FILL_AREA_STYLE_COLOUR ( '', #48 ) ;
#294 = EDGE_CURVE ( 'NONE', #164, #64, #69, .T. ) ;
#295 = CARTESIAN_POINT ( 'NONE',  ( 0.0000000000000000000, 0.0000000000000000000, 1.500000000000000222 ) ) ;
#296 = AXIS2_PLACEMENT_3D ( 'NONE', #5, #119, #77 ) ;
#297 = CONICAL_SURFACE ( 'NONE', #138, 0.04750000000000064587, 0.7853981633974466137 ) ;
#298 = ORIENTED_EDGE ( 'NONE', *, *, #211, .F. ) ;
#299 = ORIENTED_EDGE ( 'NONE', *, *, #228, .F. ) ;
ENDSEC;
END-ISO-10303-21;
