ISO-10303-21;
HEADER;
FILE_DESCRIPTION (( 'STEP AP214' ),
    '1' );
FILE_NAME ('05862.STEP',
    '2023-06-22T16:23:42',
    ( '' ),
    ( '' ),
    'SwSTEP 2.0',
    'SolidWorks 2023',
    '' );
FILE_SCHEMA (( 'AUTOMOTIVE_DESIGN' ));
ENDSEC;

DATA;
#1 = SHAPE_DEFINITION_REPRESENTATION ( #268, #148 ) ;
#2 = EDGE_CURVE ( 'NONE', #9, #179, #266, .T. ) ;
#3 = VERTEX_POINT ( 'NONE', #48 ) ;
#4 = DIRECTION ( 'NONE',  ( -0.000000000000000000, -1.000000000000000000, -0.000000000000000000 ) ) ;
#5 = EDGE_LOOP ( 'NONE', ( #100, #124, #240, #236 ) ) ;
#6 = COLOUR_RGB ( '',1.000000000000000000, 0.000000000000000000, 0.000000000000000000 ) ;
#7 = PRESENTATION_STYLE_ASSIGNMENT (( #296 ) ) ;
#8 =( GEOMETRIC_REPRESENTATION_CONTEXT ( 3 ) GLOBAL_UNCERTAINTY_ASSIGNED_CONTEXT ( ( #304 ) ) GLOBAL_UNIT_ASSIGNED_CONTEXT ( ( #47, #127, #158 ) ) REPRESENTATION_CONTEXT ( 'NONE', 'WORKASPACE' ) );
#9 = VERTEX_POINT ( 'NONE', #128 ) ;
#10 = FACE_OUTER_BOUND ( 'NONE', #5, .T. ) ;
#11 = DIRECTION ( 'NONE',  ( -0.000000000000000000, -1.000000000000000000, -0.000000000000000000 ) ) ;
#12 =( LENGTH_UNIT ( ) NAMED_UNIT ( * ) SI_UNIT ( $, .METRE. ) );
#13 = UNCERTAINTY_MEASURE_WITH_UNIT (LENGTH_MEASURE( 1.000000000000000082E-05 ), #133, 'distance_accuracy_value', 'NONE');
#14 = CARTESIAN_POINT ( 'NONE',  ( 0.000000000000000000, 1.250000000000000000, 0.000000000000000000 ) ) ;
#15 = VECTOR ( 'NONE', #301, 39.37007874015748143 ) ;
#16 = CYLINDRICAL_SURFACE ( 'NONE', #126, 0.5000000000000000000 ) ;
#17 = SURFACE_STYLE_USAGE ( .BOTH. , #276 ) ;
#18 =( NAMED_UNIT ( * ) PLANE_ANGLE_UNIT ( ) SI_UNIT ( $, .RADIAN. ) );
#19 =( NAMED_UNIT ( * ) PLANE_ANGLE_UNIT ( ) SI_UNIT ( $, .RADIAN. ) );
#20 = SURFACE_STYLE_USAGE ( .BOTH. , #63 ) ;
#21 = VECTOR ( 'NONE', #244, 39.37007874015748143 ) ;
#22 = STYLED_ITEM ( 'NONE', ( #172 ), #233 ) ;
#23 = CYLINDRICAL_SURFACE ( 'NONE', #68, 0.4999999999999998335 ) ;
#24 = CIRCLE ( 'NONE', #224, 0.5000000000000000000 ) ;
#25 = SURFACE_SIDE_STYLE ('',( #203 ) ) ;
#26 = DIRECTION ( 'NONE',  ( -1.000000000000000000, 0.000000000000000000, 0.000000000000000000 ) ) ;
#27 = ADVANCED_FACE ( 'NONE', ( #10 ), #23, .T. ) ;
#28 = CLOSED_SHELL ( 'NONE', ( #89, #209, #79, #233 ) ) ;
#29 = CARTESIAN_POINT ( 'NONE',  ( 6.123233995736766036E-17, 0.000000000000000000, 0.5000000000000000000 ) ) ;
#30 = AXIS2_PLACEMENT_3D ( 'NONE', #211, #190, #60 ) ;
#31 = ORIENTED_EDGE ( 'NONE', *, *, #252, .T. ) ;
#32 = PLANE ( 'NONE',  #164 ) ;
#33 = UNCERTAINTY_MEASURE_WITH_UNIT (LENGTH_MEASURE( 1.000000000000000082E-05 ), #184, 'distance_accuracy_value', 'NONE');
#34 = SURFACE_SIDE_STYLE ('',( #73 ) ) ;
#35 = PRESENTATION_LAYER_ASSIGNMENT (  '', '', ( #260 ) ) ;
#36 = DIRECTION ( 'NONE',  ( -1.000000000000000000, 0.000000000000000000, 0.000000000000000000 ) ) ;
#37 = EDGE_CURVE ( 'NONE', #245, #64, #24, .T. ) ;
#38 =( CONVERSION_BASED_UNIT ( 'INCH', #175 ) LENGTH_UNIT ( ) NAMED_UNIT ( #108 ) );
#39 = STYLED_ITEM ( 'NONE', ( #7 ), #209 ) ;
#40 = AXIS2_PLACEMENT_3D ( 'NONE', #163, #57, #36 ) ;
#41 = PRESENTATION_STYLE_ASSIGNMENT (( #239 ) ) ;
#42 = ORIENTED_EDGE ( 'NONE', *, *, #81, .T. ) ;
#43 = ORIENTED_EDGE ( 'NONE', *, *, #191, .F. ) ;
#44 = COLOUR_RGB ( '',1.000000000000000000, 0.000000000000000000, 0.000000000000000000 ) ;
#45 = EDGE_LOOP ( 'NONE', ( #91, #147, #42, #259 ) ) ;
#46 = DIRECTION ( 'NONE',  ( -1.000000000000000000, 0.000000000000000000, 0.000000000000000000 ) ) ;
#47 =( CONVERSION_BASED_UNIT ( 'INCH', #265 ) LENGTH_UNIT ( ) NAMED_UNIT ( #270 ) );
#48 = CARTESIAN_POINT ( 'NONE',  ( 0.000000000000000000, 1.250000000000000000, -0.5000000000000000000 ) ) ;
#49 = FILL_AREA_STYLE ('',( #262 ) ) ;
#50 = FILL_AREA_STYLE_COLOUR ( '', #44 ) ;
#51 =( NAMED_UNIT ( * ) SI_UNIT ( $, .STERADIAN. ) SOLID_ANGLE_UNIT ( ) );
#52 = EDGE_CURVE ( 'NONE', #174, #64, #152, .T. ) ;
#53 = DIRECTION ( 'NONE',  ( 1.000000000000000000, -8.906522175617119052E-17, 0.000000000000000000 ) ) ;
#54 =( LENGTH_UNIT ( ) NAMED_UNIT ( * ) SI_UNIT ( $, .METRE. ) );
#55 =( GEOMETRIC_REPRESENTATION_CONTEXT ( 3 ) GLOBAL_UNCERTAINTY_ASSIGNED_CONTEXT ( ( #33 ) ) GLOBAL_UNIT_ASSIGNED_CONTEXT ( ( #184, #256, #222 ) ) REPRESENTATION_CONTEXT ( 'NONE', 'WORKASPACE' ) );
#56 =( GEOMETRIC_REPRESENTATION_CONTEXT ( 3 ) GLOBAL_UNCERTAINTY_ASSIGNED_CONTEXT ( ( #94 ) ) GLOBAL_UNIT_ASSIGNED_CONTEXT ( ( #38, #214, #86 ) ) REPRESENTATION_CONTEXT ( 'NONE', 'WORKASPACE' ) );
#57 = DIRECTION ( 'NONE',  ( 8.906522175617119052E-17, 1.000000000000000000, -0.000000000000000000 ) ) ;
#58 =( NAMED_UNIT ( * ) SI_UNIT ( $, .STERADIAN. ) SOLID_ANGLE_UNIT ( ) );
#59 = DIRECTION ( 'NONE',  ( 8.906522175617119052E-17, 1.000000000000000000, -0.000000000000000000 ) ) ;
#60 = DIRECTION ( 'NONE',  ( 0.000000000000000000, 0.000000000000000000, -1.000000000000000000 ) ) ;
#61 = CIRCLE ( 'NONE', #111, 0.4999999999999997224 ) ;
#62 = FACE_OUTER_BOUND ( 'NONE', #95, .T. ) ;
#63 = SURFACE_SIDE_STYLE ('',( #69 ) ) ;
#64 = VERTEX_POINT ( 'NONE', #293 ) ;
#65 = CARTESIAN_POINT ( 'NONE',  ( 0.000000000000000000, 0.000000000000000000, 0.000000000000000000 ) ) ;
#66 =( GEOMETRIC_REPRESENTATION_CONTEXT ( 3 ) GLOBAL_UNCERTAINTY_ASSIGNED_CONTEXT ( ( #13 ) ) GLOBAL_UNIT_ASSIGNED_CONTEXT ( ( #133, #18, #51 ) ) REPRESENTATION_CONTEXT ( 'NONE', 'WORKASPACE' ) );
#67 = ORIENTED_EDGE ( 'NONE', *, *, #37, .F. ) ;
#68 = AXIS2_PLACEMENT_3D ( 'NONE', #120, #284, #149 ) ;
#69 = SURFACE_STYLE_FILL_AREA ( #93 ) ;
#70 = VERTEX_POINT ( 'NONE', #71 ) ;
#71 = CARTESIAN_POINT ( 'NONE',  ( 0.5000000000000001110, 4.000000000000000000, 6.123233995736766036E-17 ) ) ;
#72 = PRODUCT_DEFINITION_FORMATION_WITH_SPECIFIED_SOURCE ( 'ANY', '', #169, .NOT_KNOWN. ) ;
#73 = SURFACE_STYLE_FILL_AREA ( #223 ) ;
#74 =( LENGTH_UNIT ( ) NAMED_UNIT ( * ) SI_UNIT ( $, .METRE. ) );
#75 = ORIENTED_EDGE ( 'NONE', *, *, #213, .F. ) ;
#76 = MECHANICAL_DESIGN_GEOMETRIC_PRESENTATION_REPRESENTATION (  '', ( #278 ), #250 ) ;
#77 = CIRCLE ( 'NONE', #142, 0.5000000000000000000 ) ;
#78 = DIRECTION ( 'NONE',  ( 8.906522175617119052E-17, 1.000000000000000000, -0.000000000000000000 ) ) ;
#79 = ADVANCED_FACE ( 'NONE', ( #242 ), #263, .T. ) ;
#80 = DIRECTION ( 'NONE',  ( 0.000000000000000000, 0.000000000000000000, -1.000000000000000000 ) ) ;
#81 = EDGE_CURVE ( 'NONE', #3, #245, #187, .T. ) ;
#82 = VECTOR ( 'NONE', #287, 39.37007874015748143 ) ;
#83 = AXIS2_PLACEMENT_3D ( 'NONE', #115, #255, #186 ) ;
#84 = CARTESIAN_POINT ( 'NONE',  ( 0.000000000000000000, 0.000000000000000000, -0.5000000000000000000 ) ) ;
#85 = FACE_OUTER_BOUND ( 'NONE', #122, .T. ) ;
#86 =( NAMED_UNIT ( * ) SI_UNIT ( $, .STERADIAN. ) SOLID_ANGLE_UNIT ( ) );
#87 = DIMENSIONAL_EXPONENTS ( 1.000000000000000000, 0.000000000000000000, 0.000000000000000000, 0.000000000000000000, 0.000000000000000000, 0.000000000000000000, 0.000000000000000000 ) ;
#88 = ORIENTED_EDGE ( 'NONE', *, *, #52, .T. ) ;
#89 = ADVANCED_FACE ( 'NONE', ( #85 ), #16, .T. ) ;
#90 = CLOSED_SHELL ( 'NONE', ( #27, #243, #171, #155 ) ) ;
#91 = ORIENTED_EDGE ( 'NONE', *, *, #52, .F. ) ;
#92 = ORIENTED_EDGE ( 'NONE', *, *, #81, .F. ) ;
#93 = FILL_AREA_STYLE ('',( #121 ) ) ;
#94 = UNCERTAINTY_MEASURE_WITH_UNIT (LENGTH_MEASURE( 1.000000000000000082E-05 ), #38, 'distance_accuracy_value', 'NONE');
#95 = EDGE_LOOP ( 'NONE', ( #43, #309 ) ) ;
#96 = MANIFOLD_SOLID_BREP ( 'Revolve - Cutting Edge', #28 ) ;
#97 = PRESENTATION_STYLE_ASSIGNMENT (( #123 ) ) ;
#98 = STYLED_ITEM ( 'NONE', ( #298 ), #89 ) ;
#99 = FACE_OUTER_BOUND ( 'NONE', #195, .T. ) ;
#100 = ORIENTED_EDGE ( 'NONE', *, *, #191, .T. ) ;
#101 = MANIFOLD_SOLID_BREP ( 'Revolve - Tool Body (Straight Shanked)', #90 ) ;
#102 = FILL_AREA_STYLE_COLOUR ( '', #6 ) ;
#103 =( NAMED_UNIT ( * ) SI_UNIT ( $, .STERADIAN. ) SOLID_ANGLE_UNIT ( ) );
#104 = DIRECTION ( 'NONE',  ( 0.000000000000000000, 0.000000000000000000, -1.000000000000000000 ) ) ;
#105 = CIRCLE ( 'NONE', #116, 0.5000000000000000000 ) ;
#106 = MECHANICAL_DESIGN_GEOMETRIC_PRESENTATION_REPRESENTATION (  '', ( #22 ), #56 ) ;
#107 = PLANE ( 'NONE',  #274 ) ;
#108 = DIMENSIONAL_EXPONENTS ( 1.000000000000000000, 0.000000000000000000, 0.000000000000000000, 0.000000000000000000, 0.000000000000000000, 0.000000000000000000, 0.000000000000000000 ) ;
#109 = DIRECTION ( 'NONE',  ( -1.000000000000000000, 8.906522175617119052E-17, 0.000000000000000000 ) ) ;
#110 = MECHANICAL_DESIGN_GEOMETRIC_PRESENTATION_REPRESENTATION (  '', ( #246 ), #66 ) ;
#111 = AXIS2_PLACEMENT_3D ( 'NONE', #272, #59, #277 ) ;
#112 = CARTESIAN_POINT ( 'NONE',  ( 0.000000000000000000, 0.000000000000000000, -0.5000000000000000000 ) ) ;
#113 =( LENGTH_UNIT ( ) NAMED_UNIT ( * ) SI_UNIT ( $, .METRE. ) );
#114 =( NAMED_UNIT ( * ) SI_UNIT ( $, .STERADIAN. ) SOLID_ANGLE_UNIT ( ) );
#115 = CARTESIAN_POINT ( 'NONE',  ( 0.000000000000000000, 0.000000000000000000, 0.000000000000000000 ) ) ;
#116 = AXIS2_PLACEMENT_3D ( 'NONE', #14, #208, #26 ) ;
#117 = EDGE_CURVE ( 'NONE', #64, #245, #119, .T. ) ;
#118 = DIRECTION ( 'NONE',  ( 0.000000000000000000, -0.000000000000000000, 1.000000000000000000 ) ) ;
#119 = CIRCLE ( 'NONE', #295, 0.5000000000000000000 ) ;
#120 = CARTESIAN_POINT ( 'NONE',  ( 2.449293598294707400E-16, 4.000000000000000000, 0.000000000000000000 ) ) ;
#121 = FILL_AREA_STYLE_COLOUR ( '', #279 ) ;
#122 = EDGE_LOOP ( 'NONE', ( #201, #88, #67, #92 ) ) ;
#123 = SURFACE_STYLE_USAGE ( .BOTH. , #25 ) ;
#124 = ORIENTED_EDGE ( 'NONE', *, *, #178, .T. ) ;
#125 = DIRECTION ( 'NONE',  ( 0.000000000000000000, 0.000000000000000000, -1.000000000000000000 ) ) ;
#126 = AXIS2_PLACEMENT_3D ( 'NONE', #292, #4, #125 ) ;
#127 =( NAMED_UNIT ( * ) PLANE_ANGLE_UNIT ( ) SI_UNIT ( $, .RADIAN. ) );
#128 = CARTESIAN_POINT ( 'NONE',  ( -0.5000000000000000000, 1.250000000000000000, 0.000000000000000000 ) ) ;
#129 = PRODUCT_DEFINITION ( 'UNKNOWN', '', #72, #258 ) ;
#130 = DIRECTION ( 'NONE',  ( 0.000000000000000000, 0.000000000000000000, -1.000000000000000000 ) ) ;
#131 = SURFACE_SIDE_STYLE ('',( #159 ) ) ;
#132 = CARTESIAN_POINT ( 'NONE',  ( 0.5000000000000001110, 4.000000000000000000, 6.123233995736764803E-17 ) ) ;
#133 =( CONVERSION_BASED_UNIT ( 'INCH', #139 ) LENGTH_UNIT ( ) NAMED_UNIT ( #87 ) );
#134 = MECHANICAL_DESIGN_GEOMETRIC_PRESENTATION_REPRESENTATION (  '', ( #39 ), #8 ) ;
#135 = PRODUCT_CONTEXT ( 'NONE', #165, 'mechanical' ) ;
#136 = EDGE_CURVE ( 'NONE', #179, #70, #273, .T. ) ;
#137 = LENGTH_MEASURE_WITH_UNIT ( LENGTH_MEASURE( 0.02539999999999999897 ), #54 );
#138 = PLANE ( 'NONE',  #30 ) ;
#139 = LENGTH_MEASURE_WITH_UNIT ( LENGTH_MEASURE( 0.02539999999999999897 ), #188 );
#140 = CARTESIAN_POINT ( 'NONE',  ( 1.983153431618987466E-33, 1.250000000000000000, 0.000000000000000000 ) ) ;
#141 = COLOUR_RGB ( '',0.7921568627450980005, 0.8196078431372548767, 0.9333333333333333481 ) ;
#142 = AXIS2_PLACEMENT_3D ( 'NONE', #198, #200, #218 ) ;
#143 = LENGTH_MEASURE_WITH_UNIT ( LENGTH_MEASURE( 0.02539999999999999897 ), #113 );
#144 = SURFACE_STYLE_FILL_AREA ( #210 ) ;
#145 = DIMENSIONAL_EXPONENTS ( 1.000000000000000000, 0.000000000000000000, 0.000000000000000000, 0.000000000000000000, 0.000000000000000000, 0.000000000000000000, 0.000000000000000000 ) ;
#146 = AXIS2_PLACEMENT_3D ( 'NONE', #202, #264, #46 ) ;
#147 = ORIENTED_EDGE ( 'NONE', *, *, #215, .T. ) ;
#148 = ADVANCED_BREP_SHAPE_REPRESENTATION ( '05862', ( #96, #101, #83 ), #217 ) ;
#149 = DIRECTION ( 'NONE',  ( -1.000000000000000000, 0.000000000000000000, 0.000000000000000000 ) ) ;
#150 = ORIENTED_EDGE ( 'NONE', *, *, #117, .T. ) ;
#151 = DIRECTION ( 'NONE',  ( 8.906522175617119052E-17, 1.000000000000000000, -0.000000000000000000 ) ) ;
#152 = LINE ( 'NONE', #29, #82 ) ;
#153 = CARTESIAN_POINT ( 'NONE',  ( 2.449293598294707400E-16, 4.000000000000000000, 0.000000000000000000 ) ) ;
#154 = ORIENTED_EDGE ( 'NONE', *, *, #2, .T. ) ;
#155 = ADVANCED_FACE ( 'NONE', ( #267 ), #32, .F. ) ;
#156 = CIRCLE ( 'NONE', #40, 0.5000000000000000000 ) ;
#157 = CARTESIAN_POINT ( 'NONE',  ( 0.000000000000000000, 0.000000000000000000, 0.000000000000000000 ) ) ;
#158 =( NAMED_UNIT ( * ) SI_UNIT ( $, .STERADIAN. ) SOLID_ANGLE_UNIT ( ) );
#159 = SURFACE_STYLE_FILL_AREA ( #49 ) ;
#160 = FILL_AREA_STYLE ('',( #50 ) ) ;
#161 = LENGTH_MEASURE_WITH_UNIT ( LENGTH_MEASURE( 0.02539999999999999897 ), #235 );
#162 = AXIS2_PLACEMENT_3D ( 'NONE', #153, #78, #290 ) ;
#163 = CARTESIAN_POINT ( 'NONE',  ( 0.000000000000000000, 1.250000000000000000, 0.000000000000000000 ) ) ;
#164 = AXIS2_PLACEMENT_3D ( 'NONE', #248, #269, #53 ) ;
#165 = APPLICATION_CONTEXT ( 'automotive_design' ) ;
#166 = SURFACE_SIDE_STYLE ('',( #254 ) ) ;
#167 = ORIENTED_EDGE ( 'NONE', *, *, #215, .F. ) ;
#168 = CARTESIAN_POINT ( 'NONE',  ( 0.5000000000000001110, 1.250000000000000000, 6.123233995736766036E-17 ) ) ;
#169 = PRODUCT ( '05862', '05862', '', ( #135 ) ) ;
#170 = EDGE_LOOP ( 'NONE', ( #197, #219, #154, #286 ) ) ;
#171 = ADVANCED_FACE ( 'NONE', ( #271 ), #294, .T. ) ;
#172 = PRESENTATION_STYLE_ASSIGNMENT (( #20 ) ) ;
#173 = PRESENTATION_LAYER_ASSIGNMENT (  '', '', ( #278 ) ) ;
#174 = VERTEX_POINT ( 'NONE', #289 ) ;
#175 = LENGTH_MEASURE_WITH_UNIT ( LENGTH_MEASURE( 0.02539999999999999897 ), #253 );
#176 =( CONVERSION_BASED_UNIT ( 'INCH', #247 ) LENGTH_UNIT ( ) NAMED_UNIT ( #228 ) );
#177 =( CONVERSION_BASED_UNIT ( 'INCH', #161 ) LENGTH_UNIT ( ) NAMED_UNIT ( #302 ) );
#178 = EDGE_CURVE ( 'NONE', #225, #70, #291, .T. ) ;
#179 = VERTEX_POINT ( 'NONE', #230 ) ;
#180 = APPLICATION_CONTEXT ( 'automotive_design' ) ;
#181 = UNCERTAINTY_MEASURE_WITH_UNIT (LENGTH_MEASURE( 1.000000000000000082E-05 ), #176, 'distance_accuracy_value', 'NONE');
#182 = AXIS2_PLACEMENT_3D ( 'NONE', #220, #285, #307 ) ;
#183 =( NAMED_UNIT ( * ) PLANE_ANGLE_UNIT ( ) SI_UNIT ( $, .RADIAN. ) );
#184 =( CONVERSION_BASED_UNIT ( 'INCH', #137 ) LENGTH_UNIT ( ) NAMED_UNIT ( #145 ) );
#185 = COLOUR_RGB ( '',1.000000000000000000, 0.000000000000000000, 0.000000000000000000 ) ;
#186 = DIRECTION ( 'NONE',  ( 1.000000000000000000, 0.000000000000000000, 0.000000000000000000 ) ) ;
#187 = LINE ( 'NONE', #112, #15 ) ;
#188 =( LENGTH_UNIT ( ) NAMED_UNIT ( * ) SI_UNIT ( $, .METRE. ) );
#189 = COLOUR_RGB ( '',0.7921568627450980005, 0.8196078431372548767, 0.9333333333333333481 ) ;
#190 = DIRECTION ( 'NONE',  ( 0.000000000000000000, -1.000000000000000000, -0.000000000000000000 ) ) ;
#191 = EDGE_CURVE ( 'NONE', #9, #225, #105, .T. ) ;
#192 = DIRECTION ( 'NONE',  ( 0.000000000000000000, 1.000000000000000000, 0.000000000000000000 ) ) ;
#193 = FILL_AREA_STYLE_COLOUR ( '', #189 ) ;
#194 = APPLICATION_PROTOCOL_DEFINITION ( 'draft international standard', 'automotive_design', 1998, #180 ) ;
#195 = EDGE_LOOP ( 'NONE', ( #75, #167 ) ) ;
#196 = CIRCLE ( 'NONE', #182, 0.5000000000000000000 ) ;
#197 = ORIENTED_EDGE ( 'NONE', *, *, #178, .F. ) ;
#198 = CARTESIAN_POINT ( 'NONE',  ( 0.000000000000000000, 1.250000000000000000, 0.000000000000000000 ) ) ;
#199 = CARTESIAN_POINT ( 'NONE',  ( -0.4999999999999996114, 4.000000000000000000, 0.000000000000000000 ) ) ;
#200 = DIRECTION ( 'NONE',  ( -0.000000000000000000, -1.000000000000000000, -0.000000000000000000 ) ) ;
#201 = ORIENTED_EDGE ( 'NONE', *, *, #213, .T. ) ;
#202 = CARTESIAN_POINT ( 'NONE',  ( 2.449293598294707400E-16, 4.000000000000000000, 0.000000000000000000 ) ) ;
#203 = SURFACE_STYLE_FILL_AREA ( #160 ) ;
#204 = EDGE_LOOP ( 'NONE', ( #281, #150 ) ) ;
#205 = DIRECTION ( 'NONE',  ( -0.000000000000000000, -1.000000000000000000, -0.000000000000000000 ) ) ;
#206 = SURFACE_STYLE_USAGE ( .BOTH. , #131 ) ;
#207 =( GEOMETRIC_REPRESENTATION_CONTEXT ( 3 ) GLOBAL_UNCERTAINTY_ASSIGNED_CONTEXT ( ( #181 ) ) GLOBAL_UNIT_ASSIGNED_CONTEXT ( ( #176, #183, #103 ) ) REPRESENTATION_CONTEXT ( 'NONE', 'WORKASPACE' ) );
#208 = DIRECTION ( 'NONE',  ( 8.906522175617119052E-17, 1.000000000000000000, -0.000000000000000000 ) ) ;
#209 = ADVANCED_FACE ( 'NONE', ( #99 ), #107, .T. ) ;
#210 = FILL_AREA_STYLE ('',( #249 ) ) ;
#211 = CARTESIAN_POINT ( 'NONE',  ( 0.000000000000000000, 0.000000000000000000, 0.000000000000000000 ) ) ;
#212 = DIRECTION ( 'NONE',  ( -0.000000000000000000, -1.000000000000000000, -0.000000000000000000 ) ) ;
#213 = EDGE_CURVE ( 'NONE', #3, #174, #77, .T. ) ;
#214 =( NAMED_UNIT ( * ) PLANE_ANGLE_UNIT ( ) SI_UNIT ( $, .RADIAN. ) );
#215 = EDGE_CURVE ( 'NONE', #174, #3, #196, .T. ) ;
#216 = PRESENTATION_LAYER_ASSIGNMENT (  '', '', ( #246 ) ) ;
#217 =( GEOMETRIC_REPRESENTATION_CONTEXT ( 3 ) GLOBAL_UNCERTAINTY_ASSIGNED_CONTEXT ( ( #227 ) ) GLOBAL_UNIT_ASSIGNED_CONTEXT ( ( #303, #299, #114 ) ) REPRESENTATION_CONTEXT ( 'NONE', 'WORKASPACE' ) );
#218 = DIRECTION ( 'NONE',  ( 0.000000000000000000, 0.000000000000000000, -1.000000000000000000 ) ) ;
#219 = ORIENTED_EDGE ( 'NONE', *, *, #297, .T. ) ;
#220 = CARTESIAN_POINT ( 'NONE',  ( 0.000000000000000000, 1.250000000000000000, 0.000000000000000000 ) ) ;
#221 = UNCERTAINTY_MEASURE_WITH_UNIT (LENGTH_MEASURE( 1.000000000000000082E-05 ), #177, 'distance_accuracy_value', 'NONE');
#222 =( NAMED_UNIT ( * ) SI_UNIT ( $, .STERADIAN. ) SOLID_ANGLE_UNIT ( ) );
#223 = FILL_AREA_STYLE ('',( #102 ) ) ;
#224 = AXIS2_PLACEMENT_3D ( 'NONE', #157, #11, #104 ) ;
#225 = VERTEX_POINT ( 'NONE', #168 ) ;
#226 = PRESENTATION_LAYER_ASSIGNMENT (  '', '', ( #22 ) ) ;
#227 = UNCERTAINTY_MEASURE_WITH_UNIT (LENGTH_MEASURE( 1.000000000000000082E-05 ), #303, 'distance_accuracy_value', 'NONE');
#228 = DIMENSIONAL_EXPONENTS ( 1.000000000000000000, 0.000000000000000000, 0.000000000000000000, 0.000000000000000000, 0.000000000000000000, 0.000000000000000000, 0.000000000000000000 ) ;
#229 = PRESENTATION_STYLE_ASSIGNMENT (( #206 ) ) ;
#230 = CARTESIAN_POINT ( 'NONE',  ( -0.4999999999999994449, 4.000000000000000000, 0.000000000000000000 ) ) ;
#231 = MECHANICAL_DESIGN_GEOMETRIC_PRESENTATION_REPRESENTATION (  '', ( #98 ), #55 ) ;
#232 = DIMENSIONAL_EXPONENTS ( 1.000000000000000000, 0.000000000000000000, 0.000000000000000000, 0.000000000000000000, 0.000000000000000000, 0.000000000000000000, 0.000000000000000000 ) ;
#233 = ADVANCED_FACE ( 'NONE', ( #283 ), #138, .T. ) ;
#234 = PLANE ( 'NONE',  #308 ) ;
#235 =( LENGTH_UNIT ( ) NAMED_UNIT ( * ) SI_UNIT ( $, .METRE. ) );
#236 = ORIENTED_EDGE ( 'NONE', *, *, #2, .F. ) ;
#237 = CARTESIAN_POINT ( 'NONE',  ( 0.000000000000000000, 1.250000000000000000, 0.000000000000000000 ) ) ;
#238 = PRODUCT_RELATED_PRODUCT_CATEGORY ( 'part', '', ( #169 ) ) ;
#239 = SURFACE_STYLE_USAGE ( .BOTH. , #166 ) ;
#240 = ORIENTED_EDGE ( 'NONE', *, *, #136, .F. ) ;
#241 = VECTOR ( 'NONE', #151, 39.37007874015748143 ) ;
#242 = FACE_OUTER_BOUND ( 'NONE', #45, .T. ) ;
#243 = ADVANCED_FACE ( 'NONE', ( #62 ), #234, .F. ) ;
#244 = DIRECTION ( 'NONE',  ( 8.906522175617119052E-17, 1.000000000000000000, -0.000000000000000000 ) ) ;
#245 = VERTEX_POINT ( 'NONE', #84 ) ;
#246 = STYLED_ITEM ( 'NONE', ( #97 ), #79 ) ;
#247 = LENGTH_MEASURE_WITH_UNIT ( LENGTH_MEASURE( 0.02539999999999999897 ), #12 );
#248 = CARTESIAN_POINT ( 'NONE',  ( 0.5000000000000000000, 4.000000000000000000, 0.000000000000000000 ) ) ;
#249 = FILL_AREA_STYLE_COLOUR ( '', #185 ) ;
#250 =( GEOMETRIC_REPRESENTATION_CONTEXT ( 3 ) GLOBAL_UNCERTAINTY_ASSIGNED_CONTEXT ( ( #221 ) ) GLOBAL_UNIT_ASSIGNED_CONTEXT ( ( #177, #19, #58 ) ) REPRESENTATION_CONTEXT ( 'NONE', 'WORKASPACE' ) );
#251 = CARTESIAN_POINT ( 'NONE',  ( 0.000000000000000000, 0.000000000000000000, 0.000000000000000000 ) ) ;
#252 = EDGE_CURVE ( 'NONE', #70, #179, #61, .T. ) ;
#253 =( LENGTH_UNIT ( ) NAMED_UNIT ( * ) SI_UNIT ( $, .METRE. ) );
#254 = SURFACE_STYLE_FILL_AREA ( #280 ) ;
#255 = DIRECTION ( 'NONE',  ( 0.000000000000000000, 0.000000000000000000, 1.000000000000000000 ) ) ;
#256 =( NAMED_UNIT ( * ) PLANE_ANGLE_UNIT ( ) SI_UNIT ( $, .RADIAN. ) );
#257 = PRESENTATION_LAYER_ASSIGNMENT (  '', '', ( #98 ) ) ;
#258 = PRODUCT_DEFINITION_CONTEXT ( 'detailed design', #180, 'design' ) ;
#259 = ORIENTED_EDGE ( 'NONE', *, *, #117, .F. ) ;
#260 = STYLED_ITEM ( 'NONE', ( #41 ), #101 ) ;
#261 = APPLICATION_PROTOCOL_DEFINITION ( 'draft international standard', 'automotive_design', 1998, #165 ) ;
#262 = FILL_AREA_STYLE_COLOUR ( '', #141 ) ;
#263 = CYLINDRICAL_SURFACE ( 'NONE', #288, 0.5000000000000000000 ) ;
#264 = DIRECTION ( 'NONE',  ( 8.906522175617119052E-17, 1.000000000000000000, -0.000000000000000000 ) ) ;
#265 = LENGTH_MEASURE_WITH_UNIT ( LENGTH_MEASURE( 0.02539999999999999897 ), #74 );
#266 = LINE ( 'NONE', #199, #21 ) ;
#267 = FACE_OUTER_BOUND ( 'NONE', #282, .T. ) ;
#268 = PRODUCT_DEFINITION_SHAPE ( 'NONE', 'NONE',  #129 ) ;
#269 = DIRECTION ( 'NONE',  ( -8.906522175617119052E-17, -1.000000000000000000, 0.000000000000000000 ) ) ;
#270 = DIMENSIONAL_EXPONENTS ( 1.000000000000000000, 0.000000000000000000, 0.000000000000000000, 0.000000000000000000, 0.000000000000000000, 0.000000000000000000, 0.000000000000000000 ) ;
#271 = FACE_OUTER_BOUND ( 'NONE', #170, .T. ) ;
#272 = CARTESIAN_POINT ( 'NONE',  ( 2.449293598294707400E-16, 4.000000000000000000, 0.000000000000000000 ) ) ;
#273 = CIRCLE ( 'NONE', #146, 0.4999999999999997224 ) ;
#274 = AXIS2_PLACEMENT_3D ( 'NONE', #237, #192, #118 ) ;
#275 = DIRECTION ( 'NONE',  ( 8.906522175617119052E-17, 1.000000000000000000, -0.000000000000000000 ) ) ;
#276 = SURFACE_SIDE_STYLE ('',( #144 ) ) ;
#277 = DIRECTION ( 'NONE',  ( -1.000000000000000000, 0.000000000000000000, 0.000000000000000000 ) ) ;
#278 = STYLED_ITEM ( 'NONE', ( #229 ), #96 ) ;
#279 = COLOUR_RGB ( '',1.000000000000000000, 0.000000000000000000, 0.000000000000000000 ) ;
#280 = FILL_AREA_STYLE ('',( #193 ) ) ;
#281 = ORIENTED_EDGE ( 'NONE', *, *, #37, .T. ) ;
#282 = EDGE_LOOP ( 'NONE', ( #305, #31 ) ) ;
#283 = FACE_OUTER_BOUND ( 'NONE', #204, .T. ) ;
#284 = DIRECTION ( 'NONE',  ( 8.906522175617119052E-17, 1.000000000000000000, -0.000000000000000000 ) ) ;
#285 = DIRECTION ( 'NONE',  ( -0.000000000000000000, -1.000000000000000000, -0.000000000000000000 ) ) ;
#286 = ORIENTED_EDGE ( 'NONE', *, *, #252, .F. ) ;
#287 = DIRECTION ( 'NONE',  ( -0.000000000000000000, -1.000000000000000000, -0.000000000000000000 ) ) ;
#288 = AXIS2_PLACEMENT_3D ( 'NONE', #251, #212, #80 ) ;
#289 = CARTESIAN_POINT ( 'NONE',  ( 6.123233995736766036E-17, 1.250000000000000000, 0.5000000000000000000 ) ) ;
#290 = DIRECTION ( 'NONE',  ( -1.000000000000000000, 0.000000000000000000, 0.000000000000000000 ) ) ;
#291 = LINE ( 'NONE', #132, #241 ) ;
#292 = CARTESIAN_POINT ( 'NONE',  ( 0.000000000000000000, 0.000000000000000000, 0.000000000000000000 ) ) ;
#293 = CARTESIAN_POINT ( 'NONE',  ( 6.123233995736766036E-17, 0.000000000000000000, 0.5000000000000000000 ) ) ;
#294 = CYLINDRICAL_SURFACE ( 'NONE', #162, 0.4999999999999998335 ) ;
#295 = AXIS2_PLACEMENT_3D ( 'NONE', #65, #205, #130 ) ;
#296 = SURFACE_STYLE_USAGE ( .BOTH. , #34 ) ;
#297 = EDGE_CURVE ( 'NONE', #225, #9, #156, .T. ) ;
#298 = PRESENTATION_STYLE_ASSIGNMENT (( #17 ) ) ;
#299 =( NAMED_UNIT ( * ) PLANE_ANGLE_UNIT ( ) SI_UNIT ( $, .RADIAN. ) );
#300 = PRESENTATION_LAYER_ASSIGNMENT (  '', '', ( #39 ) ) ;
#301 = DIRECTION ( 'NONE',  ( -0.000000000000000000, -1.000000000000000000, -0.000000000000000000 ) ) ;
#302 = DIMENSIONAL_EXPONENTS ( 1.000000000000000000, 0.000000000000000000, 0.000000000000000000, 0.000000000000000000, 0.000000000000000000, 0.000000000000000000, 0.000000000000000000 ) ;
#303 =( CONVERSION_BASED_UNIT ( 'INCH', #143 ) LENGTH_UNIT ( ) NAMED_UNIT ( #232 ) );
#304 = UNCERTAINTY_MEASURE_WITH_UNIT (LENGTH_MEASURE( 1.000000000000000082E-05 ), #47, 'distance_accuracy_value', 'NONE');
#305 = ORIENTED_EDGE ( 'NONE', *, *, #136, .T. ) ;
#306 = MECHANICAL_DESIGN_GEOMETRIC_PRESENTATION_REPRESENTATION (  '', ( #260 ), #207 ) ;
#307 = DIRECTION ( 'NONE',  ( 0.000000000000000000, 0.000000000000000000, -1.000000000000000000 ) ) ;
#308 = AXIS2_PLACEMENT_3D ( 'NONE', #140, #275, #109 ) ;
#309 = ORIENTED_EDGE ( 'NONE', *, *, #297, .F. ) ;
ENDSEC;
END-ISO-10303-21;
