ISO-10303-21;
HEADER;
FILE_DESCRIPTION (( 'STEP AP214' ),
    '1' );
FILE_NAME ('Micro_AELM-120-4.STEP',
    '2021-09-01T17:07:34',
    ( '' ),
    ( '' ),
    'SwSTEP 2.0',
    'SolidWorks 2020',
    '' );
FILE_SCHEMA (( 'AUTOMOTIVE_DESIGN' ));
ENDSEC;

DATA;
#1 = EDGE_LOOP ( 'NONE', ( #71, #299, #72, #23 ) ) ;
#2 = EDGE_LOOP ( 'NONE', ( #171, #214, #139, #82 ) ) ;
#3 = AXIS2_PLACEMENT_3D ( 'NONE', #203, #129, #185 ) ;
#4 = ORIENTED_EDGE ( 'NONE', *, *, #197, .F. ) ;
#5 = CARTESIAN_POINT ( 'NONE',  ( 0.0000000000000000000, 0.0000000000000000000, 0.0000000000000000000 ) ) ;
#6 = FACE_OUTER_BOUND ( 'NONE', #94, .T. ) ;
#7 = FACE_OUTER_BOUND ( 'NONE', #263, .T. ) ;
#8 = ORIENTED_EDGE ( 'NONE', *, *, #29, .F. ) ;
#9 = DIRECTION ( 'NONE',  ( -1.000000000000000000, 0.0000000000000000000, 0.0000000000000000000 ) ) ;
#10 = AXIS2_PLACEMENT_3D ( 'NONE', #39, #220, #63 ) ;
#11 = FACE_OUTER_BOUND ( 'NONE', #169, .T. ) ;
#12 = PRODUCT_CONTEXT ( 'NONE', #155, 'mechanical' ) ;
#13 = CARTESIAN_POINT ( 'NONE',  ( 2.651793845120917627E-16, 0.0000000000000000000, 2.165353999999999779 ) ) ;
#14 = CONICAL_SURFACE ( 'NONE', #16, 0.2359842795000000049, 0.1745329251994338915 ) ;
#15 = DIRECTION ( 'NONE',  ( 0.7071067811865410224, 8.659560562354852739E-17, -0.7071067811865539010 ) ) ;
#16 = AXIS2_PLACEMENT_3D ( 'NONE', #143, #213, #51 ) ;
#17 = DIRECTION ( 'NONE',  ( 1.224646799147353207E-16, 0.0000000000000000000, 1.000000000000000000 ) ) ;
#18 = CARTESIAN_POINT ( 'NONE',  ( 0.0000000000000000000, 0.0000000000000000000, 5.118109999999999715 ) ) ;
#19 = AXIS2_PLACEMENT_3D ( 'NONE', #18, #183, #273 ) ;
#20 = VECTOR ( 'NONE', #44, 39.37007874015748854 ) ;
#21 = EDGE_CURVE ( 'NONE', #166, #61, #256, .T. ) ;
#22 = COLOUR_RGB ( '',0.7921568627450980005, 0.8196078431372548767, 0.9333333333333333481 ) ;
#23 = ORIENTED_EDGE ( 'NONE', *, *, #157, .F. ) ;
#24 = EDGE_CURVE ( 'NONE', #187, #102, #287, .T. ) ;
#25 = CARTESIAN_POINT ( 'NONE',  ( 0.0000000000000000000, 0.0000000000000000000, 5.118109999999999715 ) ) ;
#26 = DIRECTION ( 'NONE',  ( 0.0000000000000000000, 0.0000000000000000000, -1.000000000000000000 ) ) ;
#27 = CARTESIAN_POINT ( 'NONE',  ( 0.2362204999999999999, 2.892866792179873879E-17, 5.118109999999999715 ) ) ;
#28 = CARTESIAN_POINT ( 'NONE',  ( 2.651793845120917627E-16, 0.0000000000000000000, 2.165353999999999779 ) ) ;
#29 = EDGE_CURVE ( 'NONE', #212, #196, #70, .T. ) ;
#30 = VECTOR ( 'NONE', #130, 39.37007874015748143 ) ;
#31 = ORIENTED_EDGE ( 'NONE', *, *, #190, .T. ) ;
#32 = LENGTH_MEASURE_WITH_UNIT ( LENGTH_MEASURE( 0.02539999999999999897 ), #65 );
#33 = CYLINDRICAL_SURFACE ( 'NONE', #225, 0.2359842795000000049 ) ;
#34 = DIRECTION ( 'NONE',  ( -0.0000000000000000000, -0.0000000000000000000, -1.000000000000000000 ) ) ;
#35 = LENGTH_MEASURE_WITH_UNIT ( LENGTH_MEASURE( 0.02539999999999999897 ), #292 );
#36 = VERTEX_POINT ( 'NONE', #160 ) ;
#37 =( CONVERSION_BASED_UNIT ( 'INCH', #106 ) LENGTH_UNIT ( ) NAMED_UNIT ( #279 ) );
#38 = ADVANCED_FACE ( 'NONE', ( #276 ), #181, .T. ) ;
#39 = CARTESIAN_POINT ( 'NONE',  ( 0.0000000000000000000, 0.0000000000000000000, 0.0000000000000000000 ) ) ;
#40 = PRESENTATION_STYLE_ASSIGNMENT (( #85 ) ) ;
#41 = CARTESIAN_POINT ( 'NONE',  ( 0.2212204999999994870, 2.709169772307764217E-17, 5.118109999999999715 ) ) ;
#42 = ADVANCED_FACE ( 'NONE', ( #6 ), #135, .T. ) ;
#43 = CARTESIAN_POINT ( 'NONE',  ( -0.2359842795000000049, 0.0000000000000000000, 5.779947850775387426E-17 ) ) ;
#44 = DIRECTION ( 'NONE',  ( -0.7071067811865410224, 0.0000000000000000000, -0.7071067811865539010 ) ) ;
#45 = CYLINDRICAL_SURFACE ( 'NONE', #3, 0.2362204999999999999 ) ;
#46 = ADVANCED_FACE ( 'NONE', ( #100 ), #33, .T. ) ;
#47 = DIRECTION ( 'NONE',  ( 0.0000000000000000000, 0.0000000000000000000, -1.000000000000000000 ) ) ;
#48 = CLOSED_SHELL ( 'NONE', ( #46, #223, #38, #87, #259, #42, #295, #80, #186, #217 ) ) ;
#49 = CARTESIAN_POINT ( 'NONE',  ( 0.0000000000000000000, 0.0000000000000000000, 0.0000000000000000000 ) ) ;
#50 = DIRECTION ( 'NONE',  ( 0.0000000000000000000, 0.0000000000000000000, 1.000000000000000000 ) ) ;
#51 = DIRECTION ( 'NONE',  ( 1.000000000000000000, 0.0000000000000000000, 0.0000000000000000000 ) ) ;
#52 = EDGE_CURVE ( 'NONE', #36, #196, #104, .T. ) ;
#53 = VERTEX_POINT ( 'NONE', #134 ) ;
#54 = CIRCLE ( 'NONE', #247, 0.2359842795000000049 ) ;
#55 = DIRECTION ( 'NONE',  ( 1.000000000000000000, 0.0000000000000000000, 0.0000000000000000000 ) ) ;
#56 = AXIS2_PLACEMENT_3D ( 'NONE', #284, #101, #195 ) ;
#57 = ORIENTED_EDGE ( 'NONE', *, *, #91, .T. ) ;
#58 = ORIENTED_EDGE ( 'NONE', *, *, #83, .T. ) ;
#59 = EDGE_CURVE ( 'NONE', #187, #208, #115, .T. ) ;
#60 =( NAMED_UNIT ( * ) PLANE_ANGLE_UNIT ( ) SI_UNIT ( $, .RADIAN. ) );
#61 = VERTEX_POINT ( 'NONE', #43 ) ;
#62 = FILL_AREA_STYLE_COLOUR ( '', #22 ) ;
#63 = DIRECTION ( 'NONE',  ( 1.000000000000000000, 0.0000000000000000000, 0.0000000000000000000 ) ) ;
#64 = ADVANCED_BREP_SHAPE_REPRESENTATION ( 'Micro_AELM-120-4', ( #228, #10 ), #153 ) ;
#65 =( LENGTH_UNIT ( ) NAMED_UNIT ( * ) SI_UNIT ( $, .METRE. ) );
#66 = AXIS2_PLACEMENT_3D ( 'NONE', #124, #95, #167 ) ;
#67 = CIRCLE ( 'NONE', #86, 0.2362204999999999999 ) ;
#68 = VECTOR ( 'NONE', #191, 39.37007874015748143 ) ;
#69 = DIRECTION ( 'NONE',  ( 1.000000000000000000, 0.0000000000000000000, 0.0000000000000000000 ) ) ;
#70 = LINE ( 'NONE', #27, #68 ) ;
#71 = ORIENTED_EDGE ( 'NONE', *, *, #190, .F. ) ;
#72 = ORIENTED_EDGE ( 'NONE', *, *, #21, .T. ) ;
#73 = ORIENTED_EDGE ( 'NONE', *, *, #201, .T. ) ;
#74 = ORIENTED_EDGE ( 'NONE', *, *, #137, .F. ) ;
#75 = ORIENTED_EDGE ( 'NONE', *, *, #269, .F. ) ;
#76 = VECTOR ( 'NONE', #34, 39.37007874015748143 ) ;
#77 = CIRCLE ( 'NONE', #226, 0.2362204999999999999 ) ;
#78 =( CONVERSION_BASED_UNIT ( 'INCH', #32 ) LENGTH_UNIT ( ) NAMED_UNIT ( #168 ) );
#79 = CARTESIAN_POINT ( 'NONE',  ( -0.2362204999999999999, 0.0000000000000000000, 5.118109999999999715 ) ) ;
#80 = ADVANCED_FACE ( 'NONE', ( #252 ), #14, .T. ) ;
#81 =( NAMED_UNIT ( * ) PLANE_ANGLE_UNIT ( ) SI_UNIT ( $, .RADIAN. ) );
#82 = ORIENTED_EDGE ( 'NONE', *, *, #269, .T. ) ;
#83 = EDGE_CURVE ( 'NONE', #166, #53, #260, .T. ) ;
#84 = FACE_OUTER_BOUND ( 'NONE', #125, .T. ) ;
#85 = SURFACE_STYLE_USAGE ( .BOTH. , #262 ) ;
#86 = AXIS2_PLACEMENT_3D ( 'NONE', #229, #298, #69 ) ;
#87 = ADVANCED_FACE ( 'NONE', ( #7 ), #255, .T. ) ;
#88 = CARTESIAN_POINT ( 'NONE',  ( 0.0000000000000000000, 0.0000000000000000000, 5.103109999999998259 ) ) ;
#89 = DIRECTION ( 'NONE',  ( -1.000000000000000000, 0.0000000000000000000, 1.224646799147353207E-16 ) ) ;
#90 = AXIS2_PLACEMENT_3D ( 'NONE', #13, #17, #198 ) ;
#91 = EDGE_CURVE ( 'NONE', #208, #53, #240, .T. ) ;
#92 = VECTOR ( 'NONE', #15, 39.37007874015748854 ) ;
#93 = EDGE_LOOP ( 'NONE', ( #74, #58, #233, #105 ) ) ;
#94 = EDGE_LOOP ( 'NONE', ( #251, #73 ) ) ;
#95 = DIRECTION ( 'NONE',  ( -1.224646799147353207E-16, -0.0000000000000000000, -1.000000000000000000 ) ) ;
#96 = CIRCLE ( 'NONE', #127, 0.2359842795000000049 ) ;
#97 = DIMENSIONAL_EXPONENTS ( 1.000000000000000000, 0.0000000000000000000, 0.0000000000000000000, 0.0000000000000000000, 0.0000000000000000000, 0.0000000000000000000, 0.0000000000000000000 ) ;
#98 = ORIENTED_EDGE ( 'NONE', *, *, #266, .T. ) ;
#99 = DIRECTION ( 'NONE',  ( -1.224646799147353207E-16, -0.0000000000000000000, -1.000000000000000000 ) ) ;
#100 = FACE_OUTER_BOUND ( 'NONE', #206, .T. ) ;
#101 = DIRECTION ( 'NONE',  ( -0.0000000000000000000, -0.0000000000000000000, -1.000000000000000000 ) ) ;
#102 = VERTEX_POINT ( 'NONE', #237 ) ;
#103 = CONICAL_SURFACE ( 'NONE', #90, 0.2359842795000000049, 0.1745329251994338915 ) ;
#104 = LINE ( 'NONE', #248, #30 ) ;
#105 = ORIENTED_EDGE ( 'NONE', *, *, #52, .F. ) ;
#106 = LENGTH_MEASURE_WITH_UNIT ( LENGTH_MEASURE( 0.02539999999999999897 ), #107 );
#107 =( LENGTH_UNIT ( ) NAMED_UNIT ( * ) SI_UNIT ( $, .METRE. ) );
#108 = CARTESIAN_POINT ( 'NONE',  ( 3.539197317345351204E-33, 0.0000000000000000000, 2.889973925387693713E-17 ) ) ;
#109 = APPLICATION_PROTOCOL_DEFINITION ( 'draft international standard', 'automotive_design', 1998, #155 ) ;
#110 = DIRECTION ( 'NONE',  ( 0.0000000000000000000, 0.0000000000000000000, 1.000000000000000000 ) ) ;
#111 = FILL_AREA_STYLE_COLOUR ( '', #232 ) ;
#112 = PRESENTATION_LAYER_ASSIGNMENT (  '', '', ( #286 ) ) ;
#113 = DIRECTION ( 'NONE',  ( 1.000000000000000000, 0.0000000000000000000, 0.0000000000000000000 ) ) ;
#114 = VECTOR ( 'NONE', #194, 39.37007874015747433 ) ;
#115 = LINE ( 'NONE', #270, #20 ) ;
#116 = AXIS2_PLACEMENT_3D ( 'NONE', #246, #152, #174 ) ;
#117 = EDGE_LOOP ( 'NONE', ( #283, #175, #189, #289 ) ) ;
#118 = DIRECTION ( 'NONE',  ( -1.000000000000000000, 0.0000000000000000000, 1.224646799147353207E-16 ) ) ;
#119 =( NAMED_UNIT ( * ) PLANE_ANGLE_UNIT ( ) SI_UNIT ( $, .RADIAN. ) );
#120 = ORIENTED_EDGE ( 'NONE', *, *, #91, .F. ) ;
#121 = DIRECTION ( 'NONE',  ( -1.224646799147353207E-16, -0.0000000000000000000, -1.000000000000000000 ) ) ;
#122 = CARTESIAN_POINT ( 'NONE',  ( 0.0000000000000000000, 0.0000000000000000000, 5.118109999999999715 ) ) ;
#123 = ORIENTED_EDGE ( 'NONE', *, *, #141, .F. ) ;
#124 = CARTESIAN_POINT ( 'NONE',  ( 2.651793845120917627E-16, 0.0000000000000000000, 2.165353999999999779 ) ) ;
#125 = EDGE_LOOP ( 'NONE', ( #8, #142, #57, #75 ) ) ;
#126 = CARTESIAN_POINT ( 'NONE',  ( 0.2362205000000002775, 2.892866792179876961E-17, 2.166693673027070943 ) ) ;
#127 = AXIS2_PLACEMENT_3D ( 'NONE', #108, #150, #288 ) ;
#128 = DIRECTION ( 'NONE',  ( -1.224646799147353207E-16, -0.0000000000000000000, -1.000000000000000000 ) ) ;
#130 = DIRECTION ( 'NONE',  ( 0.1736481776669313859, 0.0000000000000000000, 0.9848077530122077983 ) ) ;
#129 = DIRECTION ( 'NONE',  ( -0.0000000000000000000, -0.0000000000000000000, -1.000000000000000000 ) ) ;
#131 = MECHANICAL_DESIGN_GEOMETRIC_PRESENTATION_REPRESENTATION (  '', ( #231 ), #188 ) ;
#132 = AXIS2_PLACEMENT_3D ( 'NONE', #28, #241, #9 ) ;
#133 = EDGE_CURVE ( 'NONE', #36, #166, #245, .T. ) ;
#134 = CARTESIAN_POINT ( 'NONE',  ( -0.2362204999999997224, 0.0000000000000000000, 2.166693673027070943 ) ) ;
#135 = PLANE ( 'NONE',  #154 ) ;
#136 = DIRECTION ( 'NONE',  ( -1.224646799147353207E-16, -0.0000000000000000000, -1.000000000000000000 ) ) ;
#137 = EDGE_CURVE ( 'NONE', #166, #36, #272, .T. ) ;
#138 = ORIENTED_EDGE ( 'NONE', *, *, #21, .F. ) ;
#139 = ORIENTED_EDGE ( 'NONE', *, *, #52, .T. ) ;
#140 = VECTOR ( 'NONE', #128, 39.37007874015748143 ) ;
#141 = EDGE_CURVE ( 'NONE', #53, #196, #77, .T. ) ;
#142 = ORIENTED_EDGE ( 'NONE', *, *, #244, .T. ) ;
#143 = CARTESIAN_POINT ( 'NONE',  ( 2.651793845120917627E-16, 0.0000000000000000000, 2.165353999999999779 ) ) ;
#144 =( NAMED_UNIT ( * ) SI_UNIT ( $, .STERADIAN. ) SOLID_ANGLE_UNIT ( ) );
#145 = PRESENTATION_STYLE_ASSIGNMENT (( #261 ) ) ;
#146 = CONICAL_SURFACE ( 'NONE', #19, 0.2212204999999994870, 0.7853981633974391752 ) ;
#147 = ORIENTED_EDGE ( 'NONE', *, *, #29, .T. ) ;
#148 = AXIS2_PLACEMENT_3D ( 'NONE', #25, #50, #236 ) ;
#149 =( CONVERSION_BASED_UNIT ( 'INCH', #35 ) LENGTH_UNIT ( ) NAMED_UNIT ( #97 ) );
#150 = DIRECTION ( 'NONE',  ( -1.224646799147353207E-16, -0.0000000000000000000, -1.000000000000000000 ) ) ;
#151 = CARTESIAN_POINT ( 'NONE',  ( 0.2359842795000000049, 2.889973925387693713E-17, -2.889973925387693713E-17 ) ) ;
#152 = DIRECTION ( 'NONE',  ( 0.0000000000000000000, 0.0000000000000000000, 1.000000000000000000 ) ) ;
#153 =( GEOMETRIC_REPRESENTATION_CONTEXT ( 3 ) GLOBAL_UNCERTAINTY_ASSIGNED_CONTEXT ( ( #207 ) ) GLOBAL_UNIT_ASSIGNED_CONTEXT ( ( #37, #81, #144 ) ) REPRESENTATION_CONTEXT ( 'NONE', 'WORKASPACE' ) );
#154 = AXIS2_PLACEMENT_3D ( 'NONE', #164, #258, #281 ) ;
#155 = APPLICATION_CONTEXT ( 'automotive_design' ) ;
#156 = FACE_OUTER_BOUND ( 'NONE', #93, .T. ) ;
#157 = EDGE_CURVE ( 'NONE', #254, #61, #54, .T. ) ;
#158 = CIRCLE ( 'NONE', #209, 0.2362204999999999999 ) ;
#159 = PRODUCT_DEFINITION_CONTEXT ( 'detailed design', #264, 'design' ) ;
#160 = CARTESIAN_POINT ( 'NONE',  ( 0.2359842795000002824, 0.0000000000000000000, 2.165353999999999779 ) ) ;
#161 = AXIS2_PLACEMENT_3D ( 'NONE', #280, #26, #55 ) ;
#162 = PRODUCT_DEFINITION ( 'UNKNOWN', '', #178, #159 ) ;
#163 = VECTOR ( 'NONE', #275, 39.37007874015748143 ) ;
#164 = CARTESIAN_POINT ( 'NONE',  ( 0.0000000000000000000, 0.0000000000000000000, 5.118109999999999715 ) ) ;
#165 = ORIENTED_EDGE ( 'NONE', *, *, #244, .F. ) ;
#166 = VERTEX_POINT ( 'NONE', #211 ) ;
#167 = DIRECTION ( 'NONE',  ( -1.000000000000000000, 0.0000000000000000000, 0.0000000000000000000 ) ) ;
#168 = DIMENSIONAL_EXPONENTS ( 1.000000000000000000, 0.0000000000000000000, 0.0000000000000000000, 0.0000000000000000000, 0.0000000000000000000, 0.0000000000000000000, 0.0000000000000000000 ) ;
#169 = EDGE_LOOP ( 'NONE', ( #210, #253 ) ) ;
#170 = UNCERTAINTY_MEASURE_WITH_UNIT (LENGTH_MEASURE( 1.000000000000000082E-05 ), #78, 'distance_accuracy_value', 'NONE');
#171 = ORIENTED_EDGE ( 'NONE', *, *, #83, .F. ) ;
#172 = CARTESIAN_POINT ( 'NONE',  ( 2.653434471405423733E-16, 0.0000000000000000000, 2.166693673027070943 ) ) ;
#173 = FILL_AREA_STYLE ('',( #62 ) ) ;
#174 = DIRECTION ( 'NONE',  ( 1.000000000000000000, 0.0000000000000000000, -0.0000000000000000000 ) ) ;
#175 = ORIENTED_EDGE ( 'NONE', *, *, #197, .T. ) ;
#176 = SURFACE_STYLE_FILL_AREA ( #173 ) ;
#177 = LINE ( 'NONE', #151, #140 ) ;
#178 = PRODUCT_DEFINITION_FORMATION_WITH_SPECIFIED_SOURCE ( 'ANY', '', #297, .NOT_KNOWN. ) ;
#179 = CARTESIAN_POINT ( 'NONE',  ( -0.2212204999999994870, 0.0000000000000000000, 5.118109999999999715 ) ) ;
#180 = DIRECTION ( 'NONE',  ( 0.0000000000000000000, 0.0000000000000000000, -1.000000000000000000 ) ) ;
#181 = CONICAL_SURFACE ( 'NONE', #257, 0.2212204999999994870, 0.7853981633974391752 ) ;
#182 = FACE_OUTER_BOUND ( 'NONE', #1, .T. ) ;
#183 = DIRECTION ( 'NONE',  ( 0.0000000000000000000, 0.0000000000000000000, -1.000000000000000000 ) ) ;
#184 = CIRCLE ( 'NONE', #230, 0.2212204999999994870 ) ;
#185 = DIRECTION ( 'NONE',  ( -1.000000000000000000, 0.0000000000000000000, 0.0000000000000000000 ) ) ;
#186 = ADVANCED_FACE ( 'NONE', ( #182 ), #271, .T. ) ;
#187 = VERTEX_POINT ( 'NONE', #179 ) ;
#188 =( GEOMETRIC_REPRESENTATION_CONTEXT ( 3 ) GLOBAL_UNCERTAINTY_ASSIGNED_CONTEXT ( ( #235 ) ) GLOBAL_UNIT_ASSIGNED_CONTEXT ( ( #149, #60, #290 ) ) REPRESENTATION_CONTEXT ( 'NONE', 'WORKASPACE' ) );
#189 = ORIENTED_EDGE ( 'NONE', *, *, #266, .F. ) ;
#190 = EDGE_CURVE ( 'NONE', #36, #254, #177, .T. ) ;
#191 = DIRECTION ( 'NONE',  ( -0.0000000000000000000, -0.0000000000000000000, -1.000000000000000000 ) ) ;
#192 = CARTESIAN_POINT ( 'NONE',  ( 3.539197317345351204E-33, 0.0000000000000000000, 2.889973925387693713E-17 ) ) ;
#193 = ORIENTED_EDGE ( 'NONE', *, *, #205, .F. ) ;
#194 = DIRECTION ( 'NONE',  ( -0.1736481776669311916, 2.126576849575783316E-17, 0.9848077530122080203 ) ) ;
#195 = DIRECTION ( 'NONE',  ( -1.000000000000000000, 0.0000000000000000000, 0.0000000000000000000 ) ) ;
#196 = VERTEX_POINT ( 'NONE', #126 ) ;
#197 = EDGE_CURVE ( 'NONE', #102, #212, #227, .T. ) ;
#198 = DIRECTION ( 'NONE',  ( 1.000000000000000000, 0.0000000000000000000, 0.0000000000000000000 ) ) ;
#199 = PRESENTATION_LAYER_ASSIGNMENT (  '', '', ( #231 ) ) ;
#200 = CARTESIAN_POINT ( 'NONE',  ( 0.2359842795000000049, 2.889973925387693713E-17, 0.0000000000000000000 ) ) ;
#201 = EDGE_CURVE ( 'NONE', #102, #187, #184, .T. ) ;
#202 = DIRECTION ( 'NONE',  ( 1.000000000000000000, 0.0000000000000000000, 0.0000000000000000000 ) ) ;
#203 = CARTESIAN_POINT ( 'NONE',  ( 0.0000000000000000000, 0.0000000000000000000, 5.118109999999999715 ) ) ;
#204 = AXIS2_PLACEMENT_3D ( 'NONE', #5, #99, #267 ) ;
#205 = EDGE_CURVE ( 'NONE', #61, #254, #96, .T. ) ;
#206 = EDGE_LOOP ( 'NONE', ( #278, #31, #193, #138 ) ) ;
#207 = UNCERTAINTY_MEASURE_WITH_UNIT (LENGTH_MEASURE( 1.000000000000000082E-05 ), #37, 'distance_accuracy_value', 'NONE');
#208 = VERTEX_POINT ( 'NONE', #265 ) ;
#209 = AXIS2_PLACEMENT_3D ( 'NONE', #88, #180, #113 ) ;
#210 = ORIENTED_EDGE ( 'NONE', *, *, #205, .T. ) ;
#211 = CARTESIAN_POINT ( 'NONE',  ( -0.2359842794999997273, 2.891420358783783796E-17, 2.165353999999999779 ) ) ;
#212 = VERTEX_POINT ( 'NONE', #219 ) ;
#213 = DIRECTION ( 'NONE',  ( 1.224646799147353207E-16, 0.0000000000000000000, 1.000000000000000000 ) ) ;
#214 = ORIENTED_EDGE ( 'NONE', *, *, #133, .F. ) ;
#215 = CIRCLE ( 'NONE', #161, 0.2362204999999999999 ) ;
#216 = SHAPE_DEFINITION_REPRESENTATION ( #274, #64 ) ;
#217 = ADVANCED_FACE ( 'NONE', ( #11 ), #268, .F. ) ;
#218 = APPLICATION_PROTOCOL_DEFINITION ( 'draft international standard', 'automotive_design', 1998, #264 ) ;
#219 = CARTESIAN_POINT ( 'NONE',  ( 0.2362204999999999999, 2.892866792179873879E-17, 5.103109999999998259 ) ) ;
#220 = DIRECTION ( 'NONE',  ( 0.0000000000000000000, 0.0000000000000000000, 1.000000000000000000 ) ) ;
#221 = FILL_AREA_STYLE ('',( #111 ) ) ;
#222 = FACE_OUTER_BOUND ( 'NONE', #249, .T. ) ;
#223 = ADVANCED_FACE ( 'NONE', ( #156 ), #103, .T. ) ;
#224 = SURFACE_SIDE_STYLE ('',( #176 ) ) ;
#225 = AXIS2_PLACEMENT_3D ( 'NONE', #49, #136, #118 ) ;
#226 = AXIS2_PLACEMENT_3D ( 'NONE', #172, #296, #202 ) ;
#227 = LINE ( 'NONE', #41, #92 ) ;
#228 = MANIFOLD_SOLID_BREP ( 'Cut-Revolve1', #48 ) ;
#229 = CARTESIAN_POINT ( 'NONE',  ( 2.653434471405423733E-16, 0.0000000000000000000, 2.166693673027070943 ) ) ;
#230 = AXIS2_PLACEMENT_3D ( 'NONE', #243, #110, #293 ) ;
#231 = STYLED_ITEM ( 'NONE', ( #145 ), #64 ) ;
#232 = COLOUR_RGB ( '',0.7921568627450980005, 0.8196078431372548767, 0.9333333333333333481 ) ;
#233 = ORIENTED_EDGE ( 'NONE', *, *, #141, .T. ) ;
#234 = ORIENTED_EDGE ( 'NONE', *, *, #59, .T. ) ;
#235 = UNCERTAINTY_MEASURE_WITH_UNIT (LENGTH_MEASURE( 1.000000000000000082E-05 ), #149, 'distance_accuracy_value', 'NONE');
#236 = DIRECTION ( 'NONE',  ( 1.000000000000000000, 0.0000000000000000000, 0.0000000000000000000 ) ) ;
#237 = CARTESIAN_POINT ( 'NONE',  ( 0.2212204999999994870, 2.801018282243818894E-17, 5.118109999999999715 ) ) ;
#238 = CARTESIAN_POINT ( 'NONE',  ( -0.2359842795000000049, 0.0000000000000000000, 2.889973925387693713E-17 ) ) ;
#239 = DIRECTION ( 'NONE',  ( -1.000000000000000000, 0.0000000000000000000, 0.0000000000000000000 ) ) ;
#240 = LINE ( 'NONE', #79, #76 ) ;
#241 = DIRECTION ( 'NONE',  ( -1.224646799147353207E-16, -0.0000000000000000000, -1.000000000000000000 ) ) ;
#242 = ORIENTED_EDGE ( 'NONE', *, *, #24, .F. ) ;
#243 = CARTESIAN_POINT ( 'NONE',  ( 0.0000000000000000000, 0.0000000000000000000, 5.118109999999999715 ) ) ;
#244 = EDGE_CURVE ( 'NONE', #212, #208, #215, .T. ) ;
#245 = CIRCLE ( 'NONE', #66, 0.2359842795000000049 ) ;
#246 = CARTESIAN_POINT ( 'NONE',  ( 0.0000000000000000000, 0.0000000000000000000, 0.0000000000000000000 ) ) ;
#247 = AXIS2_PLACEMENT_3D ( 'NONE', #192, #121, #89 ) ;
#248 = CARTESIAN_POINT ( 'NONE',  ( 0.2359842795000002824, 0.0000000000000000000, 2.165353999999999779 ) ) ;
#249 = EDGE_LOOP ( 'NONE', ( #4, #242, #234, #165 ) ) ;
#250 =( NAMED_UNIT ( * ) SI_UNIT ( $, .STERADIAN. ) SOLID_ANGLE_UNIT ( ) );
#251 = ORIENTED_EDGE ( 'NONE', *, *, #24, .T. ) ;
#252 = FACE_OUTER_BOUND ( 'NONE', #2, .T. ) ;
#253 = ORIENTED_EDGE ( 'NONE', *, *, #157, .T. ) ;
#254 = VERTEX_POINT ( 'NONE', #200 ) ;
#255 = CYLINDRICAL_SURFACE ( 'NONE', #56, 0.2362204999999999999 ) ;
#256 = LINE ( 'NONE', #238, #163 ) ;
#257 = AXIS2_PLACEMENT_3D ( 'NONE', #122, #47, #239 ) ;
#258 = DIRECTION ( 'NONE',  ( 0.0000000000000000000, 0.0000000000000000000, 1.000000000000000000 ) ) ;
#259 = ADVANCED_FACE ( 'NONE', ( #84 ), #45, .T. ) ;
#260 = LINE ( 'NONE', #282, #114 ) ;
#261 = SURFACE_STYLE_USAGE ( .BOTH. , #224 ) ;
#262 = SURFACE_SIDE_STYLE ('',( #294 ) ) ;
#263 = EDGE_LOOP ( 'NONE', ( #98, #147, #123, #120 ) ) ;
#264 = APPLICATION_CONTEXT ( 'automotive_design' ) ;
#265 = CARTESIAN_POINT ( 'NONE',  ( -0.2362204999999999999, 0.0000000000000000000, 5.103109999999998259 ) ) ;
#266 = EDGE_CURVE ( 'NONE', #208, #212, #158, .T. ) ;
#267 = DIRECTION ( 'NONE',  ( -1.000000000000000000, 0.0000000000000000000, 1.224646799147353207E-16 ) ) ;
#268 = PLANE ( 'NONE',  #116 ) ;
#269 = EDGE_CURVE ( 'NONE', #196, #53, #67, .T. ) ;
#270 = CARTESIAN_POINT ( 'NONE',  ( -0.2212204999999994870, 0.0000000000000000000, 5.118109999999999715 ) ) ;
#271 = CYLINDRICAL_SURFACE ( 'NONE', #204, 0.2359842795000000049 ) ;
#272 = CIRCLE ( 'NONE', #132, 0.2359842795000000049 ) ;
#273 = DIRECTION ( 'NONE',  ( -1.000000000000000000, 0.0000000000000000000, 0.0000000000000000000 ) ) ;
#274 = PRODUCT_DEFINITION_SHAPE ( 'NONE', 'NONE',  #162 ) ;
#275 = DIRECTION ( 'NONE',  ( -1.224646799147353207E-16, -0.0000000000000000000, -1.000000000000000000 ) ) ;
#276 = FACE_OUTER_BOUND ( 'NONE', #117, .T. ) ;
#277 = MECHANICAL_DESIGN_GEOMETRIC_PRESENTATION_REPRESENTATION (  '', ( #286 ), #291 ) ;
#278 = ORIENTED_EDGE ( 'NONE', *, *, #137, .T. ) ;
#279 = DIMENSIONAL_EXPONENTS ( 1.000000000000000000, 0.0000000000000000000, 0.0000000000000000000, 0.0000000000000000000, 0.0000000000000000000, 0.0000000000000000000, 0.0000000000000000000 ) ;
#280 = CARTESIAN_POINT ( 'NONE',  ( 0.0000000000000000000, 0.0000000000000000000, 5.103109999999998259 ) ) ;
#281 = DIRECTION ( 'NONE',  ( 1.000000000000000000, 0.0000000000000000000, -0.0000000000000000000 ) ) ;
#282 = CARTESIAN_POINT ( 'NONE',  ( -0.2359842794999997273, 2.889973925387693713E-17, 2.165353999999999779 ) ) ;
#283 = ORIENTED_EDGE ( 'NONE', *, *, #201, .F. ) ;
#284 = CARTESIAN_POINT ( 'NONE',  ( 0.0000000000000000000, 0.0000000000000000000, 5.118109999999999715 ) ) ;
#285 = PRODUCT_RELATED_PRODUCT_CATEGORY ( 'part', '', ( #297 ) ) ;
#286 = STYLED_ITEM ( 'NONE', ( #40 ), #228 ) ;
#287 = CIRCLE ( 'NONE', #148, 0.2212204999999994870 ) ;
#288 = DIRECTION ( 'NONE',  ( -1.000000000000000000, 0.0000000000000000000, 1.224646799147353207E-16 ) ) ;
#289 = ORIENTED_EDGE ( 'NONE', *, *, #59, .F. ) ;
#290 =( NAMED_UNIT ( * ) SI_UNIT ( $, .STERADIAN. ) SOLID_ANGLE_UNIT ( ) );
#291 =( GEOMETRIC_REPRESENTATION_CONTEXT ( 3 ) GLOBAL_UNCERTAINTY_ASSIGNED_CONTEXT ( ( #170 ) ) GLOBAL_UNIT_ASSIGNED_CONTEXT ( ( #78, #119, #250 ) ) REPRESENTATION_CONTEXT ( 'NONE', 'WORKASPACE' ) );
#292 =( LENGTH_UNIT ( ) NAMED_UNIT ( * ) SI_UNIT ( $, .METRE. ) );
#293 = DIRECTION ( 'NONE',  ( 1.000000000000000000, 0.0000000000000000000, 0.0000000000000000000 ) ) ;
#294 = SURFACE_STYLE_FILL_AREA ( #221 ) ;
#295 = ADVANCED_FACE ( 'NONE', ( #222 ), #146, .T. ) ;
#296 = DIRECTION ( 'NONE',  ( -1.224646799147353207E-16, -0.0000000000000000000, -1.000000000000000000 ) ) ;
#297 = PRODUCT ( 'Micro_AELM-120-4', 'Micro_AELM-120-4', '', ( #12 ) ) ;
#298 = DIRECTION ( 'NONE',  ( -1.224646799147353207E-16, -0.0000000000000000000, -1.000000000000000000 ) ) ;
#299 = ORIENTED_EDGE ( 'NONE', *, *, #133, .T. ) ;
ENDSEC;
END-ISO-10303-21;
