ISO-10303-21;
HEADER;
FILE_DESCRIPTION (( 'STEP AP214' ),
    '1' );
FILE_NAME ('Micro_SFPM-030-60.STEP',
    '2021-09-02T06:50:00',
    ( '' ),
    ( '' ),
    'SwSTEP 2.0',
    'SolidWorks 2020',
    '' );
FILE_SCHEMA (( 'AUTOMOTIVE_DESIGN' ));
ENDSEC;

DATA;
#1 = DIRECTION ( 'NONE',  ( -0.7071067811865358044, 0.0000000000000000000, -0.7071067811865590080 ) ) ;
#2 = AXIS2_PLACEMENT_3D ( 'NONE', #186, #140, #298 ) ;
#3 = DIRECTION ( 'NONE',  ( 0.0000000000000000000, 0.0000000000000000000, 1.000000000000000000 ) ) ;
#4 = PLANE ( 'NONE',  #268 ) ;
#5 = CARTESIAN_POINT ( 'NONE',  ( 0.05899594500000009123, 0.0000000000000000000, 0.7086609999999999854 ) ) ;
#6 = VERTEX_POINT ( 'NONE', #291 ) ;
#7 = EDGE_CURVE ( 'NONE', #200, #114, #82, .T. ) ;
#8 = LINE ( 'NONE', #97, #273 ) ;
#9 = LINE ( 'NONE', #103, #64 ) ;
#10 = CIRCLE ( 'NONE', #235, 0.1181100000000000066 ) ;
#11 = PRODUCT_CONTEXT ( 'NONE', #94, 'mechanical' ) ;
#12 = DIRECTION ( 'NONE',  ( 1.000000000000000000, 0.0000000000000000000, 0.0000000000000000000 ) ) ;
#13 = AXIS2_PLACEMENT_3D ( 'NONE', #180, #144, #282 ) ;
#14 = ORIENTED_EDGE ( 'NONE', *, *, #34, .F. ) ;
#15 = EDGE_LOOP ( 'NONE', ( #152, #172, #90, #35 ) ) ;
#16 = ADVANCED_FACE ( 'NONE', ( #100 ), #158, .T. ) ;
#17 = ORIENTED_EDGE ( 'NONE', *, *, #176, .F. ) ;
#18 = ORIENTED_EDGE ( 'NONE', *, *, #104, .T. ) ;
#19 = ORIENTED_EDGE ( 'NONE', *, *, #269, .F. ) ;
#20 = DIRECTION ( 'NONE',  ( 0.7071067811865358044, 8.659560562354788645E-17, -0.7071067811865590080 ) ) ;
#21 = DIRECTION ( 'NONE',  ( -1.000000000000000000, 0.0000000000000000000, 1.224646799147353454E-16 ) ) ;
#22 = STYLED_ITEM ( 'NONE', ( #131 ), #222 ) ;
#23 = MANIFOLD_SOLID_BREP ( 'Cut-Revolve1', #61 ) ;
#24 = DIRECTION ( 'NONE',  ( -0.0000000000000000000, -0.0000000000000000000, -1.000000000000000000 ) ) ;
#25 = DIMENSIONAL_EXPONENTS ( 1.000000000000000000, 0.0000000000000000000, 0.0000000000000000000, 0.0000000000000000000, 0.0000000000000000000, 0.0000000000000000000, 0.0000000000000000000 ) ;
#26 = EDGE_CURVE ( 'NONE', #137, #39, #165, .T. ) ;
#27 = CARTESIAN_POINT ( 'NONE',  ( 0.0000000000000000000, 0.0000000000000000000, 0.0000000000000000000 ) ) ;
#28 =( CONVERSION_BASED_UNIT ( 'INCH', #123 ) LENGTH_UNIT ( ) NAMED_UNIT ( #80 ) );
#29 = APPLICATION_PROTOCOL_DEFINITION ( 'draft international standard', 'automotive_design', 1998, #94 ) ;
#30 = DIRECTION ( 'NONE',  ( -1.000000000000000000, 0.0000000000000000000, 1.224646799147352961E-16 ) ) ;
#31 = DIRECTION ( 'NONE',  ( -0.0000000000000000000, -0.0000000000000000000, -1.000000000000000000 ) ) ;
#32 = DIRECTION ( 'NONE',  ( 1.000000000000000000, 0.0000000000000000000, 0.0000000000000000000 ) ) ;
#33 = CIRCLE ( 'NONE', #208, 0.1031100000000002570 ) ;
#34 = EDGE_CURVE ( 'NONE', #156, #197, #10, .T. ) ;
#35 = ORIENTED_EDGE ( 'NONE', *, *, #34, .T. ) ;
#36 = ORIENTED_EDGE ( 'NONE', *, *, #269, .T. ) ;
#37 = ADVANCED_FACE ( 'NONE', ( #113 ), #191, .T. ) ;
#38 = ORIENTED_EDGE ( 'NONE', *, *, #261, .F. ) ;
#39 = VERTEX_POINT ( 'NONE', #47 ) ;
#40 = AXIS2_PLACEMENT_3D ( 'NONE', #93, #43, #228 ) ;
#41 =( GEOMETRIC_REPRESENTATION_CONTEXT ( 3 ) GLOBAL_UNCERTAINTY_ASSIGNED_CONTEXT ( ( #81 ) ) GLOBAL_UNIT_ASSIGNED_CONTEXT ( ( #168, #288, #174 ) ) REPRESENTATION_CONTEXT ( 'NONE', 'WORKASPACE' ) );
#42 =( NAMED_UNIT ( * ) PLANE_ANGLE_UNIT ( ) SI_UNIT ( $, .RADIAN. ) );
#43 = DIRECTION ( 'NONE',  ( -1.224646799147353207E-16, -0.0000000000000000000, -1.000000000000000000 ) ) ;
#44 = EDGE_CURVE ( 'NONE', #251, #224, #206, .T. ) ;
#45 = AXIS2_PLACEMENT_3D ( 'NONE', #65, #24, #205 ) ;
#46 = DIRECTION ( 'NONE',  ( 1.000000000000000000, 0.0000000000000000000, 0.0000000000000000000 ) ) ;
#47 = CARTESIAN_POINT ( 'NONE',  ( 0.1181100000000000066, 1.446430334472939084E-17, 2.229093999999999465 ) ) ;
#48 = DIRECTION ( 'NONE',  ( -0.1736481776669311916, 2.126576849575783316E-17, 0.9848077530122080203 ) ) ;
#49 = FILL_AREA_STYLE_COLOUR ( '', #102 ) ;
#50 = DIRECTION ( 'NONE',  ( -1.224646799147353207E-16, -0.0000000000000000000, -1.000000000000000000 ) ) ;
#51 = DIRECTION ( 'NONE',  ( 0.0000000000000000000, 0.0000000000000000000, -1.000000000000000000 ) ) ;
#52 = CIRCLE ( 'NONE', #159, 0.05899594500000000796 ) ;
#53 = PRESENTATION_LAYER_ASSIGNMENT (  '', '', ( #56 ) ) ;
#54 = EDGE_LOOP ( 'NONE', ( #86, #231, #296, #14 ) ) ;
#55 = EDGE_CURVE ( 'NONE', #6, #109, #253, .T. ) ;
#56 = STYLED_ITEM ( 'NONE', ( #232 ), #23 ) ;
#57 = ORIENTED_EDGE ( 'NONE', *, *, #195, .F. ) ;
#58 = DIRECTION ( 'NONE',  ( 1.000000000000000000, 0.0000000000000000000, 0.0000000000000000000 ) ) ;
#59 = ADVANCED_FACE ( 'NONE', ( #260 ), #162, .T. ) ;
#60 = DIRECTION ( 'NONE',  ( 0.0000000000000000000, 0.0000000000000000000, 1.000000000000000000 ) ) ;
#61 = CLOSED_SHELL ( 'NONE', ( #163, #120, #59, #16, #157, #141, #147, #285, #37, #203 ) ) ;
#62 = PRODUCT_RELATED_PRODUCT_CATEGORY ( 'part', '', ( #227 ) ) ;
#63 = UNCERTAINTY_MEASURE_WITH_UNIT (LENGTH_MEASURE( 1.000000000000000082E-05 ), #28, 'distance_accuracy_value', 'NONE');
#64 = VECTOR ( 'NONE', #31, 39.37007874015748143 ) ;
#65 = CARTESIAN_POINT ( 'NONE',  ( 0.0000000000000000000, 0.0000000000000000000, 2.244094000000000033 ) ) ;
#66 = DIRECTION ( 'NONE',  ( -1.224646799147353207E-16, -0.0000000000000000000, -1.000000000000000000 ) ) ;
#67 = LENGTH_MEASURE_WITH_UNIT ( LENGTH_MEASURE( 0.02539999999999999897 ), #267 );
#68 = DIRECTION ( 'NONE',  ( 0.0000000000000000000, 0.0000000000000000000, 1.000000000000000000 ) ) ;
#69 = CARTESIAN_POINT ( 'NONE',  ( 0.0000000000000000000, 0.0000000000000000000, 2.229093999999999465 ) ) ;
#70 = FILL_AREA_STYLE ('',( #75 ) ) ;
#71 = CARTESIAN_POINT ( 'NONE',  ( 0.05899594499999999409, 7.224919520692329689E-18, -9.478001694819074349E-34 ) ) ;
#72 = AXIS2_PLACEMENT_3D ( 'NONE', #181, #255, #161 ) ;
#73 = AXIS2_PLACEMENT_3D ( 'NONE', #143, #236, #211 ) ;
#74 = DIRECTION ( 'NONE',  ( 1.224646799147353207E-16, 0.0000000000000000000, 1.000000000000000000 ) ) ;
#75 = FILL_AREA_STYLE_COLOUR ( '', #91 ) ;
#76 = DIRECTION ( 'NONE',  ( 1.000000000000000000, 0.0000000000000000000, -0.0000000000000000000 ) ) ;
#77 = DIRECTION ( 'NONE',  ( 0.0000000000000000000, 0.0000000000000000000, 1.000000000000000000 ) ) ;
#78 = FACE_OUTER_BOUND ( 'NONE', #198, .T. ) ;
#79 = CIRCLE ( 'NONE', #278, 0.05899594499999999409 ) ;
#80 = DIMENSIONAL_EXPONENTS ( 1.000000000000000000, 0.0000000000000000000, 0.0000000000000000000, 0.0000000000000000000, 0.0000000000000000000, 0.0000000000000000000, 0.0000000000000000000 ) ;
#81 = UNCERTAINTY_MEASURE_WITH_UNIT (LENGTH_MEASURE( 1.000000000000000082E-05 ), #168, 'distance_accuracy_value', 'NONE');
#82 = LINE ( 'NONE', #108, #241 ) ;
#83 = ORIENTED_EDGE ( 'NONE', *, *, #258, .F. ) ;
#84 = MECHANICAL_DESIGN_GEOMETRIC_PRESENTATION_REPRESENTATION (  '', ( #56 ), #259 ) ;
#85 = ORIENTED_EDGE ( 'NONE', *, *, #44, .F. ) ;
#86 = ORIENTED_EDGE ( 'NONE', *, *, #229, .F. ) ;
#87 = CARTESIAN_POINT ( 'NONE',  ( -0.05899594500000000796, 0.0000000000000000000, 7.224919520692329689E-18 ) ) ;
#88 = ORIENTED_EDGE ( 'NONE', *, *, #7, .T. ) ;
#89 = CARTESIAN_POINT ( 'NONE',  ( 0.0000000000000000000, 0.0000000000000000000, 2.244094000000000033 ) ) ;
#90 = ORIENTED_EDGE ( 'NONE', *, *, #261, .T. ) ;
#91 = COLOUR_RGB ( '',0.7921568627450980005, 0.8196078431372548767, 0.9333333333333333481 ) ;
#92 =( NAMED_UNIT ( * ) SI_UNIT ( $, .STERADIAN. ) SOLID_ANGLE_UNIT ( ) );
#93 = CARTESIAN_POINT ( 'NONE',  ( 8.678594253305624695E-17, 0.0000000000000000000, 0.7086609999999999854 ) ) ;
#94 = APPLICATION_CONTEXT ( 'automotive_design' ) ;
#95 = CARTESIAN_POINT ( 'NONE',  ( -0.1031100000000002570, 0.0000000000000000000, 2.244094000000000033 ) ) ;
#96 = PRODUCT_DEFINITION_FORMATION_WITH_SPECIFIED_SOURCE ( 'ANY', '', #227, .NOT_KNOWN. ) ;
#97 = CARTESIAN_POINT ( 'NONE',  ( -0.05899594499999991776, 7.224919520692329689E-18, 0.7086609999999999854 ) ) ;
#98 =( NAMED_UNIT ( * ) SI_UNIT ( $, .STERADIAN. ) SOLID_ANGLE_UNIT ( ) );
#99 = CARTESIAN_POINT ( 'NONE',  ( 0.0000000000000000000, 0.0000000000000000000, 2.244094000000000033 ) ) ;
#100 = FACE_OUTER_BOUND ( 'NONE', #290, .T. ) ;
#101 = DIRECTION ( 'NONE',  ( 1.000000000000000000, 0.0000000000000000000, -0.0000000000000000000 ) ) ;
#102 = COLOUR_RGB ( '',0.7921568627450980005, 0.8196078431372548767, 0.9333333333333333481 ) ;
#103 = CARTESIAN_POINT ( 'NONE',  ( 0.1181100000000000066, 1.446430334472939084E-17, 2.244094000000000033 ) ) ;
#104 = EDGE_CURVE ( 'NONE', #137, #6, #178, .T. ) ;
#105 = CARTESIAN_POINT ( 'NONE',  ( 8.678594253305624695E-17, 0.0000000000000000000, 0.7086609999999999854 ) ) ;
#106 = ORIENTED_EDGE ( 'NONE', *, *, #55, .F. ) ;
#107 = AXIS2_PLACEMENT_3D ( 'NONE', #248, #294, #119 ) ;
#108 = CARTESIAN_POINT ( 'NONE',  ( 0.05899594500000000796, 7.224919520692329689E-18, -7.224919520692329689E-18 ) ) ;
#109 = VERTEX_POINT ( 'NONE', #169 ) ;
#110 = VECTOR ( 'NONE', #210, 39.37007874015748143 ) ;
#111 = ORIENTED_EDGE ( 'NONE', *, *, #199, .F. ) ;
#112 = ORIENTED_EDGE ( 'NONE', *, *, #229, .T. ) ;
#113 = FACE_OUTER_BOUND ( 'NONE', #135, .T. ) ;
#114 = VERTEX_POINT ( 'NONE', #71 ) ;
#115 = DIRECTION ( 'NONE',  ( -1.224646799147353207E-16, -0.0000000000000000000, -1.000000000000000000 ) ) ;
#116 = AXIS2_PLACEMENT_3D ( 'NONE', #69, #240, #266 ) ;
#117 = CARTESIAN_POINT ( 'NONE',  ( 1.278425283995519310E-16, 0.0000000000000000000, 1.043913465405379437 ) ) ;
#118 = ORIENTED_EDGE ( 'NONE', *, *, #221, .T. ) ;
#119 = DIRECTION ( 'NONE',  ( -1.000000000000000000, 0.0000000000000000000, 0.0000000000000000000 ) ) ;
#120 = ADVANCED_FACE ( 'NONE', ( #274 ), #134, .T. ) ;
#121 = DIRECTION ( 'NONE',  ( -1.224646799147353207E-16, -0.0000000000000000000, -1.000000000000000000 ) ) ;
#122 = AXIS2_PLACEMENT_3D ( 'NONE', #283, #77, #101 ) ;
#123 = LENGTH_MEASURE_WITH_UNIT ( LENGTH_MEASURE( 0.02539999999999999897 ), #234 );
#124 =( CONVERSION_BASED_UNIT ( 'INCH', #239 ) LENGTH_UNIT ( ) NAMED_UNIT ( #188 ) );
#125 = CARTESIAN_POINT ( 'NONE',  ( 0.05899594500000009123, 0.0000000000000000000, 0.7086609999999999854 ) ) ;
#126 = DIRECTION ( 'NONE',  ( -1.224646799147353207E-16, -0.0000000000000000000, -1.000000000000000000 ) ) ;
#127 = PRODUCT_DEFINITION ( 'UNKNOWN', '', #96, #247 ) ;
#128 = CARTESIAN_POINT ( 'NONE',  ( 1.278425283995519310E-16, 0.0000000000000000000, 1.043913465405379437 ) ) ;
#129 = CIRCLE ( 'NONE', #40, 0.05899594500000000796 ) ;
#130 = LINE ( 'NONE', #219, #155 ) ;
#131 = PRESENTATION_STYLE_ASSIGNMENT (( #173 ) ) ;
#132 = ORIENTED_EDGE ( 'NONE', *, *, #167, .T. ) ;
#133 = ORIENTED_EDGE ( 'NONE', *, *, #104, .F. ) ;
#134 = CONICAL_SURFACE ( 'NONE', #299, 0.05899594500000000796, 0.1745329251994338915 ) ;
#135 = EDGE_LOOP ( 'NONE', ( #277, #132, #223, #17 ) ) ;
#136 = EDGE_LOOP ( 'NONE', ( #244, #88, #19, #85 ) ) ;
#137 = VERTEX_POINT ( 'NONE', #209 ) ;
#138 = EDGE_LOOP ( 'NONE', ( #133, #271, #111, #106 ) ) ;
#139 = CIRCLE ( 'NONE', #295, 0.05899594499999999409 ) ;
#140 = DIRECTION ( 'NONE',  ( -0.0000000000000000000, -0.0000000000000000000, -1.000000000000000000 ) ) ;
#141 = ADVANCED_FACE ( 'NONE', ( #237 ), #4, .T. ) ;
#142 = DIRECTION ( 'NONE',  ( -0.0000000000000000000, -0.0000000000000000000, -1.000000000000000000 ) ) ;
#143 = CARTESIAN_POINT ( 'NONE',  ( 0.0000000000000000000, 0.0000000000000000000, 0.0000000000000000000 ) ) ;
#144 = DIRECTION ( 'NONE',  ( 0.0000000000000000000, 0.0000000000000000000, -1.000000000000000000 ) ) ;
#145 = AXIS2_PLACEMENT_3D ( 'NONE', #190, #51, #32 ) ;
#146 = CARTESIAN_POINT ( 'NONE',  ( -0.05899594499999991776, 1.084461143271085950E-17, 0.7086609999999999854 ) ) ;
#147 = ADVANCED_FACE ( 'NONE', ( #78 ), #170, .T. ) ;
#148 = APPLICATION_PROTOCOL_DEFINITION ( 'draft international standard', 'automotive_design', 1998, #245 ) ;
#149 = CARTESIAN_POINT ( 'NONE',  ( -0.1181099999999998956, 0.0000000000000000000, 1.043913465405379437 ) ) ;
#150 = VECTOR ( 'NONE', #1, 39.37007874015748854 ) ;
#151 = ORIENTED_EDGE ( 'NONE', *, *, #220, .T. ) ;
#152 = ORIENTED_EDGE ( 'NONE', *, *, #221, .F. ) ;
#153 = PRODUCT_DEFINITION_SHAPE ( 'NONE', 'NONE',  #127 ) ;
#154 = EDGE_LOOP ( 'NONE', ( #36, #202 ) ) ;
#155 = VECTOR ( 'NONE', #142, 39.37007874015748143 ) ;
#156 = VERTEX_POINT ( 'NONE', #207 ) ;
#157 = ADVANCED_FACE ( 'NONE', ( #272 ), #184, .T. ) ;
#158 = CYLINDRICAL_SURFACE ( 'NONE', #2, 0.1181100000000000066 ) ;
#159 = AXIS2_PLACEMENT_3D ( 'NONE', #238, #66, #164 ) ;
#160 = SURFACE_STYLE_USAGE ( .BOTH. , #262 ) ;
#161 = DIRECTION ( 'NONE',  ( -1.000000000000000000, 0.0000000000000000000, 1.224646799147352961E-16 ) ) ;
#162 = CONICAL_SURFACE ( 'NONE', #13, 0.1031100000000002570, 0.7853981633974318477 ) ;
#163 = ADVANCED_FACE ( 'NONE', ( #275 ), #276, .T. ) ;
#164 = DIRECTION ( 'NONE',  ( -1.000000000000000000, 0.0000000000000000000, 0.0000000000000000000 ) ) ;
#165 = LINE ( 'NONE', #226, #218 ) ;
#166 = DIRECTION ( 'NONE',  ( -1.224646799147353207E-16, -0.0000000000000000000, -1.000000000000000000 ) ) ;
#167 = EDGE_CURVE ( 'NONE', #200, #251, #129, .T. ) ;
#168 =( CONVERSION_BASED_UNIT ( 'INCH', #67 ) LENGTH_UNIT ( ) NAMED_UNIT ( #25 ) );
#169 = CARTESIAN_POINT ( 'NONE',  ( -0.1181100000000000066, 0.0000000000000000000, 2.229093999999999465 ) ) ;
#170 = CONICAL_SURFACE ( 'NONE', #107, 0.1031100000000002570, 0.7853981633974318477 ) ;
#171 = LINE ( 'NONE', #125, #110 ) ;
#172 = ORIENTED_EDGE ( 'NONE', *, *, #167, .F. ) ;
#173 = SURFACE_STYLE_USAGE ( .BOTH. , #217 ) ;
#174 =( NAMED_UNIT ( * ) SI_UNIT ( $, .STERADIAN. ) SOLID_ANGLE_UNIT ( ) );
#175 = CIRCLE ( 'NONE', #116, 0.1181100000000000066 ) ;
#176 = EDGE_CURVE ( 'NONE', #114, #224, #139, .T. ) ;
#177 = EDGE_LOOP ( 'NONE', ( #214, #118, #249, #38 ) ) ;
#178 = CIRCLE ( 'NONE', #201, 0.1031100000000002570 ) ;
#179 = ORIENTED_EDGE ( 'NONE', *, *, #26, .F. ) ;
#180 = CARTESIAN_POINT ( 'NONE',  ( 0.0000000000000000000, 0.0000000000000000000, 2.244094000000000033 ) ) ;
#181 = CARTESIAN_POINT ( 'NONE',  ( 0.0000000000000000000, 0.0000000000000000000, 0.0000000000000000000 ) ) ;
#182 = DIRECTION ( 'NONE',  ( 1.000000000000000000, 0.0000000000000000000, 0.0000000000000000000 ) ) ;
#183 = UNCERTAINTY_MEASURE_WITH_UNIT (LENGTH_MEASURE( 1.000000000000000082E-05 ), #124, 'distance_accuracy_value', 'NONE');
#184 = CYLINDRICAL_SURFACE ( 'NONE', #45, 0.1181100000000000066 ) ;
#185 = AXIS2_PLACEMENT_3D ( 'NONE', #105, #74, #281 ) ;
#186 = CARTESIAN_POINT ( 'NONE',  ( 0.0000000000000000000, 0.0000000000000000000, 2.244094000000000033 ) ) ;
#187 = CARTESIAN_POINT ( 'NONE',  ( 8.847974565113090185E-34, 0.0000000000000000000, 7.224919520692329689E-18 ) ) ;
#188 = DIMENSIONAL_EXPONENTS ( 1.000000000000000000, 0.0000000000000000000, 0.0000000000000000000, 0.0000000000000000000, 0.0000000000000000000, 0.0000000000000000000, 0.0000000000000000000 ) ;
#189 = CARTESIAN_POINT ( 'NONE',  ( 0.0000000000000000000, 0.0000000000000000000, 2.244094000000000033 ) ) ;
#190 = CARTESIAN_POINT ( 'NONE',  ( 0.0000000000000000000, 0.0000000000000000000, 2.229093999999999465 ) ) ;
#191 = CYLINDRICAL_SURFACE ( 'NONE', #264, 0.05899594500000000796 ) ;
#192 = PRESENTATION_LAYER_ASSIGNMENT (  '', '', ( #22 ) ) ;
#193 = DIRECTION ( 'NONE',  ( 1.000000000000000000, 0.0000000000000000000, 0.0000000000000000000 ) ) ;
#194 = SURFACE_STYLE_FILL_AREA ( #70 ) ;
#195 = EDGE_CURVE ( 'NONE', #197, #156, #250, .T. ) ;
#196 =( GEOMETRIC_REPRESENTATION_CONTEXT ( 3 ) GLOBAL_UNCERTAINTY_ASSIGNED_CONTEXT ( ( #63 ) ) GLOBAL_UNIT_ASSIGNED_CONTEXT ( ( #28, #284, #92 ) ) REPRESENTATION_CONTEXT ( 'NONE', 'WORKASPACE' ) );
#197 = VERTEX_POINT ( 'NONE', #149 ) ;
#198 = EDGE_LOOP ( 'NONE', ( #179, #246, #292, #83 ) ) ;
#199 = EDGE_CURVE ( 'NONE', #109, #39, #175, .T. ) ;
#200 = VERTEX_POINT ( 'NONE', #5 ) ;
#201 = AXIS2_PLACEMENT_3D ( 'NONE', #89, #60, #182 ) ;
#202 = ORIENTED_EDGE ( 'NONE', *, *, #176, .T. ) ;
#203 = ADVANCED_FACE ( 'NONE', ( #213 ), #216, .F. ) ;
#204 = DIRECTION ( 'NONE',  ( -1.224646799147353207E-16, -0.0000000000000000000, -1.000000000000000000 ) ) ;
#205 = DIRECTION ( 'NONE',  ( -1.000000000000000000, 0.0000000000000000000, 0.0000000000000000000 ) ) ;
#206 = LINE ( 'NONE', #87, #252 ) ;
#207 = CARTESIAN_POINT ( 'NONE',  ( 0.1181100000000001454, 1.446430334472940625E-17, 1.043913465405379437 ) ) ;
#208 = AXIS2_PLACEMENT_3D ( 'NONE', #99, #3, #193 ) ;
#209 = CARTESIAN_POINT ( 'NONE',  ( 0.1031100000000002570, 1.354581824536888722E-17, 2.244094000000000033 ) ) ;
#210 = DIRECTION ( 'NONE',  ( 0.1736481776669313859, 0.0000000000000000000, 0.9848077530122077983 ) ) ;
#211 = DIRECTION ( 'NONE',  ( 1.000000000000000000, 0.0000000000000000000, 0.0000000000000000000 ) ) ;
#212 = CARTESIAN_POINT ( 'NONE',  ( 8.678594253305624695E-17, 0.0000000000000000000, 0.7086609999999999854 ) ) ;
#213 = FACE_OUTER_BOUND ( 'NONE', #154, .T. ) ;
#214 = ORIENTED_EDGE ( 'NONE', *, *, #293, .F. ) ;
#215 = SURFACE_STYLE_FILL_AREA ( #279 ) ;
#216 = PLANE ( 'NONE',  #122 ) ;
#217 = SURFACE_SIDE_STYLE ('',( #194 ) ) ;
#218 = VECTOR ( 'NONE', #20, 39.37007874015748854 ) ;
#219 = CARTESIAN_POINT ( 'NONE',  ( -0.1181100000000000066, 0.0000000000000000000, 2.244094000000000033 ) ) ;
#220 = EDGE_CURVE ( 'NONE', #6, #137, #33, .T. ) ;
#221 = EDGE_CURVE ( 'NONE', #251, #197, #8, .T. ) ;
#222 = ADVANCED_BREP_SHAPE_REPRESENTATION ( 'Micro_SFPM-030-60', ( #23, #73 ), #196 ) ;
#223 = ORIENTED_EDGE ( 'NONE', *, *, #44, .T. ) ;
#224 = VERTEX_POINT ( 'NONE', #243 ) ;
#225 = AXIS2_PLACEMENT_3D ( 'NONE', #128, #166, #12 ) ;
#226 = CARTESIAN_POINT ( 'NONE',  ( 0.1031100000000002570, 1.262733314600838667E-17, 2.244094000000000033 ) ) ;
#227 = PRODUCT ( 'Micro_SFPM-030-60', 'Micro_SFPM-030-60', '', ( #11 ) ) ;
#228 = DIRECTION ( 'NONE',  ( -1.000000000000000000, 0.0000000000000000000, 0.0000000000000000000 ) ) ;
#229 = EDGE_CURVE ( 'NONE', #39, #156, #9, .T. ) ;
#230 = MECHANICAL_DESIGN_GEOMETRIC_PRESENTATION_REPRESENTATION (  '', ( #22 ), #41 ) ;
#231 = ORIENTED_EDGE ( 'NONE', *, *, #258, .T. ) ;
#232 = PRESENTATION_STYLE_ASSIGNMENT (( #160 ) ) ;
#233 = DIRECTION ( 'NONE',  ( -1.224646799147353207E-16, -0.0000000000000000000, -1.000000000000000000 ) ) ;
#234 =( LENGTH_UNIT ( ) NAMED_UNIT ( * ) SI_UNIT ( $, .METRE. ) );
#235 = AXIS2_PLACEMENT_3D ( 'NONE', #117, #126, #58 ) ;
#236 = DIRECTION ( 'NONE',  ( 0.0000000000000000000, 0.0000000000000000000, 1.000000000000000000 ) ) ;
#237 = FACE_OUTER_BOUND ( 'NONE', #297, .T. ) ;
#238 = CARTESIAN_POINT ( 'NONE',  ( 8.678594253305624695E-17, 0.0000000000000000000, 0.7086609999999999854 ) ) ;
#239 = LENGTH_MEASURE_WITH_UNIT ( LENGTH_MEASURE( 0.02539999999999999897 ), #265 );
#240 = DIRECTION ( 'NONE',  ( 0.0000000000000000000, 0.0000000000000000000, -1.000000000000000000 ) ) ;
#241 = VECTOR ( 'NONE', #121, 39.37007874015748143 ) ;
#242 = SHAPE_DEFINITION_REPRESENTATION ( #153, #222 ) ;
#243 = CARTESIAN_POINT ( 'NONE',  ( -0.05899594499999999409, 0.0000000000000000000, 1.444983904138465938E-17 ) ) ;
#244 = ORIENTED_EDGE ( 'NONE', *, *, #293, .T. ) ;
#245 = APPLICATION_CONTEXT ( 'automotive_design' ) ;
#246 = ORIENTED_EDGE ( 'NONE', *, *, #220, .F. ) ;
#247 = PRODUCT_DEFINITION_CONTEXT ( 'detailed design', #245, 'design' ) ;
#248 = CARTESIAN_POINT ( 'NONE',  ( 0.0000000000000000000, 0.0000000000000000000, 2.244094000000000033 ) ) ;
#249 = ORIENTED_EDGE ( 'NONE', *, *, #195, .T. ) ;
#250 = CIRCLE ( 'NONE', #225, 0.1181100000000000066 ) ;
#251 = VERTEX_POINT ( 'NONE', #146 ) ;
#252 = VECTOR ( 'NONE', #233, 39.37007874015748143 ) ;
#253 = LINE ( 'NONE', #95, #150 ) ;
#254 = ORIENTED_EDGE ( 'NONE', *, *, #280, .F. ) ;
#255 = DIRECTION ( 'NONE',  ( -1.224646799147353207E-16, -0.0000000000000000000, -1.000000000000000000 ) ) ;
#256 = DIRECTION ( 'NONE',  ( 1.224646799147353207E-16, 0.0000000000000000000, 1.000000000000000000 ) ) ;
#257 = CARTESIAN_POINT ( 'NONE',  ( 8.847974565113090185E-34, 0.0000000000000000000, 7.224919520692329689E-18 ) ) ;
#258 = EDGE_CURVE ( 'NONE', #39, #109, #286, .T. ) ;
#259 =( GEOMETRIC_REPRESENTATION_CONTEXT ( 3 ) GLOBAL_UNCERTAINTY_ASSIGNED_CONTEXT ( ( #183 ) ) GLOBAL_UNIT_ASSIGNED_CONTEXT ( ( #124, #42, #98 ) ) REPRESENTATION_CONTEXT ( 'NONE', 'WORKASPACE' ) );
#260 = FACE_OUTER_BOUND ( 'NONE', #138, .T. ) ;
#261 = EDGE_CURVE ( 'NONE', #200, #156, #171, .T. ) ;
#262 = SURFACE_SIDE_STYLE ('',( #215 ) ) ;
#263 = DIRECTION ( 'NONE',  ( -1.000000000000000000, 0.0000000000000000000, 1.224646799147353454E-16 ) ) ;
#264 = AXIS2_PLACEMENT_3D ( 'NONE', #27, #204, #30 ) ;
#265 =( LENGTH_UNIT ( ) NAMED_UNIT ( * ) SI_UNIT ( $, .METRE. ) );
#266 = DIRECTION ( 'NONE',  ( 1.000000000000000000, 0.0000000000000000000, 0.0000000000000000000 ) ) ;
#267 =( LENGTH_UNIT ( ) NAMED_UNIT ( * ) SI_UNIT ( $, .METRE. ) );
#268 = AXIS2_PLACEMENT_3D ( 'NONE', #189, #68, #76 ) ;
#269 = EDGE_CURVE ( 'NONE', #224, #114, #79, .T. ) ;
#270 = ORIENTED_EDGE ( 'NONE', *, *, #199, .T. ) ;
#271 = ORIENTED_EDGE ( 'NONE', *, *, #26, .T. ) ;
#272 = FACE_OUTER_BOUND ( 'NONE', #54, .T. ) ;
#273 = VECTOR ( 'NONE', #48, 39.37007874015747433 ) ;
#274 = FACE_OUTER_BOUND ( 'NONE', #177, .T. ) ;
#275 = FACE_OUTER_BOUND ( 'NONE', #136, .T. ) ;
#276 = CYLINDRICAL_SURFACE ( 'NONE', #72, 0.05899594500000000796 ) ;
#277 = ORIENTED_EDGE ( 'NONE', *, *, #7, .F. ) ;
#278 = AXIS2_PLACEMENT_3D ( 'NONE', #187, #50, #263 ) ;
#279 = FILL_AREA_STYLE ('',( #49 ) ) ;
#280 = EDGE_CURVE ( 'NONE', #109, #197, #130, .T. ) ;
#281 = DIRECTION ( 'NONE',  ( 1.000000000000000000, 0.0000000000000000000, 0.0000000000000000000 ) ) ;
#282 = DIRECTION ( 'NONE',  ( -1.000000000000000000, 0.0000000000000000000, 0.0000000000000000000 ) ) ;
#283 = CARTESIAN_POINT ( 'NONE',  ( 0.0000000000000000000, 0.0000000000000000000, 0.0000000000000000000 ) ) ;
#284 =( NAMED_UNIT ( * ) PLANE_ANGLE_UNIT ( ) SI_UNIT ( $, .RADIAN. ) );
#285 = ADVANCED_FACE ( 'NONE', ( #287 ), #289, .T. ) ;
#286 = CIRCLE ( 'NONE', #145, 0.1181100000000000066 ) ;
#287 = FACE_OUTER_BOUND ( 'NONE', #15, .T. ) ;
#288 =( NAMED_UNIT ( * ) PLANE_ANGLE_UNIT ( ) SI_UNIT ( $, .RADIAN. ) );
#289 = CONICAL_SURFACE ( 'NONE', #185, 0.05899594500000000796, 0.1745329251994338915 ) ;
#290 = EDGE_LOOP ( 'NONE', ( #270, #112, #57, #254 ) ) ;
#291 = CARTESIAN_POINT ( 'NONE',  ( -0.1031100000000002570, 0.0000000000000000000, 2.244094000000000033 ) ) ;
#292 = ORIENTED_EDGE ( 'NONE', *, *, #55, .T. ) ;
#293 = EDGE_CURVE ( 'NONE', #251, #200, #52, .T. ) ;
#294 = DIRECTION ( 'NONE',  ( 0.0000000000000000000, 0.0000000000000000000, -1.000000000000000000 ) ) ;
#295 = AXIS2_PLACEMENT_3D ( 'NONE', #257, #115, #21 ) ;
#296 = ORIENTED_EDGE ( 'NONE', *, *, #280, .T. ) ;
#297 = EDGE_LOOP ( 'NONE', ( #151, #18 ) ) ;
#298 = DIRECTION ( 'NONE',  ( -1.000000000000000000, 0.0000000000000000000, 0.0000000000000000000 ) ) ;
#299 = AXIS2_PLACEMENT_3D ( 'NONE', #212, #256, #46 ) ;
ENDSEC;
END-ISO-10303-21;
