ISO-10303-21;
HEADER;
FILE_DESCRIPTION (( 'STEP AP214' ),
    '1' );
FILE_NAME ('83870.STEP',
    '2023-07-12T13:07:36',
    ( '' ),
    ( '' ),
    'SwSTEP 2.0',
    'SolidWorks 2023',
    '' );
FILE_SCHEMA (( 'AUTOMOTIVE_DESIGN' ));
ENDSEC;

DATA;
#1 = EDGE_CURVE ( 'NONE', #88, #256, #129, .T. ) ;
#2 = EDGE_LOOP ( 'NONE', ( #270, #41, #167, #276 ) ) ;
#3 = PRESENTATION_STYLE_ASSIGNMENT (( #217 ) ) ;
#4 = VECTOR ( 'NONE', #252, 39.37007874015748143 ) ;
#5 = FACE_OUTER_BOUND ( 'NONE', #253, .T. ) ;
#6 = STYLED_ITEM ( 'NONE', ( #3 ), #36 ) ;
#7 = COLOUR_RGB ( '',1.000000000000000000, 0.000000000000000000, 0.000000000000000000 ) ;
#8 = CARTESIAN_POINT ( 'NONE',  ( 1.449978133535231439E-18, 0.1190784930203599573, 0.000000000000000000 ) ) ;
#9 = ADVANCED_FACE ( 'NONE', ( #174 ), #265, .F. ) ;
#10 = UNCERTAINTY_MEASURE_WITH_UNIT (LENGTH_MEASURE( 1.000000000000000082E-05 ), #124, 'distance_accuracy_value', 'NONE');
#11 = ORIENTED_EDGE ( 'NONE', *, *, #250, .F. ) ;
#12 = CIRCLE ( 'NONE', #264, 0.09375000000000005551 ) ;
#13 = DIRECTION ( 'NONE',  ( -1.000000000000000000, -1.821231995776178930E-16, 0.000000000000000000 ) ) ;
#14 =( NAMED_UNIT ( * ) SI_UNIT ( $, .STERADIAN. ) SOLID_ANGLE_UNIT ( ) );
#15 = ORIENTED_EDGE ( 'NONE', *, *, #28, .F. ) ;
#16 = PRESENTATION_STYLE_ASSIGNMENT (( #230 ) ) ;
#17 = UNCERTAINTY_MEASURE_WITH_UNIT (LENGTH_MEASURE( 1.000000000000000082E-05 ), #243, 'distance_accuracy_value', 'NONE');
#18 = DIRECTION ( 'NONE',  ( -1.000000000000000000, 0.000000000000000000, 0.000000000000000000 ) ) ;
#19 = DIMENSIONAL_EXPONENTS ( 1.000000000000000000, 0.000000000000000000, 0.000000000000000000, 0.000000000000000000, 0.000000000000000000, 0.000000000000000000, 0.000000000000000000 ) ;
#20 = ORIENTED_EDGE ( 'NONE', *, *, #241, .F. ) ;
#21 = CLOSED_SHELL ( 'NONE', ( #92, #191, #150, #9 ) ) ;
#22 = STYLED_ITEM ( 'NONE', ( #228 ), #262 ) ;
#23 = CARTESIAN_POINT ( 'NONE',  ( -0.09375000000000001388, 2.000000000000000000, 0.000000000000000000 ) ) ;
#24 = LINE ( 'NONE', #112, #197 ) ;
#25 = ORIENTED_EDGE ( 'NONE', *, *, #63, .T. ) ;
#26 = APPLICATION_PROTOCOL_DEFINITION ( 'draft international standard', 'automotive_design', 1998, #240 ) ;
#27 = UNCERTAINTY_MEASURE_WITH_UNIT (LENGTH_MEASURE( 1.000000000000000082E-05 ), #223, 'distance_accuracy_value', 'NONE');
#28 = EDGE_CURVE ( 'NONE', #297, #121, #147, .T. ) ;
#29 = CLOSED_SHELL ( 'NONE', ( #262, #222, #274, #36 ) ) ;
#30 = PRESENTATION_LAYER_ASSIGNMENT (  '', '', ( #42 ) ) ;
#31 = CARTESIAN_POINT ( 'NONE',  ( -0.09375000000000012490, 2.000000000000000000, 0.000000000000000000 ) ) ;
#32 =( NAMED_UNIT ( * ) PLANE_ANGLE_UNIT ( ) SI_UNIT ( $, .RADIAN. ) );
#33 = DIRECTION ( 'NONE',  ( 1.217665841040930150E-17, 1.000000000000000000, 0.000000000000000000 ) ) ;
#34 =( GEOMETRIC_REPRESENTATION_CONTEXT ( 3 ) GLOBAL_UNCERTAINTY_ASSIGNED_CONTEXT ( ( #272 ) ) GLOBAL_UNIT_ASSIGNED_CONTEXT ( ( #39, #248, #106 ) ) REPRESENTATION_CONTEXT ( 'NONE', 'WORKASPACE' ) );
#35 = DIRECTION ( 'NONE',  ( -1.000000000000000000, -1.243246835274233013E-16, 0.000000000000000000 ) ) ;
#36 = ADVANCED_FACE ( 'NONE', ( #142 ), #128, .T. ) ;
#37 = DIRECTION ( 'NONE',  ( -1.243246835274233013E-16, 1.000000000000000000, 0.000000000000000000 ) ) ;
#38 = STYLED_ITEM ( 'NONE', ( #200 ), #222 ) ;
#39 =( CONVERSION_BASED_UNIT ( 'INCH', #138 ) LENGTH_UNIT ( ) NAMED_UNIT ( #113 ) );
#40 = DIRECTION ( 'NONE',  ( -1.243246835274233013E-16, 1.000000000000000000, -0.000000000000000000 ) ) ;
#41 = ORIENTED_EDGE ( 'NONE', *, *, #61, .F. ) ;
#42 = STYLED_ITEM ( 'NONE', ( #16 ), #274 ) ;
#43 = FACE_OUTER_BOUND ( 'NONE', #2, .T. ) ;
#44 =( CONVERSION_BASED_UNIT ( 'INCH', #254 ) LENGTH_UNIT ( ) NAMED_UNIT ( #210 ) );
#45 = FACE_OUTER_BOUND ( 'NONE', #227, .T. ) ;
#46 = EDGE_CURVE ( 'NONE', #236, #88, #282, .T. ) ;
#47 = ORIENTED_EDGE ( 'NONE', *, *, #63, .F. ) ;
#48 = SURFACE_STYLE_USAGE ( .BOTH. , #257 ) ;
#49 = FILL_AREA_STYLE ('',( #281 ) ) ;
#50 = DIRECTION ( 'NONE',  ( 1.000000000000000000, -1.217665841040929996E-17, 0.000000000000000000 ) ) ;
#51 = ORIENTED_EDGE ( 'NONE', *, *, #58, .T. ) ;
#52 = AXIS2_PLACEMENT_3D ( 'NONE', #71, #101, #306 ) ;
#53 = CARTESIAN_POINT ( 'NONE',  ( -6.123233995736772199E-17, 2.000000000000000000, 0.000000000000000000 ) ) ;
#54 =( NAMED_UNIT ( * ) PLANE_ANGLE_UNIT ( ) SI_UNIT ( $, .RADIAN. ) );
#55 = EDGE_CURVE ( 'NONE', #121, #297, #12, .T. ) ;
#56 = DIRECTION ( 'NONE',  ( -1.243246835274233013E-16, 1.000000000000000000, -0.000000000000000000 ) ) ;
#57 = CARTESIAN_POINT ( 'NONE',  ( 0.09374999999999998612, 2.000000000000000000, 0.000000000000000000 ) ) ;
#58 = EDGE_CURVE ( 'NONE', #139, #236, #70, .T. ) ;
#59 = UNCERTAINTY_MEASURE_WITH_UNIT (LENGTH_MEASURE( 1.000000000000000082E-05 ), #44, 'distance_accuracy_value', 'NONE');
#60 =( LENGTH_UNIT ( ) NAMED_UNIT ( * ) SI_UNIT ( $, .METRE. ) );
#61 = EDGE_CURVE ( 'NONE', #236, #139, #203, .T. ) ;
#62 = PRESENTATION_LAYER_ASSIGNMENT (  '', '', ( #38 ) ) ;
#63 = EDGE_CURVE ( 'NONE', #205, #121, #24, .T. ) ;
#64 = CYLINDRICAL_SURFACE ( 'NONE', #183, 0.09374999999999994449 ) ;
#65 = EDGE_LOOP ( 'NONE', ( #211, #25, #15, #20 ) ) ;
#66 = FILL_AREA_STYLE ('',( #280 ) ) ;
#67 = CARTESIAN_POINT ( 'NONE',  ( -0.02500000000000000139, 6.088329205204650364E-19, 0.000000000000000000 ) ) ;
#68 = ORIENTED_EDGE ( 'NONE', *, *, #291, .F. ) ;
#69 = DIRECTION ( 'NONE',  ( -1.243246835274233013E-16, 1.000000000000000000, -0.000000000000000000 ) ) ;
#70 = CIRCLE ( 'NONE', #285, 0.02500000000000000139 ) ;
#71 = CARTESIAN_POINT ( 'NONE',  ( 1.449978133535231439E-18, 0.1190784930203599573, 0.000000000000000000 ) ) ;
#72 = AXIS2_PLACEMENT_3D ( 'NONE', #57, #189, #284 ) ;
#73 = MECHANICAL_DESIGN_GEOMETRIC_PRESENTATION_REPRESENTATION (  '', ( #196 ), #108 ) ;
#74 = EDGE_CURVE ( 'NONE', #139, #256, #299, .T. ) ;
#75 = STYLED_ITEM ( 'NONE', ( #90 ), #283 ) ;
#76 =( NAMED_UNIT ( * ) SI_UNIT ( $, .STERADIAN. ) SOLID_ANGLE_UNIT ( ) );
#77 = PRODUCT ( '83870', '83870', '', ( #122 ) ) ;
#78 = DIRECTION ( 'NONE',  ( -1.000000000000000000, 0.000000000000000000, 0.000000000000000000 ) ) ;
#79 = MECHANICAL_DESIGN_GEOMETRIC_PRESENTATION_REPRESENTATION (  '', ( #75 ), #168 ) ;
#80 = CARTESIAN_POINT ( 'NONE',  ( 3.706775251094787808E-36, 3.044164602602325182E-19, 0.000000000000000000 ) ) ;
#81 = EDGE_LOOP ( 'NONE', ( #11, #247 ) ) ;
#82 = FILL_AREA_STYLE_COLOUR ( '', #289 ) ;
#83 = DIRECTION ( 'NONE',  ( 1.000000000000000000, -1.217665841040929996E-17, 0.000000000000000000 ) ) ;
#84 = ADVANCED_BREP_SHAPE_REPRESENTATION ( '83870', ( #286, #283, #198 ), #208 ) ;
#85 = ORIENTED_EDGE ( 'NONE', *, *, #74, .T. ) ;
#86 =( LENGTH_UNIT ( ) NAMED_UNIT ( * ) SI_UNIT ( $, .METRE. ) );
#87 = DIMENSIONAL_EXPONENTS ( 1.000000000000000000, 0.000000000000000000, 0.000000000000000000, 0.000000000000000000, 0.000000000000000000, 0.000000000000000000, 0.000000000000000000 ) ;
#88 = VERTEX_POINT ( 'NONE', #278 ) ;
#89 = PRESENTATION_LAYER_ASSIGNMENT (  '', '', ( #75 ) ) ;
#90 = PRESENTATION_STYLE_ASSIGNMENT (( #268 ) ) ;
#91 = DIRECTION ( 'NONE',  ( -1.243246835274233013E-16, 1.000000000000000000, -0.000000000000000000 ) ) ;
#92 = ADVANCED_FACE ( 'NONE', ( #95 ), #64, .T. ) ;
#93 = DIRECTION ( 'NONE',  ( 1.000000000000000000, 0.000000000000000000, 0.000000000000000000 ) ) ;
#94 = SURFACE_SIDE_STYLE ('',( #132 ) ) ;
#95 = FACE_OUTER_BOUND ( 'NONE', #65, .T. ) ;
#96 = ORIENTED_EDGE ( 'NONE', *, *, #1, .F. ) ;
#97 = COLOUR_RGB ( '',1.000000000000000000, 0.000000000000000000, 0.000000000000000000 ) ;
#98 = CIRCLE ( 'NONE', #107, 0.09374999999999981959 ) ;
#99 = ORIENTED_EDGE ( 'NONE', *, *, #58, .F. ) ;
#100 = APPLICATION_CONTEXT ( 'automotive_design' ) ;
#101 = DIRECTION ( 'NONE',  ( -1.217665841040929996E-17, -1.000000000000000000, -0.000000000000000000 ) ) ;
#102 = AXIS2_PLACEMENT_3D ( 'NONE', #288, #37, #35 ) ;
#103 = SURFACE_SIDE_STYLE ('',( #109 ) ) ;
#104 = SURFACE_STYLE_USAGE ( .BOTH. , #103 ) ;
#105 =( NAMED_UNIT ( * ) PLANE_ANGLE_UNIT ( ) SI_UNIT ( $, .RADIAN. ) );
#106 =( NAMED_UNIT ( * ) SI_UNIT ( $, .STERADIAN. ) SOLID_ANGLE_UNIT ( ) );
#107 = AXIS2_PLACEMENT_3D ( 'NONE', #120, #209, #13 ) ;
#108 =( GEOMETRIC_REPRESENTATION_CONTEXT ( 3 ) GLOBAL_UNCERTAINTY_ASSIGNED_CONTEXT ( ( #10 ) ) GLOBAL_UNIT_ASSIGNED_CONTEXT ( ( #124, #54, #215 ) ) REPRESENTATION_CONTEXT ( 'NONE', 'WORKASPACE' ) );
#109 = SURFACE_STYLE_FILL_AREA ( #202 ) ;
#110 = PRODUCT_RELATED_PRODUCT_CATEGORY ( 'part', '', ( #77 ) ) ;
#111 = AXIS2_PLACEMENT_3D ( 'NONE', #170, #56, #151 ) ;
#112 = CARTESIAN_POINT ( 'NONE',  ( 0.09374999999999987510, 2.000000000000000000, 1.148106374200642938E-17 ) ) ;
#113 = DIMENSIONAL_EXPONENTS ( 1.000000000000000000, 0.000000000000000000, 0.000000000000000000, 0.000000000000000000, 0.000000000000000000, 0.000000000000000000, 0.000000000000000000 ) ;
#114 = EDGE_LOOP ( 'NONE', ( #307, #184 ) ) ;
#115 = DIRECTION ( 'NONE',  ( 1.000000000000000000, -1.217665841040930150E-17, 0.000000000000000000 ) ) ;
#116 = ORIENTED_EDGE ( 'NONE', *, *, #55, .F. ) ;
#117 = AXIS2_PLACEMENT_3D ( 'NONE', #80, #271, #185 ) ;
#118 = SURFACE_SIDE_STYLE ('',( #176 ) ) ;
#119 = AXIS2_PLACEMENT_3D ( 'NONE', #8, #177, #193 ) ;
#120 = CARTESIAN_POINT ( 'NONE',  ( 1.726126311378001685E-16, 0.1190784930203599296, 0.000000000000000000 ) ) ;
#121 = VERTEX_POINT ( 'NONE', #163 ) ;
#122 = PRODUCT_CONTEXT ( 'NONE', #100, 'mechanical' ) ;
#123 =( NAMED_UNIT ( * ) SI_UNIT ( $, .STERADIAN. ) SOLID_ANGLE_UNIT ( ) );
#124 =( CONVERSION_BASED_UNIT ( 'INCH', #261 ) LENGTH_UNIT ( ) NAMED_UNIT ( #19 ) );
#125 = CONICAL_SURFACE ( 'NONE', #117, 0.02500000000000000139, 0.5235987755983000369 ) ;
#126 =( GEOMETRIC_REPRESENTATION_CONTEXT ( 3 ) GLOBAL_UNCERTAINTY_ASSIGNED_CONTEXT ( ( #27 ) ) GLOBAL_UNIT_ASSIGNED_CONTEXT ( ( #223, #105, #76 ) ) REPRESENTATION_CONTEXT ( 'NONE', 'WORKASPACE' ) );
#127 = PLANE ( 'NONE',  #102 ) ;
#128 = PLANE ( 'NONE',  #134 ) ;
#129 = CIRCLE ( 'NONE', #52, 0.09374999999999998612 ) ;
#130 = CARTESIAN_POINT ( 'NONE',  ( 3.706775251094787808E-36, 3.044164602602325182E-19, 0.000000000000000000 ) ) ;
#131 = UNCERTAINTY_MEASURE_WITH_UNIT (LENGTH_MEASURE( 1.000000000000000082E-05 ), #190, 'distance_accuracy_value', 'NONE');
#132 = SURFACE_STYLE_FILL_AREA ( #49 ) ;
#133 = DIRECTION ( 'NONE',  ( -1.217665841040929996E-17, -1.000000000000000000, -0.000000000000000000 ) ) ;
#134 = AXIS2_PLACEMENT_3D ( 'NONE', #249, #258, #115 ) ;
#135 = FILL_AREA_STYLE ('',( #82 ) ) ;
#136 =( NAMED_UNIT ( * ) PLANE_ANGLE_UNIT ( ) SI_UNIT ( $, .RADIAN. ) );
#137 = DIMENSIONAL_EXPONENTS ( 1.000000000000000000, 0.000000000000000000, 0.000000000000000000, 0.000000000000000000, 0.000000000000000000, 0.000000000000000000, 0.000000000000000000 ) ;
#138 = LENGTH_MEASURE_WITH_UNIT ( LENGTH_MEASURE( 0.02539999999999999897 ), #86 );
#139 = VERTEX_POINT ( 'NONE', #207 ) ;
#140 = PRESENTATION_STYLE_ASSIGNMENT (( #48 ) ) ;
#141 = CARTESIAN_POINT ( 'NONE',  ( 0.09374999999999998612, 0.1190784930203599573, 1.148106374200643401E-17 ) ) ;
#142 = FACE_OUTER_BOUND ( 'NONE', #279, .T. ) ;
#143 = CARTESIAN_POINT ( 'NONE',  ( -6.123233995736772199E-17, 2.000000000000000000, 0.000000000000000000 ) ) ;
#144 = DIRECTION ( 'NONE',  ( -1.243246835274233013E-16, 1.000000000000000000, -0.000000000000000000 ) ) ;
#145 = APPLICATION_PROTOCOL_DEFINITION ( 'draft international standard', 'automotive_design', 1998, #100 ) ;
#146 = EDGE_CURVE ( 'NONE', #205, #178, #266, .T. ) ;
#147 = CIRCLE ( 'NONE', #244, 0.09375000000000005551 ) ;
#148 = AXIS2_PLACEMENT_3D ( 'NONE', #130, #225, #242 ) ;
#149 = CARTESIAN_POINT ( 'NONE',  ( 0.000000000000000000, 0.000000000000000000, 0.000000000000000000 ) ) ;
#150 = ADVANCED_FACE ( 'NONE', ( #45 ), #302, .T. ) ;
#151 = DIRECTION ( 'NONE',  ( -1.000000000000000000, 0.000000000000000000, 0.000000000000000000 ) ) ;
#152 = AXIS2_PLACEMENT_3D ( 'NONE', #188, #69, #255 ) ;
#153 = LENGTH_MEASURE_WITH_UNIT ( LENGTH_MEASURE( 0.02539999999999999897 ), #60 );
#154 = PRODUCT_DEFINITION_SHAPE ( 'NONE', 'NONE',  #201 ) ;
#155 = PLANE ( 'NONE',  #239 ) ;
#156 =( NAMED_UNIT ( * ) SI_UNIT ( $, .STERADIAN. ) SOLID_ANGLE_UNIT ( ) );
#157 = COLOUR_RGB ( '',0.7921568627450980005, 0.8196078431372548767, 0.9333333333333333481 ) ;
#158 = CARTESIAN_POINT ( 'NONE',  ( 1.449978133535231054E-18, 0.1190784930203599573, 0.000000000000000000 ) ) ;
#159 = FILL_AREA_STYLE ('',( #269 ) ) ;
#160 = EDGE_LOOP ( 'NONE', ( #99, #85, #204, #300 ) ) ;
#161 = FACE_OUTER_BOUND ( 'NONE', #160, .T. ) ;
#162 = DIMENSIONAL_EXPONENTS ( 1.000000000000000000, 0.000000000000000000, 0.000000000000000000, 0.000000000000000000, 0.000000000000000000, 0.000000000000000000, 0.000000000000000000 ) ;
#163 = CARTESIAN_POINT ( 'NONE',  ( 0.09374999999999998612, 2.000000000000000000, 1.148106374200643555E-17 ) ) ;
#164 = ORIENTED_EDGE ( 'NONE', *, *, #146, .T. ) ;
#165 = SURFACE_STYLE_FILL_AREA ( #66 ) ;
#166 = CARTESIAN_POINT ( 'NONE',  ( 3.706775251094787808E-36, 3.044164602602325182E-19, 0.000000000000000000 ) ) ;
#167 = ORIENTED_EDGE ( 'NONE', *, *, #46, .T. ) ;
#168 =( GEOMETRIC_REPRESENTATION_CONTEXT ( 3 ) GLOBAL_UNCERTAINTY_ASSIGNED_CONTEXT ( ( #17 ) ) GLOBAL_UNIT_ASSIGNED_CONTEXT ( ( #243, #267, #156 ) ) REPRESENTATION_CONTEXT ( 'NONE', 'WORKASPACE' ) );
#169 =( LENGTH_UNIT ( ) NAMED_UNIT ( * ) SI_UNIT ( $, .METRE. ) );
#170 = CARTESIAN_POINT ( 'NONE',  ( -6.123233995736772199E-17, 2.000000000000000000, 0.000000000000000000 ) ) ;
#171 = FILL_AREA_STYLE ('',( #212 ) ) ;
#172 = COLOUR_RGB ( '',1.000000000000000000, 0.000000000000000000, 0.000000000000000000 ) ;
#173 = PRODUCT_DEFINITION_FORMATION_WITH_SPECIFIED_SOURCE ( 'ANY', '', #77, .NOT_KNOWN. ) ;
#174 = FACE_OUTER_BOUND ( 'NONE', #114, .T. ) ;
#175 =( GEOMETRIC_REPRESENTATION_CONTEXT ( 3 ) GLOBAL_UNCERTAINTY_ASSIGNED_CONTEXT ( ( #59 ) ) GLOBAL_UNIT_ASSIGNED_CONTEXT ( ( #44, #246, #226 ) ) REPRESENTATION_CONTEXT ( 'NONE', 'WORKASPACE' ) );
#176 = SURFACE_STYLE_FILL_AREA ( #159 ) ;
#177 = DIRECTION ( 'NONE',  ( -1.217665841040929996E-17, -1.000000000000000000, -0.000000000000000000 ) ) ;
#178 = VERTEX_POINT ( 'NONE', #309 ) ;
#179 = DIRECTION ( 'NONE',  ( -1.243246835274233013E-16, 1.000000000000000000, -0.000000000000000000 ) ) ;
#180 = ORIENTED_EDGE ( 'NONE', *, *, #61, .T. ) ;
#181 = MECHANICAL_DESIGN_GEOMETRIC_PRESENTATION_REPRESENTATION (  '', ( #6 ), #251 ) ;
#182 = CARTESIAN_POINT ( 'NONE',  ( 0.02500000000000000139, 0.000000000000000000, 3.061616997868383172E-18 ) ) ;
#183 = AXIS2_PLACEMENT_3D ( 'NONE', #143, #259, #233 ) ;
#184 = ORIENTED_EDGE ( 'NONE', *, *, #55, .T. ) ;
#185 = DIRECTION ( 'NONE',  ( -1.000000000000000000, 1.217665841040929996E-17, 0.000000000000000000 ) ) ;
#186 = DIMENSIONAL_EXPONENTS ( 1.000000000000000000, 0.000000000000000000, 0.000000000000000000, 0.000000000000000000, 0.000000000000000000, 0.000000000000000000, 0.000000000000000000 ) ;
#187 = SURFACE_STYLE_USAGE ( .BOTH. , #94 ) ;
#188 = CARTESIAN_POINT ( 'NONE',  ( 1.726126311378001685E-16, 0.1190784930203599296, 0.000000000000000000 ) ) ;
#189 = DIRECTION ( 'NONE',  ( 1.243246835274233013E-16, -1.000000000000000000, 0.000000000000000000 ) ) ;
#190 =( CONVERSION_BASED_UNIT ( 'INCH', #308 ) LENGTH_UNIT ( ) NAMED_UNIT ( #87 ) );
#191 = ADVANCED_FACE ( 'NONE', ( #263 ), #127, .F. ) ;
#192 = AXIS2_PLACEMENT_3D ( 'NONE', #234, #296, #83 ) ;
#193 = DIRECTION ( 'NONE',  ( 1.000000000000000000, 0.000000000000000000, 0.000000000000000000 ) ) ;
#194 =( CONVERSION_BASED_UNIT ( 'INCH', #216 ) LENGTH_UNIT ( ) NAMED_UNIT ( #162 ) );
#195 =( LENGTH_UNIT ( ) NAMED_UNIT ( * ) SI_UNIT ( $, .METRE. ) );
#196 = STYLED_ITEM ( 'NONE', ( #140 ), #286 ) ;
#197 = VECTOR ( 'NONE', #179, 39.37007874015748143 ) ;
#198 = AXIS2_PLACEMENT_3D ( 'NONE', #149, #237, #93 ) ;
#199 = FILL_AREA_STYLE_COLOUR ( '', #172 ) ;
#200 = PRESENTATION_STYLE_ASSIGNMENT (( #104 ) ) ;
#201 = PRODUCT_DEFINITION ( 'UNKNOWN', '', #173, #293 ) ;
#202 = FILL_AREA_STYLE ('',( #199 ) ) ;
#203 = CIRCLE ( 'NONE', #192, 0.02500000000000000139 ) ;
#204 = ORIENTED_EDGE ( 'NONE', *, *, #291, .T. ) ;
#205 = VERTEX_POINT ( 'NONE', #221 ) ;
#206 = CARTESIAN_POINT ( 'NONE',  ( -0.02500000000000000139, 6.088329205204650364E-19, 0.000000000000000000 ) ) ;
#207 = CARTESIAN_POINT ( 'NONE',  ( 0.02500000000000000139, 0.000000000000000000, 7.271340369937407434E-18 ) ) ;
#208 =( GEOMETRIC_REPRESENTATION_CONTEXT ( 3 ) GLOBAL_UNCERTAINTY_ASSIGNED_CONTEXT ( ( #213 ) ) GLOBAL_UNIT_ASSIGNED_CONTEXT ( ( #194, #32, #123 ) ) REPRESENTATION_CONTEXT ( 'NONE', 'WORKASPACE' ) );
#209 = DIRECTION ( 'NONE',  ( -1.243246835274233013E-16, 1.000000000000000000, -0.000000000000000000 ) ) ;
#210 = DIMENSIONAL_EXPONENTS ( 1.000000000000000000, 0.000000000000000000, 0.000000000000000000, 0.000000000000000000, 0.000000000000000000, 0.000000000000000000, 0.000000000000000000 ) ;
#211 = ORIENTED_EDGE ( 'NONE', *, *, #250, .T. ) ;
#212 = FILL_AREA_STYLE_COLOUR ( '', #97 ) ;
#213 = UNCERTAINTY_MEASURE_WITH_UNIT (LENGTH_MEASURE( 1.000000000000000082E-05 ), #194, 'distance_accuracy_value', 'NONE');
#214 = SURFACE_SIDE_STYLE ('',( #238 ) ) ;
#215 =( NAMED_UNIT ( * ) SI_UNIT ( $, .STERADIAN. ) SOLID_ANGLE_UNIT ( ) );
#216 = LENGTH_MEASURE_WITH_UNIT ( LENGTH_MEASURE( 0.02539999999999999897 ), #169 );
#217 = SURFACE_STYLE_USAGE ( .BOTH. , #214 ) ;
#218 = PRESENTATION_LAYER_ASSIGNMENT (  '', '', ( #6 ) ) ;
#219 = MECHANICAL_DESIGN_GEOMETRIC_PRESENTATION_REPRESENTATION (  '', ( #38 ), #126 ) ;
#220 = DIRECTION ( 'NONE',  ( -1.000000000000000000, 1.217665841040930150E-17, 0.000000000000000000 ) ) ;
#221 = CARTESIAN_POINT ( 'NONE',  ( 0.09374999999999998612, 0.1190784930203599434, 1.148106374200643555E-17 ) ) ;
#222 = ADVANCED_FACE ( 'NONE', ( #5 ), #155, .T. ) ;
#223 =( CONVERSION_BASED_UNIT ( 'INCH', #153 ) LENGTH_UNIT ( ) NAMED_UNIT ( #186 ) );
#224 = COLOUR_RGB ( '',0.7921568627450980005, 0.8196078431372548767, 0.9333333333333333481 ) ;
#225 = DIRECTION ( 'NONE',  ( 1.217665841040929996E-17, 1.000000000000000000, 0.000000000000000000 ) ) ;
#226 =( NAMED_UNIT ( * ) SI_UNIT ( $, .STERADIAN. ) SOLID_ANGLE_UNIT ( ) );
#227 = EDGE_LOOP ( 'NONE', ( #47, #164, #273, #116 ) ) ;
#228 = PRESENTATION_STYLE_ASSIGNMENT (( #187 ) ) ;
#229 = VECTOR ( 'NONE', #91, 39.37007874015748143 ) ;
#230 = SURFACE_STYLE_USAGE ( .BOTH. , #298 ) ;
#231 = DIRECTION ( 'NONE',  ( -0.5000000000000009992, 0.8660254037844380415, 0.000000000000000000 ) ) ;
#232 =( LENGTH_UNIT ( ) NAMED_UNIT ( * ) SI_UNIT ( $, .METRE. ) );
#233 = DIRECTION ( 'NONE',  ( -1.000000000000000000, 0.000000000000000000, 0.000000000000000000 ) ) ;
#234 = CARTESIAN_POINT ( 'NONE',  ( 3.706775251094787808E-36, 3.044164602602325182E-19, 0.000000000000000000 ) ) ;
#235 = PRESENTATION_LAYER_ASSIGNMENT (  '', '', ( #196 ) ) ;
#236 = VERTEX_POINT ( 'NONE', #206 ) ;
#237 = DIRECTION ( 'NONE',  ( 0.000000000000000000, 0.000000000000000000, 1.000000000000000000 ) ) ;
#238 = SURFACE_STYLE_FILL_AREA ( #171 ) ;
#239 = AXIS2_PLACEMENT_3D ( 'NONE', #158, #33, #220 ) ;
#240 = APPLICATION_CONTEXT ( 'automotive_design' ) ;
#241 = EDGE_CURVE ( 'NONE', #178, #297, #275, .T. ) ;
#242 = DIRECTION ( 'NONE',  ( -1.000000000000000000, 1.217665841040929996E-17, 0.000000000000000000 ) ) ;
#243 =( CONVERSION_BASED_UNIT ( 'INCH', #292 ) LENGTH_UNIT ( ) NAMED_UNIT ( #137 ) );
#244 = AXIS2_PLACEMENT_3D ( 'NONE', #53, #144, #78 ) ;
#245 = PRESENTATION_LAYER_ASSIGNMENT (  '', '', ( #22 ) ) ;
#246 =( NAMED_UNIT ( * ) PLANE_ANGLE_UNIT ( ) SI_UNIT ( $, .RADIAN. ) );
#247 = ORIENTED_EDGE ( 'NONE', *, *, #146, .F. ) ;
#248 =( NAMED_UNIT ( * ) PLANE_ANGLE_UNIT ( ) SI_UNIT ( $, .RADIAN. ) );
#249 = CARTESIAN_POINT ( 'NONE',  ( 1.853387625547393904E-36, 1.522082301301162591E-19, 0.000000000000000000 ) ) ;
#250 = EDGE_CURVE ( 'NONE', #178, #205, #98, .T. ) ;
#251 =( GEOMETRIC_REPRESENTATION_CONTEXT ( 3 ) GLOBAL_UNCERTAINTY_ASSIGNED_CONTEXT ( ( #131 ) ) GLOBAL_UNIT_ASSIGNED_CONTEXT ( ( #190, #136, #14 ) ) REPRESENTATION_CONTEXT ( 'NONE', 'WORKASPACE' ) );
#252 = DIRECTION ( 'NONE',  ( 0.5000000000000009992, 0.8660254037844380415, 6.123233995736778362E-17 ) ) ;
#253 = EDGE_LOOP ( 'NONE', ( #96, #68 ) ) ;
#254 = LENGTH_MEASURE_WITH_UNIT ( LENGTH_MEASURE( 0.02539999999999999897 ), #295 );
#255 = DIRECTION ( 'NONE',  ( -1.000000000000000000, -1.821231995776178930E-16, 0.000000000000000000 ) ) ;
#256 = VERTEX_POINT ( 'NONE', #141 ) ;
#257 = SURFACE_SIDE_STYLE ('',( #165 ) ) ;
#258 = DIRECTION ( 'NONE',  ( -1.217665841040930150E-17, -1.000000000000000000, 0.000000000000000000 ) ) ;
#259 = DIRECTION ( 'NONE',  ( -1.243246835274233013E-16, 1.000000000000000000, -0.000000000000000000 ) ) ;
#260 = MECHANICAL_DESIGN_GEOMETRIC_PRESENTATION_REPRESENTATION (  '', ( #42 ), #34 ) ;
#261 = LENGTH_MEASURE_WITH_UNIT ( LENGTH_MEASURE( 0.02539999999999999897 ), #303 );
#262 = ADVANCED_FACE ( 'NONE', ( #161 ), #125, .T. ) ;
#263 = FACE_OUTER_BOUND ( 'NONE', #81, .T. ) ;
#264 = AXIS2_PLACEMENT_3D ( 'NONE', #305, #40, #18 ) ;
#265 = PLANE ( 'NONE',  #72 ) ;
#266 = CIRCLE ( 'NONE', #152, 0.09374999999999981959 ) ;
#267 =( NAMED_UNIT ( * ) PLANE_ANGLE_UNIT ( ) SI_UNIT ( $, .RADIAN. ) );
#268 = SURFACE_STYLE_USAGE ( .BOTH. , #118 ) ;
#269 = FILL_AREA_STYLE_COLOUR ( '', #224 ) ;
#270 = ORIENTED_EDGE ( 'NONE', *, *, #74, .F. ) ;
#271 = DIRECTION ( 'NONE',  ( 1.217665841040929996E-17, 1.000000000000000000, 0.000000000000000000 ) ) ;
#272 = UNCERTAINTY_MEASURE_WITH_UNIT (LENGTH_MEASURE( 1.000000000000000082E-05 ), #39, 'distance_accuracy_value', 'NONE');
#273 = ORIENTED_EDGE ( 'NONE', *, *, #241, .T. ) ;
#274 = ADVANCED_FACE ( 'NONE', ( #43 ), #277, .T. ) ;
#275 = LINE ( 'NONE', #23, #229 ) ;
#276 = ORIENTED_EDGE ( 'NONE', *, *, #1, .T. ) ;
#277 = CONICAL_SURFACE ( 'NONE', #148, 0.02500000000000000139, 0.5235987755983000369 ) ;
#278 = CARTESIAN_POINT ( 'NONE',  ( -0.09374999999999998612, 0.1190784930203599573, 0.000000000000000000 ) ) ;
#279 = EDGE_LOOP ( 'NONE', ( #180, #51 ) ) ;
#280 = FILL_AREA_STYLE_COLOUR ( '', #157 ) ;
#281 = FILL_AREA_STYLE_COLOUR ( '', #7 ) ;
#282 = LINE ( 'NONE', #67, #294 ) ;
#283 = MANIFOLD_SOLID_BREP ( 'Revolve - Tool Body (Tipped Off)', #21 ) ;
#284 = DIRECTION ( 'NONE',  ( 1.000000000000000000, 1.243246835274233013E-16, 0.000000000000000000 ) ) ;
#285 = AXIS2_PLACEMENT_3D ( 'NONE', #166, #133, #50 ) ;
#286 = MANIFOLD_SOLID_BREP ( 'Revolve - Cutting Edge', #29 ) ;
#287 = SHAPE_DEFINITION_REPRESENTATION ( #154, #84 ) ;
#288 = CARTESIAN_POINT ( 'NONE',  ( 1.726126311378001192E-16, 0.1190784930203599573, 0.000000000000000000 ) ) ;
#289 = COLOUR_RGB ( '',1.000000000000000000, 0.000000000000000000, 0.000000000000000000 ) ;
#290 = MECHANICAL_DESIGN_GEOMETRIC_PRESENTATION_REPRESENTATION (  '', ( #22 ), #175 ) ;
#291 = EDGE_CURVE ( 'NONE', #256, #88, #301, .T. ) ;
#292 = LENGTH_MEASURE_WITH_UNIT ( LENGTH_MEASURE( 0.02539999999999999897 ), #232 );
#293 = PRODUCT_DEFINITION_CONTEXT ( 'detailed design', #240, 'design' ) ;
#294 = VECTOR ( 'NONE', #231, 39.37007874015748143 ) ;
#295 =( LENGTH_UNIT ( ) NAMED_UNIT ( * ) SI_UNIT ( $, .METRE. ) );
#296 = DIRECTION ( 'NONE',  ( -1.217665841040929996E-17, -1.000000000000000000, -0.000000000000000000 ) ) ;
#297 = VERTEX_POINT ( 'NONE', #31 ) ;
#298 = SURFACE_SIDE_STYLE ('',( #304 ) ) ;
#299 = LINE ( 'NONE', #182, #4 ) ;
#300 = ORIENTED_EDGE ( 'NONE', *, *, #46, .F. ) ;
#301 = CIRCLE ( 'NONE', #119, 0.09374999999999998612 ) ;
#302 = CYLINDRICAL_SURFACE ( 'NONE', #111, 0.09374999999999994449 ) ;
#303 =( LENGTH_UNIT ( ) NAMED_UNIT ( * ) SI_UNIT ( $, .METRE. ) );
#304 = SURFACE_STYLE_FILL_AREA ( #135 ) ;
#305 = CARTESIAN_POINT ( 'NONE',  ( -6.123233995736772199E-17, 2.000000000000000000, 0.000000000000000000 ) ) ;
#306 = DIRECTION ( 'NONE',  ( 1.000000000000000000, 0.000000000000000000, 0.000000000000000000 ) ) ;
#307 = ORIENTED_EDGE ( 'NONE', *, *, #28, .T. ) ;
#308 = LENGTH_MEASURE_WITH_UNIT ( LENGTH_MEASURE( 0.02539999999999999897 ), #195 );
#309 = CARTESIAN_POINT ( 'NONE',  ( -0.09374999999999965306, 0.1190784930203599157, 0.000000000000000000 ) ) ;
ENDSEC;
END-ISO-10303-21;
