ISO-10303-21;
HEADER;
FILE_DESCRIPTION (( 'STEP AP214' ),
    '1' );
FILE_NAME ('Micro_BMS-010-2.STEP',
    '2021-09-03T14:41:53',
    ( '' ),
    ( '' ),
    'SwSTEP 2.0',
    'SolidWorks 2020',
    '' );
FILE_SCHEMA (( 'AUTOMOTIVE_DESIGN' ));
ENDSEC;

DATA;
#1 = DIRECTION ( 'NONE',  ( 1.000000000000000000, 0.0000000000000000000, 0.0000000000000000000 ) ) ;
#2 = CIRCLE ( 'NONE', #303, 0.06250000000000000000 ) ;
#3 = CIRCLE ( 'NONE', #322, 0.004995000000000000308 ) ;
#4 = DIRECTION ( 'NONE',  ( 1.000000000000000000, 0.0000000000000000000, 0.0000000000000000000 ) ) ;
#5 = ADVANCED_FACE ( 'NONE', ( #250 ), #163, .T. ) ;
#6 = DIRECTION ( 'NONE',  ( -1.000000000000000000, 0.0000000000000000000, 1.224646799147353454E-16 ) ) ;
#7 = ORIENTED_EDGE ( 'NONE', *, *, #118, .T. ) ;
#8 = ORIENTED_EDGE ( 'NONE', *, *, #306, .T. ) ;
#9 = ORIENTED_EDGE ( 'NONE', *, *, #97, .T. ) ;
#10 = ADVANCED_FACE ( 'NONE', ( #236 ), #246, .T. ) ;
#11 = CARTESIAN_POINT ( 'NONE',  ( 0.0000000000000000000, 0.0000000000000000000, 1.500000000000000222 ) ) ;
#12 = ORIENTED_EDGE ( 'NONE', *, *, #41, .F. ) ;
#13 = VECTOR ( 'NONE', #287, 39.37007874015748143 ) ;
#14 = DIMENSIONAL_EXPONENTS ( 1.000000000000000000, 0.0000000000000000000, 0.0000000000000000000, 0.0000000000000000000, 0.0000000000000000000, 0.0000000000000000000, 0.0000000000000000000 ) ;
#15 = VERTEX_POINT ( 'NONE', #325 ) ;
#16 = ADVANCED_FACE ( 'NONE', ( #302 ), #177, .T. ) ;
#17 =( LENGTH_UNIT ( ) NAMED_UNIT ( * ) SI_UNIT ( $, .METRE. ) );
#18 = DIRECTION ( 'NONE',  ( -1.224646799147353454E-16, -0.0000000000000000000, -1.000000000000000000 ) ) ;
#19 = DIRECTION ( 'NONE',  ( -1.224646799147353454E-16, -0.0000000000000000000, -1.000000000000000000 ) ) ;
#20 = DIRECTION ( 'NONE',  ( 0.0000000000000000000, 0.0000000000000000000, 1.000000000000000000 ) ) ;
#21 = CIRCLE ( 'NONE', #210, 0.004995000000000000308 ) ;
#22 = LENGTH_MEASURE_WITH_UNIT ( LENGTH_MEASURE( 0.02539999999999999897 ), #94 );
#23 = APPLICATION_CONTEXT ( 'automotive_design' ) ;
#24 = CARTESIAN_POINT ( 'NONE',  ( 0.06250000000000000000, 7.654042494670956004E-18, 1.485000000000000764 ) ) ;
#25 = UNCERTAINTY_MEASURE_WITH_UNIT (LENGTH_MEASURE( 1.000000000000000082E-05 ), #227, 'distance_accuracy_value', 'NONE');
#26 = PRODUCT_CONTEXT ( 'NONE', #318, 'mechanical' ) ;
#27 = CIRCLE ( 'NONE', #215, 0.06250000000000000000 ) ;
#28 = AXIS2_PLACEMENT_3D ( 'NONE', #160, #125, #4 ) ;
#29 = EDGE_CURVE ( 'NONE', #15, #64, #101, .T. ) ;
#30 = CARTESIAN_POINT ( 'NONE',  ( 6.117110761741030670E-19, 0.0000000000000000000, 0.004995000000000000308 ) ) ;
#31 = DIRECTION ( 'NONE',  ( -1.000000000000000000, 0.0000000000000000000, 2.136392637687893759E-16 ) ) ;
#32 = ORIENTED_EDGE ( 'NONE', *, *, #91, .T. ) ;
#33 = CARTESIAN_POINT ( 'NONE',  ( 0.0000000000000000000, 0.0000000000000000000, 1.500000000000000222 ) ) ;
#34 = ORIENTED_EDGE ( 'NONE', *, *, #41, .T. ) ;
#35 = DIRECTION ( 'NONE',  ( 0.0000000000000000000, 0.0000000000000000000, -1.000000000000000000 ) ) ;
#36 = EDGE_CURVE ( 'NONE', #92, #64, #46, .T. ) ;
#37 = ORIENTED_EDGE ( 'NONE', *, *, #200, .F. ) ;
#38 = ORIENTED_EDGE ( 'NONE', *, *, #36, .T. ) ;
#39 = PRODUCT ( 'Micro_BMS-010-2', 'Micro_BMS-010-2', '', ( #26 ) ) ;
#40 = ORIENTED_EDGE ( 'NONE', *, *, #225, .F. ) ;
#41 = EDGE_CURVE ( 'NONE', #61, #59, #121, .T. ) ;
#42 = CARTESIAN_POINT ( 'NONE',  ( 1.836970198721027284E-18, 0.0000000000000000000, 0.01499999999999997689 ) ) ;
#43 = PRODUCT_DEFINITION ( 'UNKNOWN', '', #260, #153 ) ;
#44 = SURFACE_STYLE_FILL_AREA ( #300 ) ;
#45 = CARTESIAN_POINT ( 'NONE',  ( 0.0000000000000000000, 0.0000000000000000000, 1.500000000000000222 ) ) ;
#46 = LINE ( 'NONE', #152, #134 ) ;
#47 = CARTESIAN_POINT ( 'NONE',  ( 0.004995000000000000308, 0.0000000000000000000, 0.01499999999999997689 ) ) ;
#48 = CARTESIAN_POINT ( 'NONE',  ( 6.117110761741030670E-19, 0.0000000000000000000, 0.004995000000000000308 ) ) ;
#49 = SURFACE_STYLE_USAGE ( .BOTH. , #285 ) ;
#50 = EDGE_CURVE ( 'NONE', #274, #64, #319, .T. ) ;
#51 = CARTESIAN_POINT ( 'NONE',  ( 0.0000000000000000000, 0.0000000000000000000, 1.500000000000000222 ) ) ;
#52 =( NAMED_UNIT ( * ) SI_UNIT ( $, .STERADIAN. ) SOLID_ANGLE_UNIT ( ) );
#53 = DIRECTION ( 'NONE',  ( 1.000000000000000000, 0.0000000000000000000, 0.0000000000000000000 ) ) ;
#54 = CIRCLE ( 'NONE', #162, 0.06250000000000000000 ) ;
#55 = ORIENTED_EDGE ( 'NONE', *, *, #273, .F. ) ;
#56 = DIRECTION ( 'NONE',  ( 1.000000000000000000, 0.0000000000000000000, 0.0000000000000000000 ) ) ;
#57 = EDGE_LOOP ( 'NONE', ( #275, #224, #194, #219 ) ) ;
#58 = FACE_OUTER_BOUND ( 'NONE', #164, .T. ) ;
#59 = VERTEX_POINT ( 'NONE', #24 ) ;
#60 = AXIS2_PLACEMENT_3D ( 'NONE', #237, #230, #1 ) ;
#61 = VERTEX_POINT ( 'NONE', #104 ) ;
#62 = PRODUCT_DEFINITION_SHAPE ( 'NONE', 'NONE',  #43 ) ;
#63 = ADVANCED_FACE ( 'NONE', ( #261 ), #281, .T. ) ;
#64 = VERTEX_POINT ( 'NONE', #68 ) ;
#65 =( CONVERSION_BASED_UNIT ( 'INCH', #141 ) LENGTH_UNIT ( ) NAMED_UNIT ( #231 ) );
#66 =( LENGTH_UNIT ( ) NAMED_UNIT ( * ) SI_UNIT ( $, .METRE. ) );
#67 = DIRECTION ( 'NONE',  ( 1.224646799147353454E-16, 0.0000000000000000000, 1.000000000000000000 ) ) ;
#68 = CARTESIAN_POINT ( 'NONE',  ( -0.06249999999999995837, 0.0000000000000000000, 0.3411270610371145429 ) ) ;
#69 = LINE ( 'NONE', #320, #71 ) ;
#70 = CARTESIAN_POINT ( 'NONE',  ( 0.0000000000000000000, 0.0000000000000000000, 0.0000000000000000000 ) ) ;
#71 = VECTOR ( 'NONE', #257, 39.37007874015748143 ) ;
#72 = CARTESIAN_POINT ( 'NONE',  ( 6.117110761741030670E-19, 0.0000000000000000000, 0.004995000000000000308 ) ) ;
#73 = CARTESIAN_POINT ( 'NONE',  ( 0.06250000000000004163, 7.654042494670960626E-18, 0.3411270610371145429 ) ) ;
#74 = CIRCLE ( 'NONE', #157, 0.004994999999999999440 ) ;
#75 = DIRECTION ( 'NONE',  ( -1.000000000000000000, 0.0000000000000000000, 0.0000000000000000000 ) ) ;
#76 = CARTESIAN_POINT ( 'NONE',  ( 0.004995000000000000308, 0.0000000000000000000, 0.01499999999999997689 ) ) ;
#77 = LINE ( 'NONE', #187, #241 ) ;
#78 = CARTESIAN_POINT ( 'NONE',  ( 1.836970198721027284E-18, 0.0000000000000000000, 0.01499999999999997689 ) ) ;
#79 = CARTESIAN_POINT ( 'NONE',  ( 6.117110761741030670E-19, 0.0000000000000000000, 0.004995000000000000308 ) ) ;
#80 = CIRCLE ( 'NONE', #119, 0.04750000000000064587 ) ;
#81 = MECHANICAL_DESIGN_GEOMETRIC_PRESENTATION_REPRESENTATION (  '', ( #95 ), #216 ) ;
#82 = DIRECTION ( 'NONE',  ( 1.000000000000000000, 0.0000000000000000000, 0.0000000000000000000 ) ) ;
#83 = DIRECTION ( 'NONE',  ( 0.0000000000000000000, 0.0000000000000000000, -1.000000000000000000 ) ) ;
#84 = ORIENTED_EDGE ( 'NONE', *, *, #305, .F. ) ;
#85 = EDGE_CURVE ( 'NONE', #244, #92, #289, .T. ) ;
#86 = EDGE_LOOP ( 'NONE', ( #110, #137, #37, #135 ) ) ;
#87 = DIRECTION ( 'NONE',  ( 0.0000000000000000000, 0.0000000000000000000, 1.000000000000000000 ) ) ;
#88 = DIRECTION ( 'NONE',  ( 0.0000000000000000000, 0.0000000000000000000, -1.000000000000000000 ) ) ;
#89 = ORIENTED_EDGE ( 'NONE', *, *, #118, .F. ) ;
#90 = AXIS2_PLACEMENT_3D ( 'NONE', #186, #126, #242 ) ;
#91 = EDGE_CURVE ( 'NONE', #92, #244, #167, .T. ) ;
#92 = VERTEX_POINT ( 'NONE', #211 ) ;
#93 = EDGE_LOOP ( 'NONE', ( #9, #161 ) ) ;
#94 =( LENGTH_UNIT ( ) NAMED_UNIT ( * ) SI_UNIT ( $, .METRE. ) );
#95 = STYLED_ITEM ( 'NONE', ( #100 ), #151 ) ;
#96 = CYLINDRICAL_SURFACE ( 'NONE', #263, 0.004994999999999999440 ) ;
#97 = EDGE_CURVE ( 'NONE', #132, #61, #80, .T. ) ;
#98 = CARTESIAN_POINT ( 'NONE',  ( 4.177601634016462012E-17, 0.0000000000000000000, 0.3411270610371145429 ) ) ;
#99 = DIRECTION ( 'NONE',  ( -1.000000000000000000, 0.0000000000000000000, 0.0000000000000000000 ) ) ;
#100 = PRESENTATION_STYLE_ASSIGNMENT (( #276 ) ) ;
#101 = LINE ( 'NONE', #173, #102 ) ;
#102 = VECTOR ( 'NONE', #181, 39.37007874015748143 ) ;
#103 = PRESENTATION_LAYER_ASSIGNMENT (  '', '', ( #270 ) ) ;
#104 = CARTESIAN_POINT ( 'NONE',  ( 0.04750000000000064587, 6.735557395310482421E-18, 1.500000000000000222 ) ) ;
#105 = FACE_OUTER_BOUND ( 'NONE', #57, .T. ) ;
#106 = CIRCLE ( 'NONE', #315, 0.004994999999999999440 ) ;
#107 = DIRECTION ( 'NONE',  ( -1.000000000000000000, 0.0000000000000000000, 0.0000000000000000000 ) ) ;
#108 = FACE_OUTER_BOUND ( 'NONE', #159, .T. ) ;
#109 = EDGE_CURVE ( 'NONE', #15, #59, #27, .T. ) ;
#110 = ORIENTED_EDGE ( 'NONE', *, *, #109, .T. ) ;
#111 = FILL_AREA_STYLE ('',( #304 ) ) ;
#112 = ORIENTED_EDGE ( 'NONE', *, *, #109, .F. ) ;
#113 = ORIENTED_EDGE ( 'NONE', *, *, #147, .F. ) ;
#114 = EDGE_LOOP ( 'NONE', ( #198, #221, #113 ) ) ;
#115 = VERTEX_POINT ( 'NONE', #195 ) ;
#116 =( NAMED_UNIT ( * ) PLANE_ANGLE_UNIT ( ) SI_UNIT ( $, .RADIAN. ) );
#117 = APPLICATION_PROTOCOL_DEFINITION ( 'draft international standard', 'automotive_design', 1998, #23 ) ;
#118 = EDGE_CURVE ( 'NONE', #59, #15, #2, .T. ) ;
#119 = AXIS2_PLACEMENT_3D ( 'NONE', #190, #286, #82 ) ;
#120 = MECHANICAL_DESIGN_GEOMETRIC_PRESENTATION_REPRESENTATION (  '', ( #270 ), #290 ) ;
#121 = LINE ( 'NONE', #154, #301 ) ;
#122 = EDGE_CURVE ( 'NONE', #115, #266, #106, .T. ) ;
#123 = AXIS2_PLACEMENT_3D ( 'NONE', #243, #267, #6 ) ;
#124 = DIRECTION ( 'NONE',  ( -0.0000000000000000000, -0.0000000000000000000, -1.000000000000000000 ) ) ;
#125 = DIRECTION ( 'NONE',  ( 0.0000000000000000000, 1.000000000000000000, 0.0000000000000000000 ) ) ;
#126 = DIRECTION ( 'NONE',  ( -0.0000000000000000000, -0.0000000000000000000, -1.000000000000000000 ) ) ;
#127 = DIRECTION ( 'NONE',  ( 0.0000000000000000000, 0.0000000000000000000, -1.000000000000000000 ) ) ;
#128 = DIRECTION ( 'NONE',  ( 0.0000000000000000000, -1.000000000000000000, 0.0000000000000000000 ) ) ;
#129 = CARTESIAN_POINT ( 'NONE',  ( -0.04750000000000064587, 0.0000000000000000000, 1.500000000000000222 ) ) ;
#130 = ADVANCED_FACE ( 'NONE', ( #108 ), #269, .T. ) ;
#131 = CARTESIAN_POINT ( 'NONE',  ( 9.175666142611546005E-19, 0.0000000000000000000, 0.0000000000000000000 ) ) ;
#132 = VERTEX_POINT ( 'NONE', #129 ) ;
#133 = DIRECTION ( 'NONE',  ( 1.224646799147353454E-16, 0.0000000000000000000, 1.000000000000000000 ) ) ;
#134 = VECTOR ( 'NONE', #205, 39.37007874015747433 ) ;
#135 = ORIENTED_EDGE ( 'NONE', *, *, #29, .F. ) ;
#136 = ORIENTED_EDGE ( 'NONE', *, *, #85, .T. ) ;
#137 = ORIENTED_EDGE ( 'NONE', *, *, #208, .T. ) ;
#138 = ADVANCED_FACE ( 'NONE', ( #155 ), #185, .T. ) ;
#139 = EDGE_LOOP ( 'NONE', ( #251, #136, #226, #268 ) ) ;
#140 = AXIS2_PLACEMENT_3D ( 'NONE', #144, #256, #99 ) ;
#141 = LENGTH_MEASURE_WITH_UNIT ( LENGTH_MEASURE( 0.02539999999999999897 ), #66 );
#142 = CARTESIAN_POINT ( 'NONE',  ( 0.0000000000000000000, 0.0000000000000000000, 0.0000000000000000000 ) ) ;
#143 =( NAMED_UNIT ( * ) SI_UNIT ( $, .STERADIAN. ) SOLID_ANGLE_UNIT ( ) );
#144 = CARTESIAN_POINT ( 'NONE',  ( 1.836970198721027284E-18, 0.0000000000000000000, 0.01499999999999997689 ) ) ;
#145 = DIRECTION ( 'NONE',  ( 1.000000000000000000, 0.0000000000000000000, 0.0000000000000000000 ) ) ;
#146 =( NAMED_UNIT ( * ) PLANE_ANGLE_UNIT ( ) SI_UNIT ( $, .RADIAN. ) );
#147 = EDGE_CURVE ( 'NONE', #266, #115, #74, .T. ) ;
#148 = DIMENSIONAL_EXPONENTS ( 1.000000000000000000, 0.0000000000000000000, 0.0000000000000000000, 0.0000000000000000000, 0.0000000000000000000, 0.0000000000000000000, 0.0000000000000000000 ) ;
#149 = SURFACE_SIDE_STYLE ('',( #44 ) ) ;
#150 = CARTESIAN_POINT ( 'NONE',  ( 0.0000000000000000000, 0.0000000000000000000, 1.500000000000000222 ) ) ;
#151 = ADVANCED_BREP_SHAPE_REPRESENTATION ( 'Micro_BMS-010-2', ( #170, #297 ), #321 ) ;
#152 = CARTESIAN_POINT ( 'NONE',  ( -0.004994999999999995971, 6.117110761741026818E-19, 0.01499999999999997689 ) ) ;
#153 = PRODUCT_DEFINITION_CONTEXT ( 'detailed design', #23, 'design' ) ;
#154 = CARTESIAN_POINT ( 'NONE',  ( 0.04750000000000064587, 5.817072295950006528E-18, 1.500000000000000222 ) ) ;
#155 = FACE_OUTER_BOUND ( 'NONE', #139, .T. ) ;
#156 = AXIS2_PLACEMENT_3D ( 'NONE', #45, #176, #233 ) ;
#157 = AXIS2_PLACEMENT_3D ( 'NONE', #262, #193, #288 ) ;
#158 = ADVANCED_FACE ( 'NONE', ( #58 ), #202, .T. ) ;
#159 = EDGE_LOOP ( 'NONE', ( #317, #8, #313 ) ) ;
#160 = CARTESIAN_POINT ( 'NONE',  ( 6.117110761741030670E-19, 0.0000000000000000000, 0.004995000000000000308 ) ) ;
#161 = ORIENTED_EDGE ( 'NONE', *, *, #225, .T. ) ;
#162 = AXIS2_PLACEMENT_3D ( 'NONE', #98, #19, #145 ) ;
#163 = PLANE ( 'NONE',  #156 ) ;
#164 = EDGE_LOOP ( 'NONE', ( #12, #252, #291, #89 ) ) ;
#165 = CARTESIAN_POINT ( 'NONE',  ( 0.004994999999999999440, 6.117110761741028744E-19, -6.117110761741029707E-19 ) ) ;
#166 = ORIENTED_EDGE ( 'NONE', *, *, #91, .F. ) ;
#167 = CIRCLE ( 'NONE', #182, 0.004994999999999997706 ) ;
#168 = AXIS2_PLACEMENT_3D ( 'NONE', #209, #133, #245 ) ;
#169 = ADVANCED_FACE ( 'NONE', ( #105 ), #223, .T. ) ;
#170 = MANIFOLD_SOLID_BREP ( 'Fillet1', #201 ) ;
#171 = LENGTH_MEASURE_WITH_UNIT ( LENGTH_MEASURE( 0.02539999999999999897 ), #17 );
#172 = FILL_AREA_STYLE_COLOUR ( '', #247 ) ;
#173 = CARTESIAN_POINT ( 'NONE',  ( -0.06250000000000000000, 0.0000000000000000000, 1.500000000000000222 ) ) ;
#174 = PRODUCT_RELATED_PRODUCT_CATEGORY ( 'part', '', ( #39 ) ) ;
#175 = DIRECTION ( 'NONE',  ( 1.000000000000000000, 0.0000000000000000000, 0.0000000000000000000 ) ) ;
#176 = DIRECTION ( 'NONE',  ( 0.0000000000000000000, 0.0000000000000000000, 1.000000000000000000 ) ) ;
#177 = SPHERICAL_SURFACE ( 'NONE', #283, 0.004995000000000000308 ) ;
#178 = VECTOR ( 'NONE', #188, 39.37007874015748143 ) ;
#179 = DIRECTION ( 'NONE',  ( 1.000000000000000000, 0.0000000000000000000, 0.0000000000000000000 ) ) ;
#180 = FACE_OUTER_BOUND ( 'NONE', #299, .T. ) ;
#181 = DIRECTION ( 'NONE',  ( -0.0000000000000000000, -0.0000000000000000000, -1.000000000000000000 ) ) ;
#182 = AXIS2_PLACEMENT_3D ( 'NONE', #78, #293, #75 ) ;
#183 = COLOUR_RGB ( '',0.7921568627450980005, 0.8196078431372548767, 0.9333333333333333481 ) ;
#184 = AXIS2_PLACEMENT_3D ( 'NONE', #51, #87, #204 ) ;
#185 = CYLINDRICAL_SURFACE ( 'NONE', #123, 0.004994999999999999440 ) ;
#186 = CARTESIAN_POINT ( 'NONE',  ( 0.0000000000000000000, 0.0000000000000000000, 1.500000000000000222 ) ) ;
#187 = CARTESIAN_POINT ( 'NONE',  ( -0.04750000000000064587, 0.0000000000000000000, 1.500000000000000222 ) ) ;
#188 = DIRECTION ( 'NONE',  ( 0.1736481776669313859, 0.0000000000000000000, 0.9848077530122077983 ) ) ;
#189 = DIRECTION ( 'NONE',  ( 1.224646799147353207E-16, 1.000000000000000000, -0.0000000000000000000 ) ) ;
#190 = CARTESIAN_POINT ( 'NONE',  ( 0.0000000000000000000, 0.0000000000000000000, 1.500000000000000222 ) ) ;
#191 = DIRECTION ( 'NONE',  ( -1.000000000000000000, 0.0000000000000000000, 1.224646799147353454E-16 ) ) ;
#192 = CARTESIAN_POINT ( 'NONE',  ( -0.004994999999999999440, 0.0000000000000000000, 6.117110761741029707E-19 ) ) ;
#193 = DIRECTION ( 'NONE',  ( 1.224646799147353454E-16, 0.0000000000000000000, 1.000000000000000000 ) ) ;
#194 = ORIENTED_EDGE ( 'NONE', *, *, #212, .T. ) ;
#195 = CARTESIAN_POINT ( 'NONE',  ( -0.004994999999999997706, 0.0000000000000000000, 0.004995000000000001175 ) ) ;
#196 = ORIENTED_EDGE ( 'NONE', *, *, #248, .T. ) ;
#197 = EDGE_CURVE ( 'NONE', #316, #115, #3, .T. ) ;
#198 = ORIENTED_EDGE ( 'NONE', *, *, #306, .F. ) ;
#199 = ORIENTED_EDGE ( 'NONE', *, *, #200, .T. ) ;
#200 = EDGE_CURVE ( 'NONE', #64, #274, #54, .T. ) ;
#201 = CLOSED_SHELL ( 'NONE', ( #16, #239, #10, #314, #63, #292, #5, #158, #169, #138, #130 ) ) ;
#202 = CONICAL_SURFACE ( 'NONE', #309, 0.04750000000000064587, 0.7853981633974457255 ) ;
#203 = DIRECTION ( 'NONE',  ( -1.000000000000000000, 0.0000000000000000000, 0.0000000000000000000 ) ) ;
#204 = DIRECTION ( 'NONE',  ( 1.000000000000000000, 0.0000000000000000000, 0.0000000000000000000 ) ) ;
#205 = DIRECTION ( 'NONE',  ( -0.1736481776669311916, 2.126576849575783316E-17, 0.9848077530122080203 ) ) ;
#206 = CONICAL_SURFACE ( 'NONE', #254, 0.04750000000000064587, 0.7853981633974457255 ) ;
#207 = DIRECTION ( 'NONE',  ( -1.224646799147353454E-16, -0.0000000000000000000, -1.000000000000000000 ) ) ;
#208 = EDGE_CURVE ( 'NONE', #59, #274, #69, .T. ) ;
#209 = CARTESIAN_POINT ( 'NONE',  ( 1.836970198721027284E-18, 0.0000000000000000000, 0.01499999999999997689 ) ) ;
#210 = AXIS2_PLACEMENT_3D ( 'NONE', #30, #128, #88 ) ;
#211 = CARTESIAN_POINT ( 'NONE',  ( -0.004994999999999995971, 4.132876785422530113E-18, 0.01499999999999997689 ) ) ;
#212 = EDGE_CURVE ( 'NONE', #244, #274, #258, .T. ) ;
#213 = CARTESIAN_POINT ( 'NONE',  ( 0.004995000000000000308, 6.117110761741028744E-19, 0.004994999999999999440 ) ) ;
#214 = DIRECTION ( 'NONE',  ( 0.0000000000000000000, 0.0000000000000000000, -1.000000000000000000 ) ) ;
#215 = AXIS2_PLACEMENT_3D ( 'NONE', #264, #35, #56 ) ;
#216 =( GEOMETRIC_REPRESENTATION_CONTEXT ( 3 ) GLOBAL_UNCERTAINTY_ASSIGNED_CONTEXT ( ( #25 ) ) GLOBAL_UNIT_ASSIGNED_CONTEXT ( ( #227, #146, #280 ) ) REPRESENTATION_CONTEXT ( 'NONE', 'WORKASPACE' ) );
#217 = ORIENTED_EDGE ( 'NONE', *, *, #50, .F. ) ;
#218 = SURFACE_STYLE_FILL_AREA ( #111 ) ;
#219 = ORIENTED_EDGE ( 'NONE', *, *, #50, .T. ) ;
#220 = LINE ( 'NONE', #165, #229 ) ;
#221 = ORIENTED_EDGE ( 'NONE', *, *, #197, .T. ) ;
#222 =( NAMED_UNIT ( * ) PLANE_ANGLE_UNIT ( ) SI_UNIT ( $, .RADIAN. ) );
#223 = CONICAL_SURFACE ( 'NONE', #168, 0.004994999999999997706, 0.1745329251994338915 ) ;
#224 = ORIENTED_EDGE ( 'NONE', *, *, #85, .F. ) ;
#225 = EDGE_CURVE ( 'NONE', #61, #132, #278, .T. ) ;
#226 = ORIENTED_EDGE ( 'NONE', *, *, #305, .T. ) ;
#227 =( CONVERSION_BASED_UNIT ( 'INCH', #22 ) LENGTH_UNIT ( ) NAMED_UNIT ( #14 ) );
#228 = FACE_OUTER_BOUND ( 'NONE', #298, .T. ) ;
#229 = VECTOR ( 'NONE', #18, 39.37007874015748143 ) ;
#230 = DIRECTION ( 'NONE',  ( -1.224646799147353454E-16, -0.0000000000000000000, -1.000000000000000000 ) ) ;
#231 = DIMENSIONAL_EXPONENTS ( 1.000000000000000000, 0.0000000000000000000, 0.0000000000000000000, 0.0000000000000000000, 0.0000000000000000000, 0.0000000000000000000, 0.0000000000000000000 ) ;
#232 =( CONVERSION_BASED_UNIT ( 'INCH', #171 ) LENGTH_UNIT ( ) NAMED_UNIT ( #148 ) );
#233 = DIRECTION ( 'NONE',  ( 1.000000000000000000, 0.0000000000000000000, -0.0000000000000000000 ) ) ;
#234 = PRESENTATION_LAYER_ASSIGNMENT (  '', '', ( #95 ) ) ;
#235 = DIRECTION ( 'NONE',  ( -0.7071067811865456854, 0.0000000000000000000, -0.7071067811865493491 ) ) ;
#236 = FACE_OUTER_BOUND ( 'NONE', #255, .T. ) ;
#237 = CARTESIAN_POINT ( 'NONE',  ( 4.177601634016462012E-17, 0.0000000000000000000, 0.3411270610371145429 ) ) ;
#238 = DIRECTION ( 'NONE',  ( -1.000000000000000000, 0.0000000000000000000, 0.0000000000000000000 ) ) ;
#239 = ADVANCED_FACE ( 'NONE', ( #228 ), #96, .T. ) ;
#240 = DIRECTION ( 'NONE',  ( -1.000000000000000000, 1.224646799147353207E-16, 0.0000000000000000000 ) ) ;
#241 = VECTOR ( 'NONE', #235, 39.37007874015748143 ) ;
#242 = DIRECTION ( 'NONE',  ( -1.000000000000000000, 0.0000000000000000000, 0.0000000000000000000 ) ) ;
#243 = CARTESIAN_POINT ( 'NONE',  ( 0.0000000000000000000, 0.0000000000000000000, 0.0000000000000000000 ) ) ;
#244 = VERTEX_POINT ( 'NONE', #76 ) ;
#245 = DIRECTION ( 'NONE',  ( 1.000000000000000000, 0.0000000000000000000, 0.0000000000000000000 ) ) ;
#246 = CONICAL_SURFACE ( 'NONE', #253, 0.004994999999999997706, 0.1745329251994338915 ) ;
#247 = COLOUR_RGB ( '',0.7921568627450980005, 0.8196078431372548767, 0.9333333333333333481 ) ;
#248 = EDGE_CURVE ( 'NONE', #244, #266, #220, .T. ) ;
#249 = LINE ( 'NONE', #192, #13 ) ;
#250 = FACE_OUTER_BOUND ( 'NONE', #93, .T. ) ;
#251 = ORIENTED_EDGE ( 'NONE', *, *, #248, .F. ) ;
#252 = ORIENTED_EDGE ( 'NONE', *, *, #97, .F. ) ;
#253 = AXIS2_PLACEMENT_3D ( 'NONE', #42, #67, #265 ) ;
#254 = AXIS2_PLACEMENT_3D ( 'NONE', #11, #83, #107 ) ;
#255 = EDGE_LOOP ( 'NONE', ( #166, #38, #199, #310 ) ) ;
#256 = DIRECTION ( 'NONE',  ( -1.224646799147353454E-16, -0.0000000000000000000, -1.000000000000000000 ) ) ;
#257 = DIRECTION ( 'NONE',  ( -0.0000000000000000000, -0.0000000000000000000, -1.000000000000000000 ) ) ;
#258 = LINE ( 'NONE', #47, #178 ) ;
#259 = DIRECTION ( 'NONE',  ( 0.7071067811865456854, 8.659560562354911904E-17, -0.7071067811865493491 ) ) ;
#260 = PRODUCT_DEFINITION_FORMATION_WITH_SPECIFIED_SOURCE ( 'ANY', '', #39, .NOT_KNOWN. ) ;
#261 = FACE_OUTER_BOUND ( 'NONE', #86, .T. ) ;
#262 = CARTESIAN_POINT ( 'NONE',  ( 6.117110761741030670E-19, 0.0000000000000000000, 0.004995000000000000308 ) ) ;
#263 = AXIS2_PLACEMENT_3D ( 'NONE', #142, #207, #191 ) ;
#264 = CARTESIAN_POINT ( 'NONE',  ( 0.0000000000000000000, 0.0000000000000000000, 1.485000000000000764 ) ) ;
#265 = DIRECTION ( 'NONE',  ( 1.000000000000000000, 0.0000000000000000000, 0.0000000000000000000 ) ) ;
#266 = VERTEX_POINT ( 'NONE', #213 ) ;
#267 = DIRECTION ( 'NONE',  ( -1.224646799147353454E-16, -0.0000000000000000000, -1.000000000000000000 ) ) ;
#268 = ORIENTED_EDGE ( 'NONE', *, *, #122, .T. ) ;
#269 = SPHERICAL_SURFACE ( 'NONE', #28, 0.004995000000000000308 ) ;
#270 = STYLED_ITEM ( 'NONE', ( #311 ), #170 ) ;
#271 = EDGE_LOOP ( 'NONE', ( #40, #34, #112, #55 ) ) ;
#272 = FACE_OUTER_BOUND ( 'NONE', #271, .T. ) ;
#273 = EDGE_CURVE ( 'NONE', #132, #15, #77, .T. ) ;
#274 = VERTEX_POINT ( 'NONE', #73 ) ;
#275 = ORIENTED_EDGE ( 'NONE', *, *, #36, .F. ) ;
#276 = SURFACE_STYLE_USAGE ( .BOTH. , #149 ) ;
#277 = APPLICATION_PROTOCOL_DEFINITION ( 'draft international standard', 'automotive_design', 1998, #318 ) ;
#278 = CIRCLE ( 'NONE', #184, 0.04750000000000064587 ) ;
#279 = UNCERTAINTY_MEASURE_WITH_UNIT (LENGTH_MEASURE( 1.000000000000000082E-05 ), #232, 'distance_accuracy_value', 'NONE');
#280 =( NAMED_UNIT ( * ) SI_UNIT ( $, .STERADIAN. ) SOLID_ANGLE_UNIT ( ) );
#281 = CYLINDRICAL_SURFACE ( 'NONE', #308, 0.06250000000000000000 ) ;
#282 = DIRECTION ( 'NONE',  ( 0.0000000000000000000, 1.000000000000000000, 0.0000000000000000000 ) ) ;
#283 = AXIS2_PLACEMENT_3D ( 'NONE', #72, #282, #179 ) ;
#284 = CYLINDRICAL_SURFACE ( 'NONE', #90, 0.06250000000000000000 ) ;
#285 = SURFACE_SIDE_STYLE ('',( #218 ) ) ;
#286 = DIRECTION ( 'NONE',  ( 0.0000000000000000000, 0.0000000000000000000, 1.000000000000000000 ) ) ;
#287 = DIRECTION ( 'NONE',  ( -1.224646799147353454E-16, -0.0000000000000000000, -1.000000000000000000 ) ) ;
#288 = DIRECTION ( 'NONE',  ( -1.000000000000000000, 0.0000000000000000000, 2.136392637687893759E-16 ) ) ;
#289 = CIRCLE ( 'NONE', #140, 0.004994999999999997706 ) ;
#290 =( GEOMETRIC_REPRESENTATION_CONTEXT ( 3 ) GLOBAL_UNCERTAINTY_ASSIGNED_CONTEXT ( ( #323 ) ) GLOBAL_UNIT_ASSIGNED_CONTEXT ( ( #65, #222, #52 ) ) REPRESENTATION_CONTEXT ( 'NONE', 'WORKASPACE' ) );
#291 = ORIENTED_EDGE ( 'NONE', *, *, #273, .T. ) ;
#292 = ADVANCED_FACE ( 'NONE', ( #180 ), #284, .T. ) ;
#293 = DIRECTION ( 'NONE',  ( -1.224646799147353454E-16, -0.0000000000000000000, -1.000000000000000000 ) ) ;
#294 = ORIENTED_EDGE ( 'NONE', *, *, #29, .T. ) ;
#295 = CARTESIAN_POINT ( 'NONE',  ( 0.0000000000000000000, 0.0000000000000000000, 1.485000000000000764 ) ) ;
#296 = ORIENTED_EDGE ( 'NONE', *, *, #147, .T. ) ;
#297 = AXIS2_PLACEMENT_3D ( 'NONE', #70, #20, #175 ) ;
#298 = EDGE_LOOP ( 'NONE', ( #32, #196, #296, #84 ) ) ;
#299 = EDGE_LOOP ( 'NONE', ( #312, #7, #294, #217 ) ) ;
#300 = FILL_AREA_STYLE ('',( #172 ) ) ;
#301 = VECTOR ( 'NONE', #259, 39.37007874015748143 ) ;
#302 = FACE_OUTER_BOUND ( 'NONE', #114, .T. ) ;
#303 = AXIS2_PLACEMENT_3D ( 'NONE', #295, #127, #53 ) ;
#304 = FILL_AREA_STYLE_COLOUR ( '', #183 ) ;
#305 = EDGE_CURVE ( 'NONE', #92, #115, #249, .T. ) ;
#306 = EDGE_CURVE ( 'NONE', #316, #266, #21, .T. ) ;
#307 = DIRECTION ( 'NONE',  ( 1.224646799147353454E-16, 0.0000000000000000000, 1.000000000000000000 ) ) ;
#308 = AXIS2_PLACEMENT_3D ( 'NONE', #150, #124, #203 ) ;
#309 = AXIS2_PLACEMENT_3D ( 'NONE', #33, #214, #238 ) ;
#310 = ORIENTED_EDGE ( 'NONE', *, *, #212, .F. ) ;
#311 = PRESENTATION_STYLE_ASSIGNMENT (( #49 ) ) ;
#312 = ORIENTED_EDGE ( 'NONE', *, *, #208, .F. ) ;
#313 = ORIENTED_EDGE ( 'NONE', *, *, #122, .F. ) ;
#314 = ADVANCED_FACE ( 'NONE', ( #272 ), #206, .T. ) ;
#315 = AXIS2_PLACEMENT_3D ( 'NONE', #79, #307, #31 ) ;
#316 = VERTEX_POINT ( 'NONE', #131 ) ;
#317 = ORIENTED_EDGE ( 'NONE', *, *, #197, .F. ) ;
#318 = APPLICATION_CONTEXT ( 'automotive_design' ) ;
#319 = CIRCLE ( 'NONE', #60, 0.06250000000000000000 ) ;
#320 = CARTESIAN_POINT ( 'NONE',  ( 0.06250000000000000000, 7.654042494670956004E-18, 1.500000000000000222 ) ) ;
#321 =( GEOMETRIC_REPRESENTATION_CONTEXT ( 3 ) GLOBAL_UNCERTAINTY_ASSIGNED_CONTEXT ( ( #279 ) ) GLOBAL_UNIT_ASSIGNED_CONTEXT ( ( #232, #116, #143 ) ) REPRESENTATION_CONTEXT ( 'NONE', 'WORKASPACE' ) );
#322 = AXIS2_PLACEMENT_3D ( 'NONE', #48, #189, #240 ) ;
#323 = UNCERTAINTY_MEASURE_WITH_UNIT (LENGTH_MEASURE( 1.000000000000000082E-05 ), #65, 'distance_accuracy_value', 'NONE');
#324 = SHAPE_DEFINITION_REPRESENTATION ( #62, #151 ) ;
#325 = CARTESIAN_POINT ( 'NONE',  ( -0.06250000000000000000, 0.0000000000000000000, 1.485000000000000764 ) ) ;
ENDSEC;
END-ISO-10303-21;
