ISO-10303-21;
HEADER;
FILE_DESCRIPTION (( 'STEP AP214' ),
    '1' );
FILE_NAME ('81399.STEP',
    '2023-06-23T01:03:37',
    ( '' ),
    ( '' ),
    'SwSTEP 2.0',
    'SolidWorks 2023',
    '' );
FILE_SCHEMA (( 'AUTOMOTIVE_DESIGN' ));
ENDSEC;

DATA;
#1 =( NAMED_UNIT ( * ) PLANE_ANGLE_UNIT ( ) SI_UNIT ( $, .RADIAN. ) );
#2 = CARTESIAN_POINT ( 'NONE',  ( 0.000000000000000000, 0.000000000000000000, 0.000000000000000000 ) ) ;
#3 = PLANE ( 'NONE',  #116 ) ;
#4 = FILL_AREA_STYLE_COLOUR ( '', #62 ) ;
#5 = DIRECTION ( 'NONE',  ( -0.000000000000000000, -1.000000000000000000, -0.000000000000000000 ) ) ;
#6 = CARTESIAN_POINT ( 'NONE',  ( 0.000000000000000000, 0.5000000000000001110, 0.000000000000000000 ) ) ;
#7 = AXIS2_PLACEMENT_3D ( 'NONE', #142, #124, #192 ) ;
#8 = PRESENTATION_STYLE_ASSIGNMENT (( #35 ) ) ;
#9 = ORIENTED_EDGE ( 'NONE', *, *, #260, .F. ) ;
#10 = SURFACE_SIDE_STYLE ('',( #179 ) ) ;
#11 = FACE_OUTER_BOUND ( 'NONE', #211, .T. ) ;
#12 = DIRECTION ( 'NONE',  ( 0.000000000000000000, 0.000000000000000000, -1.000000000000000000 ) ) ;
#13 = LENGTH_MEASURE_WITH_UNIT ( LENGTH_MEASURE( 0.02539999999999999897 ), #290 );
#14 = FILL_AREA_STYLE ('',( #246 ) ) ;
#15 = AXIS2_PLACEMENT_3D ( 'NONE', #6, #33, #218 ) ;
#16 = VERTEX_POINT ( 'NONE', #93 ) ;
#17 = VERTEX_POINT ( 'NONE', #187 ) ;
#18 = AXIS2_PLACEMENT_3D ( 'NONE', #271, #150, #184 ) ;
#19 = LINE ( 'NONE', #65, #54 ) ;
#20 = AXIS2_PLACEMENT_3D ( 'NONE', #28, #221, #273 ) ;
#21 = EDGE_CURVE ( 'NONE', #279, #157, #171, .T. ) ;
#22 = AXIS2_PLACEMENT_3D ( 'NONE', #301, #261, #91 ) ;
#23 = PRESENTATION_LAYER_ASSIGNMENT (  '', '', ( #102 ) ) ;
#24 = CARTESIAN_POINT ( 'NONE',  ( 1.041499849070734806E-34, 0.5000000000000000000, 0.000000000000000000 ) ) ;
#25 = UNCERTAINTY_MEASURE_WITH_UNIT (LENGTH_MEASURE( 1.000000000000000082E-05 ), #297, 'distance_accuracy_value', 'NONE');
#26 = CARTESIAN_POINT ( 'NONE',  ( 0.000000000000000000, 0.000000000000000000, 0.000000000000000000 ) ) ;
#27 = PRESENTATION_LAYER_ASSIGNMENT (  '', '', ( #34 ) ) ;
#28 = CARTESIAN_POINT ( 'NONE',  ( 6.123233995736766036E-17, 2.000000000000000000, 0.000000000000000000 ) ) ;
#29 = CYLINDRICAL_SURFACE ( 'NONE', #175, 0.1249999999999999584 ) ;
#30 = CARTESIAN_POINT ( 'NONE',  ( 0.1250000000000000000, 2.000000000000000000, 0.000000000000000000 ) ) ;
#31 = ORIENTED_EDGE ( 'NONE', *, *, #112, .F. ) ;
#32 = ADVANCED_FACE ( 'NONE', ( #228 ), #122, .T. ) ;
#33 = DIRECTION ( 'NONE',  ( 4.082155997157844435E-17, 1.000000000000000000, -0.000000000000000000 ) ) ;
#34 = STYLED_ITEM ( 'NONE', ( #278 ), #70 ) ;
#35 = SURFACE_STYLE_USAGE ( .BOTH. , #10 ) ;
#36 =( LENGTH_UNIT ( ) NAMED_UNIT ( * ) SI_UNIT ( $, .METRE. ) );
#37 = PRODUCT_DEFINITION_SHAPE ( 'NONE', 'NONE',  #136 ) ;
#38 = ORIENTED_EDGE ( 'NONE', *, *, #21, .T. ) ;
#39 = ADVANCED_BREP_SHAPE_REPRESENTATION ( '81399', ( #70, #177, #22 ), #143 ) ;
#40 = ORIENTED_EDGE ( 'NONE', *, *, #89, .T. ) ;
#41 = ORIENTED_EDGE ( 'NONE', *, *, #21, .F. ) ;
#42 =( GEOMETRIC_REPRESENTATION_CONTEXT ( 3 ) GLOBAL_UNCERTAINTY_ASSIGNED_CONTEXT ( ( #195 ) ) GLOBAL_UNIT_ASSIGNED_CONTEXT ( ( #292, #131, #121 ) ) REPRESENTATION_CONTEXT ( 'NONE', 'WORKASPACE' ) );
#43 = PRESENTATION_LAYER_ASSIGNMENT (  '', '', ( #109 ) ) ;
#44 = VECTOR ( 'NONE', #252, 39.37007874015748143 ) ;
#45 = APPLICATION_CONTEXT ( 'automotive_design' ) ;
#46 = ADVANCED_FACE ( 'NONE', ( #244 ), #29, .T. ) ;
#47 = MECHANICAL_DESIGN_GEOMETRIC_PRESENTATION_REPRESENTATION (  '', ( #236 ), #42 ) ;
#48 = SURFACE_SIDE_STYLE ('',( #300 ) ) ;
#49 =( CONVERSION_BASED_UNIT ( 'INCH', #303 ) LENGTH_UNIT ( ) NAMED_UNIT ( #67 ) );
#50 = EDGE_CURVE ( 'NONE', #132, #16, #224, .T. ) ;
#51 = FACE_OUTER_BOUND ( 'NONE', #251, .T. ) ;
#52 = CARTESIAN_POINT ( 'NONE',  ( -0.1249999999999998612, 2.000000000000000000, 0.000000000000000000 ) ) ;
#53 = FACE_OUTER_BOUND ( 'NONE', #233, .T. ) ;
#54 = VECTOR ( 'NONE', #160, 39.37007874015748143 ) ;
#55 = COLOUR_RGB ( '',1.000000000000000000, 0.000000000000000000, 0.000000000000000000 ) ;
#56 = PRESENTATION_STYLE_ASSIGNMENT (( #78 ) ) ;
#57 = LINE ( 'NONE', #85, #194 ) ;
#58 = EDGE_LOOP ( 'NONE', ( #254, #213, #159, #230 ) ) ;
#59 = PRODUCT_RELATED_PRODUCT_CATEGORY ( 'part', '', ( #154 ) ) ;
#60 = LENGTH_MEASURE_WITH_UNIT ( LENGTH_MEASURE( 0.02539999999999999897 ), #36 );
#61 = DIRECTION ( 'NONE',  ( 0.000000000000000000, 0.000000000000000000, -1.000000000000000000 ) ) ;
#62 = COLOUR_RGB ( '',1.000000000000000000, 0.000000000000000000, 0.000000000000000000 ) ;
#63 = AXIS2_PLACEMENT_3D ( 'NONE', #117, #268, #201 ) ;
#64 = EDGE_CURVE ( 'NONE', #132, #157, #19, .T. ) ;
#65 = CARTESIAN_POINT ( 'NONE',  ( 0.000000000000000000, 0.000000000000000000, -0.1250000000000000000 ) ) ;
#66 = CIRCLE ( 'NONE', #18, 0.1250000000000000000 ) ;
#67 = DIMENSIONAL_EXPONENTS ( 1.000000000000000000, 0.000000000000000000, 0.000000000000000000, 0.000000000000000000, 0.000000000000000000, 0.000000000000000000, 0.000000000000000000 ) ;
#68 = FILL_AREA_STYLE_COLOUR ( '', #258 ) ;
#69 = MECHANICAL_DESIGN_GEOMETRIC_PRESENTATION_REPRESENTATION (  '', ( #102 ), #126 ) ;
#70 = MANIFOLD_SOLID_BREP ( 'Revolve - Cutting Edge', #298 ) ;
#71 = DIRECTION ( 'NONE',  ( 0.000000000000000000, 0.000000000000000000, -1.000000000000000000 ) ) ;
#72 =( NAMED_UNIT ( * ) SI_UNIT ( $, .STERADIAN. ) SOLID_ANGLE_UNIT ( ) );
#73 =( NAMED_UNIT ( * ) SI_UNIT ( $, .STERADIAN. ) SOLID_ANGLE_UNIT ( ) );
#74 = DIRECTION ( 'NONE',  ( -0.000000000000000000, -1.000000000000000000, -0.000000000000000000 ) ) ;
#75 = ORIENTED_EDGE ( 'NONE', *, *, #260, .T. ) ;
#76 = VERTEX_POINT ( 'NONE', #52 ) ;
#77 = DIRECTION ( 'NONE',  ( 0.000000000000000000, 0.000000000000000000, -1.000000000000000000 ) ) ;
#78 = SURFACE_STYLE_USAGE ( .BOTH. , #249 ) ;
#79 = EDGE_LOOP ( 'NONE', ( #152, #197, #83, #41 ) ) ;
#80 =( GEOMETRIC_REPRESENTATION_CONTEXT ( 3 ) GLOBAL_UNCERTAINTY_ASSIGNED_CONTEXT ( ( #25 ) ) GLOBAL_UNIT_ASSIGNED_CONTEXT ( ( #297, #286, #120 ) ) REPRESENTATION_CONTEXT ( 'NONE', 'WORKASPACE' ) );
#81 = FACE_OUTER_BOUND ( 'NONE', #79, .T. ) ;
#82 = FILL_AREA_STYLE ('',( #206 ) ) ;
#83 = ORIENTED_EDGE ( 'NONE', *, *, #64, .T. ) ;
#84 = EDGE_CURVE ( 'NONE', #76, #257, #280, .T. ) ;
#85 = CARTESIAN_POINT ( 'NONE',  ( -0.1249999999999999029, 2.000000000000000000, 0.000000000000000000 ) ) ;
#86 = SURFACE_STYLE_USAGE ( .BOTH. , #182 ) ;
#87 = DIMENSIONAL_EXPONENTS ( 1.000000000000000000, 0.000000000000000000, 0.000000000000000000, 0.000000000000000000, 0.000000000000000000, 0.000000000000000000, 0.000000000000000000 ) ;
#88 = UNCERTAINTY_MEASURE_WITH_UNIT (LENGTH_MEASURE( 1.000000000000000082E-05 ), #49, 'distance_accuracy_value', 'NONE');
#89 = EDGE_CURVE ( 'NONE', #257, #76, #110, .T. ) ;
#90 = AXIS2_PLACEMENT_3D ( 'NONE', #188, #74, #294 ) ;
#91 = DIRECTION ( 'NONE',  ( 1.000000000000000000, 0.000000000000000000, 0.000000000000000000 ) ) ;
#92 = ORIENTED_EDGE ( 'NONE', *, *, #225, .T. ) ;
#93 = CARTESIAN_POINT ( 'NONE',  ( 1.530808498934191509E-17, 0.5000000000000000000, 0.1250000000000000000 ) ) ;
#94 =( NAMED_UNIT ( * ) SI_UNIT ( $, .STERADIAN. ) SOLID_ANGLE_UNIT ( ) );
#95 = CARTESIAN_POINT ( 'NONE',  ( 0.1250000000000000278, 0.5000000000000001110, 1.530808498934191509E-17 ) ) ;
#96 = STYLED_ITEM ( 'NONE', ( #222 ), #234 ) ;
#97 =( NAMED_UNIT ( * ) SI_UNIT ( $, .STERADIAN. ) SOLID_ANGLE_UNIT ( ) );
#98 = DIRECTION ( 'NONE',  ( -0.000000000000000000, -1.000000000000000000, -0.000000000000000000 ) ) ;
#99 = CARTESIAN_POINT ( 'NONE',  ( 6.123233995736766036E-17, 2.000000000000000000, 0.000000000000000000 ) ) ;
#100 = CARTESIAN_POINT ( 'NONE',  ( 0.000000000000000000, 0.000000000000000000, 0.000000000000000000 ) ) ;
#101 = MECHANICAL_DESIGN_GEOMETRIC_PRESENTATION_REPRESENTATION (  '', ( #109 ), #80 ) ;
#102 = STYLED_ITEM ( 'NONE', ( #245 ), #177 ) ;
#103 = FILL_AREA_STYLE ('',( #4 ) ) ;
#104 = DIRECTION ( 'NONE',  ( -0.000000000000000000, -1.000000000000000000, -0.000000000000000000 ) ) ;
#105 = ORIENTED_EDGE ( 'NONE', *, *, #84, .T. ) ;
#106 =( LENGTH_UNIT ( ) NAMED_UNIT ( * ) SI_UNIT ( $, .METRE. ) );
#107 = CARTESIAN_POINT ( 'NONE',  ( 0.000000000000000000, 0.5000000000000000000, 0.000000000000000000 ) ) ;
#108 = ORIENTED_EDGE ( 'NONE', *, *, #264, .T. ) ;
#109 = STYLED_ITEM ( 'NONE', ( #56 ), #32 ) ;
#110 = CIRCLE ( 'NONE', #7, 0.1249999999999999306 ) ;
#111 = ORIENTED_EDGE ( 'NONE', *, *, #89, .F. ) ;
#112 = EDGE_CURVE ( 'NONE', #163, #257, #267, .T. ) ;
#113 = AXIS2_PLACEMENT_3D ( 'NONE', #107, #5, #295 ) ;
#114 = DIRECTION ( 'NONE',  ( -1.000000000000000000, 0.000000000000000000, 0.000000000000000000 ) ) ;
#115 = UNCERTAINTY_MEASURE_WITH_UNIT (LENGTH_MEASURE( 1.000000000000000082E-05 ), #219, 'distance_accuracy_value', 'NONE');
#116 = AXIS2_PLACEMENT_3D ( 'NONE', #30, #155, #180 ) ;
#117 = CARTESIAN_POINT ( 'NONE',  ( 0.000000000000000000, 0.5000000000000000000, 0.000000000000000000 ) ) ;
#118 = SURFACE_STYLE_USAGE ( .BOTH. , #269 ) ;
#119 = PLANE ( 'NONE',  #167 ) ;
#120 =( NAMED_UNIT ( * ) SI_UNIT ( $, .STERADIAN. ) SOLID_ANGLE_UNIT ( ) );
#121 =( NAMED_UNIT ( * ) SI_UNIT ( $, .STERADIAN. ) SOLID_ANGLE_UNIT ( ) );
#122 = CYLINDRICAL_SURFACE ( 'NONE', #305, 0.1250000000000000000 ) ;
#123 = SURFACE_SIDE_STYLE ('',( #162 ) ) ;
#124 = DIRECTION ( 'NONE',  ( 4.082155997157844435E-17, 1.000000000000000000, -0.000000000000000000 ) ) ;
#125 = ORIENTED_EDGE ( 'NONE', *, *, #199, .F. ) ;
#126 =( GEOMETRIC_REPRESENTATION_CONTEXT ( 3 ) GLOBAL_UNCERTAINTY_ASSIGNED_CONTEXT ( ( #239 ) ) GLOBAL_UNIT_ASSIGNED_CONTEXT ( ( #307, #198, #94 ) ) REPRESENTATION_CONTEXT ( 'NONE', 'WORKASPACE' ) );
#127 =( NAMED_UNIT ( * ) PLANE_ANGLE_UNIT ( ) SI_UNIT ( $, .RADIAN. ) );
#128 = PLANE ( 'NONE',  #63 ) ;
#129 = DIRECTION ( 'NONE',  ( 4.082155997157844435E-17, 1.000000000000000000, -0.000000000000000000 ) ) ;
#130 = ORIENTED_EDGE ( 'NONE', *, *, #64, .F. ) ;
#131 =( NAMED_UNIT ( * ) PLANE_ANGLE_UNIT ( ) SI_UNIT ( $, .RADIAN. ) );
#132 = VERTEX_POINT ( 'NONE', #243 ) ;
#133 = EDGE_CURVE ( 'NONE', #17, #163, #214, .T. ) ;
#134 = FILL_AREA_STYLE_COLOUR ( '', #299 ) ;
#135 = SURFACE_STYLE_USAGE ( .BOTH. , #48 ) ;
#136 = PRODUCT_DEFINITION ( 'UNKNOWN', '', #193, #281 ) ;
#137 = APPLICATION_PROTOCOL_DEFINITION ( 'draft international standard', 'automotive_design', 1998, #45 ) ;
#138 =( NAMED_UNIT ( * ) SI_UNIT ( $, .STERADIAN. ) SOLID_ANGLE_UNIT ( ) );
#139 = DIMENSIONAL_EXPONENTS ( 1.000000000000000000, 0.000000000000000000, 0.000000000000000000, 0.000000000000000000, 0.000000000000000000, 0.000000000000000000, 0.000000000000000000 ) ;
#140 = CIRCLE ( 'NONE', #288, 0.1250000000000000000 ) ;
#141 = PLANE ( 'NONE',  #231 ) ;
#142 = CARTESIAN_POINT ( 'NONE',  ( 6.123233995736766036E-17, 2.000000000000000000, 0.000000000000000000 ) ) ;
#143 =( GEOMETRIC_REPRESENTATION_CONTEXT ( 3 ) GLOBAL_UNCERTAINTY_ASSIGNED_CONTEXT ( ( #115 ) ) GLOBAL_UNIT_ASSIGNED_CONTEXT ( ( #219, #1, #73 ) ) REPRESENTATION_CONTEXT ( 'NONE', 'WORKASPACE' ) );
#144 = CYLINDRICAL_SURFACE ( 'NONE', #20, 0.1249999999999999584 ) ;
#145 = PRESENTATION_LAYER_ASSIGNMENT (  '', '', ( #284 ) ) ;
#146 = FILL_AREA_STYLE ('',( #68 ) ) ;
#147 = LENGTH_MEASURE_WITH_UNIT ( LENGTH_MEASURE( 0.02539999999999999897 ), #174 );
#148 = DIRECTION ( 'NONE',  ( 4.082155997157844435E-17, 1.000000000000000000, -0.000000000000000000 ) ) ;
#149 = CARTESIAN_POINT ( 'NONE',  ( 6.123233995736766036E-17, 2.000000000000000000, 0.000000000000000000 ) ) ;
#150 = DIRECTION ( 'NONE',  ( 4.082155997157844435E-17, 1.000000000000000000, -0.000000000000000000 ) ) ;
#151 = FACE_OUTER_BOUND ( 'NONE', #296, .T. ) ;
#152 = ORIENTED_EDGE ( 'NONE', *, *, #264, .F. ) ;
#153 = DIRECTION ( 'NONE',  ( -1.000000000000000000, 0.000000000000000000, 0.000000000000000000 ) ) ;
#154 = PRODUCT ( '81399', '81399', '', ( #285 ) ) ;
#155 = DIRECTION ( 'NONE',  ( -4.082155997157844435E-17, -1.000000000000000000, 0.000000000000000000 ) ) ;
#156 = FILL_AREA_STYLE ('',( #134 ) ) ;
#157 = VERTEX_POINT ( 'NONE', #309 ) ;
#158 = DIRECTION ( 'NONE',  ( -0.000000000000000000, -1.000000000000000000, -0.000000000000000000 ) ) ;
#159 = ORIENTED_EDGE ( 'NONE', *, *, #84, .F. ) ;
#160 = DIRECTION ( 'NONE',  ( -0.000000000000000000, -1.000000000000000000, -0.000000000000000000 ) ) ;
#161 =( GEOMETRIC_REPRESENTATION_CONTEXT ( 3 ) GLOBAL_UNCERTAINTY_ASSIGNED_CONTEXT ( ( #302 ) ) GLOBAL_UNIT_ASSIGNED_CONTEXT ( ( #250, #203, #97 ) ) REPRESENTATION_CONTEXT ( 'NONE', 'WORKASPACE' ) );
#162 = SURFACE_STYLE_FILL_AREA ( #82 ) ;
#163 = VERTEX_POINT ( 'NONE', #95 ) ;
#164 = MECHANICAL_DESIGN_GEOMETRIC_PRESENTATION_REPRESENTATION (  '', ( #96 ), #161 ) ;
#165 = UNCERTAINTY_MEASURE_WITH_UNIT (LENGTH_MEASURE( 1.000000000000000082E-05 ), #204, 'distance_accuracy_value', 'NONE');
#166 = APPLICATION_PROTOCOL_DEFINITION ( 'draft international standard', 'automotive_design', 1998, #207 ) ;
#167 = AXIS2_PLACEMENT_3D ( 'NONE', #24, #210, #274 ) ;
#168 = COLOUR_RGB ( '',1.000000000000000000, 0.000000000000000000, 0.000000000000000000 ) ;
#169 = FILL_AREA_STYLE ('',( #306 ) ) ;
#170 = DIMENSIONAL_EXPONENTS ( 1.000000000000000000, 0.000000000000000000, 0.000000000000000000, 0.000000000000000000, 0.000000000000000000, 0.000000000000000000, 0.000000000000000000 ) ;
#171 = CIRCLE ( 'NONE', #217, 0.1250000000000000000 ) ;
#172 = ADVANCED_FACE ( 'NONE', ( #51 ), #141, .T. ) ;
#173 = CLOSED_SHELL ( 'NONE', ( #46, #272, #237, #186 ) ) ;
#174 =( LENGTH_UNIT ( ) NAMED_UNIT ( * ) SI_UNIT ( $, .METRE. ) );
#175 = AXIS2_PLACEMENT_3D ( 'NONE', #99, #148, #114 ) ;
#176 =( LENGTH_UNIT ( ) NAMED_UNIT ( * ) SI_UNIT ( $, .METRE. ) );
#177 = MANIFOLD_SOLID_BREP ( 'Revolve - Tool Body (Straight Shanked)', #173 ) ;
#178 = ORIENTED_EDGE ( 'NONE', *, *, #232, .T. ) ;
#179 = SURFACE_STYLE_FILL_AREA ( #14 ) ;
#180 = DIRECTION ( 'NONE',  ( 1.000000000000000000, -4.082155997157844435E-17, 0.000000000000000000 ) ) ;
#181 = ORIENTED_EDGE ( 'NONE', *, *, #50, .F. ) ;
#182 = SURFACE_SIDE_STYLE ('',( #227 ) ) ;
#183 = ORIENTED_EDGE ( 'NONE', *, *, #133, .F. ) ;
#184 = DIRECTION ( 'NONE',  ( -1.000000000000000000, 0.000000000000000000, 0.000000000000000000 ) ) ;
#185 = CARTESIAN_POINT ( 'NONE',  ( 1.530808498934191509E-17, 0.000000000000000000, 0.1250000000000000000 ) ) ;
#186 = ADVANCED_FACE ( 'NONE', ( #11 ), #3, .F. ) ;
#187 = CARTESIAN_POINT ( 'NONE',  ( -0.1250000000000000000, 0.5000000000000001110, 0.000000000000000000 ) ) ;
#188 = CARTESIAN_POINT ( 'NONE',  ( 0.000000000000000000, 0.5000000000000000000, 0.000000000000000000 ) ) ;
#189 = MECHANICAL_DESIGN_GEOMETRIC_PRESENTATION_REPRESENTATION (  '', ( #284 ), #266 ) ;
#190 = DIMENSIONAL_EXPONENTS ( 1.000000000000000000, 0.000000000000000000, 0.000000000000000000, 0.000000000000000000, 0.000000000000000000, 0.000000000000000000, 0.000000000000000000 ) ;
#191 = LENGTH_MEASURE_WITH_UNIT ( LENGTH_MEASURE( 0.02539999999999999897 ), #176 );
#192 = DIRECTION ( 'NONE',  ( -1.000000000000000000, 0.000000000000000000, 0.000000000000000000 ) ) ;
#193 = PRODUCT_DEFINITION_FORMATION_WITH_SPECIFIED_SOURCE ( 'ANY', '', #154, .NOT_KNOWN. ) ;
#194 = VECTOR ( 'NONE', #129, 39.37007874015748143 ) ;
#195 = UNCERTAINTY_MEASURE_WITH_UNIT (LENGTH_MEASURE( 1.000000000000000082E-05 ), #292, 'distance_accuracy_value', 'NONE');
#196 =( LENGTH_UNIT ( ) NAMED_UNIT ( * ) SI_UNIT ( $, .METRE. ) );
#197 = ORIENTED_EDGE ( 'NONE', *, *, #199, .T. ) ;
#198 =( NAMED_UNIT ( * ) PLANE_ANGLE_UNIT ( ) SI_UNIT ( $, .RADIAN. ) );
#199 = EDGE_CURVE ( 'NONE', #16, #132, #289, .T. ) ;
#200 = FACE_OUTER_BOUND ( 'NONE', #205, .T. ) ;
#201 = DIRECTION ( 'NONE',  ( 0.000000000000000000, -0.000000000000000000, 1.000000000000000000 ) ) ;
#202 = COLOUR_RGB ( '',1.000000000000000000, 0.000000000000000000, 0.000000000000000000 ) ;
#203 =( NAMED_UNIT ( * ) PLANE_ANGLE_UNIT ( ) SI_UNIT ( $, .RADIAN. ) );
#204 =( CONVERSION_BASED_UNIT ( 'INCH', #263 ) LENGTH_UNIT ( ) NAMED_UNIT ( #304 ) );
#205 = EDGE_LOOP ( 'NONE', ( #183, #9 ) ) ;
#206 = FILL_AREA_STYLE_COLOUR ( '', #202 ) ;
#207 = APPLICATION_CONTEXT ( 'automotive_design' ) ;
#208 =( GEOMETRIC_REPRESENTATION_CONTEXT ( 3 ) GLOBAL_UNCERTAINTY_ASSIGNED_CONTEXT ( ( #165 ) ) GLOBAL_UNIT_ASSIGNED_CONTEXT ( ( #204, #127, #72 ) ) REPRESENTATION_CONTEXT ( 'NONE', 'WORKASPACE' ) );
#209 = CYLINDRICAL_SURFACE ( 'NONE', #283, 0.1250000000000000000 ) ;
#210 = DIRECTION ( 'NONE',  ( 4.082155997157844435E-17, 1.000000000000000000, -0.000000000000000000 ) ) ;
#211 = EDGE_LOOP ( 'NONE', ( #105, #40 ) ) ;
#212 = CARTESIAN_POINT ( 'NONE',  ( 1.530808498934191509E-17, 0.000000000000000000, 0.1250000000000000000 ) ) ;
#213 = ORIENTED_EDGE ( 'NONE', *, *, #112, .T. ) ;
#214 = CIRCLE ( 'NONE', #15, 0.1250000000000000000 ) ;
#215 =( NAMED_UNIT ( * ) PLANE_ANGLE_UNIT ( ) SI_UNIT ( $, .RADIAN. ) );
#216 = EDGE_LOOP ( 'NONE', ( #291, #108, #255, #130 ) ) ;
#217 = AXIS2_PLACEMENT_3D ( 'NONE', #265, #158, #12 ) ;
#218 = DIRECTION ( 'NONE',  ( -1.000000000000000000, 0.000000000000000000, 0.000000000000000000 ) ) ;
#219 =( CONVERSION_BASED_UNIT ( 'INCH', #147 ) LENGTH_UNIT ( ) NAMED_UNIT ( #226 ) );
#220 = VECTOR ( 'NONE', #98, 39.37007874015748143 ) ;
#221 = DIRECTION ( 'NONE',  ( 4.082155997157844435E-17, 1.000000000000000000, -0.000000000000000000 ) ) ;
#222 = PRESENTATION_STYLE_ASSIGNMENT (( #276 ) ) ;
#223 = CARTESIAN_POINT ( 'NONE',  ( 0.1250000000000000278, 2.000000000000000000, 1.530808498934191201E-17 ) ) ;
#224 = CIRCLE ( 'NONE', #90, 0.1250000000000000000 ) ;
#225 = EDGE_CURVE ( 'NONE', #17, #76, #57, .T. ) ;
#226 = DIMENSIONAL_EXPONENTS ( 1.000000000000000000, 0.000000000000000000, 0.000000000000000000, 0.000000000000000000, 0.000000000000000000, 0.000000000000000000, 0.000000000000000000 ) ;
#227 = SURFACE_STYLE_FILL_AREA ( #156 ) ;
#228 = FACE_OUTER_BOUND ( 'NONE', #216, .T. ) ;
#229 = CARTESIAN_POINT ( 'NONE',  ( 0.000000000000000000, 0.000000000000000000, 0.000000000000000000 ) ) ;
#230 = ORIENTED_EDGE ( 'NONE', *, *, #225, .F. ) ;
#231 = AXIS2_PLACEMENT_3D ( 'NONE', #26, #308, #71 ) ;
#232 = EDGE_CURVE ( 'NONE', #157, #279, #140, .T. ) ;
#233 = EDGE_LOOP ( 'NONE', ( #31, #75, #92, #111 ) ) ;
#234 = ADVANCED_FACE ( 'NONE', ( #151 ), #128, .T. ) ;
#235 = PRESENTATION_STYLE_ASSIGNMENT (( #135 ) ) ;
#236 = STYLED_ITEM ( 'NONE', ( #8 ), #241 ) ;
#237 = ADVANCED_FACE ( 'NONE', ( #53 ), #144, .T. ) ;
#238 = SHAPE_DEFINITION_REPRESENTATION ( #37, #39 ) ;
#239 = UNCERTAINTY_MEASURE_WITH_UNIT (LENGTH_MEASURE( 1.000000000000000082E-05 ), #307, 'distance_accuracy_value', 'NONE');
#240 = AXIS2_PLACEMENT_3D ( 'NONE', #149, #248, #153 ) ;
#241 = ADVANCED_FACE ( 'NONE', ( #81 ), #209, .T. ) ;
#242 = DIRECTION ( 'NONE',  ( 0.000000000000000000, 0.000000000000000000, -1.000000000000000000 ) ) ;
#243 = CARTESIAN_POINT ( 'NONE',  ( 0.000000000000000000, 0.5000000000000000000, -0.1250000000000000000 ) ) ;
#244 = FACE_OUTER_BOUND ( 'NONE', #58, .T. ) ;
#245 = PRESENTATION_STYLE_ASSIGNMENT (( #118 ) ) ;
#246 = FILL_AREA_STYLE_COLOUR ( '', #55 ) ;
#247 = SURFACE_STYLE_FILL_AREA ( #146 ) ;
#248 = DIRECTION ( 'NONE',  ( 4.082155997157844435E-17, 1.000000000000000000, -0.000000000000000000 ) ) ;
#249 = SURFACE_SIDE_STYLE ('',( #253 ) ) ;
#250 =( CONVERSION_BASED_UNIT ( 'INCH', #13 ) LENGTH_UNIT ( ) NAMED_UNIT ( #170 ) );
#251 = EDGE_LOOP ( 'NONE', ( #178, #38 ) ) ;
#252 = DIRECTION ( 'NONE',  ( 4.082155997157844435E-17, 1.000000000000000000, -0.000000000000000000 ) ) ;
#253 = SURFACE_STYLE_FILL_AREA ( #103 ) ;
#254 = ORIENTED_EDGE ( 'NONE', *, *, #133, .T. ) ;
#255 = ORIENTED_EDGE ( 'NONE', *, *, #232, .F. ) ;
#256 = CARTESIAN_POINT ( 'NONE',  ( 0.1250000000000000278, 2.000000000000000000, 1.530808498934191509E-17 ) ) ;
#257 = VERTEX_POINT ( 'NONE', #256 ) ;
#258 = COLOUR_RGB ( '',0.7921568627450980005, 0.8196078431372548767, 0.9333333333333333481 ) ;
#259 = LINE ( 'NONE', #185, #220 ) ;
#260 = EDGE_CURVE ( 'NONE', #163, #17, #66, .T. ) ;
#261 = DIRECTION ( 'NONE',  ( 0.000000000000000000, 0.000000000000000000, 1.000000000000000000 ) ) ;
#262 =( LENGTH_UNIT ( ) NAMED_UNIT ( * ) SI_UNIT ( $, .METRE. ) );
#263 = LENGTH_MEASURE_WITH_UNIT ( LENGTH_MEASURE( 0.02539999999999999897 ), #196 );
#264 = EDGE_CURVE ( 'NONE', #16, #279, #259, .T. ) ;
#265 = CARTESIAN_POINT ( 'NONE',  ( 0.000000000000000000, 0.000000000000000000, 0.000000000000000000 ) ) ;
#266 =( GEOMETRIC_REPRESENTATION_CONTEXT ( 3 ) GLOBAL_UNCERTAINTY_ASSIGNED_CONTEXT ( ( #88 ) ) GLOBAL_UNIT_ASSIGNED_CONTEXT ( ( #49, #215, #138 ) ) REPRESENTATION_CONTEXT ( 'NONE', 'WORKASPACE' ) );
#267 = LINE ( 'NONE', #223, #44 ) ;
#268 = DIRECTION ( 'NONE',  ( 0.000000000000000000, 1.000000000000000000, 0.000000000000000000 ) ) ;
#269 = SURFACE_SIDE_STYLE ('',( #247 ) ) ;
#270 = MECHANICAL_DESIGN_GEOMETRIC_PRESENTATION_REPRESENTATION (  '', ( #34 ), #208 ) ;
#271 = CARTESIAN_POINT ( 'NONE',  ( 0.000000000000000000, 0.5000000000000001110, 0.000000000000000000 ) ) ;
#272 = ADVANCED_FACE ( 'NONE', ( #200 ), #119, .F. ) ;
#273 = DIRECTION ( 'NONE',  ( -1.000000000000000000, 0.000000000000000000, 0.000000000000000000 ) ) ;
#274 = DIRECTION ( 'NONE',  ( -1.000000000000000000, 4.082155997157844435E-17, 0.000000000000000000 ) ) ;
#275 = PRESENTATION_LAYER_ASSIGNMENT (  '', '', ( #236 ) ) ;
#276 = SURFACE_STYLE_USAGE ( .BOTH. , #123 ) ;
#277 = DIRECTION ( 'NONE',  ( -0.000000000000000000, -1.000000000000000000, -0.000000000000000000 ) ) ;
#278 = PRESENTATION_STYLE_ASSIGNMENT (( #86 ) ) ;
#279 = VERTEX_POINT ( 'NONE', #212 ) ;
#280 = CIRCLE ( 'NONE', #240, 0.1249999999999999306 ) ;
#281 = PRODUCT_DEFINITION_CONTEXT ( 'detailed design', #207, 'design' ) ;
#282 = DIRECTION ( 'NONE',  ( -0.000000000000000000, -1.000000000000000000, -0.000000000000000000 ) ) ;
#283 = AXIS2_PLACEMENT_3D ( 'NONE', #100, #277, #77 ) ;
#284 = STYLED_ITEM ( 'NONE', ( #235 ), #172 ) ;
#285 = PRODUCT_CONTEXT ( 'NONE', #45, 'mechanical' ) ;
#286 =( NAMED_UNIT ( * ) PLANE_ANGLE_UNIT ( ) SI_UNIT ( $, .RADIAN. ) );
#287 = PRESENTATION_LAYER_ASSIGNMENT (  '', '', ( #96 ) ) ;
#288 = AXIS2_PLACEMENT_3D ( 'NONE', #229, #104, #61 ) ;
#289 = CIRCLE ( 'NONE', #113, 0.1250000000000000000 ) ;
#290 =( LENGTH_UNIT ( ) NAMED_UNIT ( * ) SI_UNIT ( $, .METRE. ) );
#291 = ORIENTED_EDGE ( 'NONE', *, *, #50, .T. ) ;
#292 =( CONVERSION_BASED_UNIT ( 'INCH', #293 ) LENGTH_UNIT ( ) NAMED_UNIT ( #190 ) );
#293 = LENGTH_MEASURE_WITH_UNIT ( LENGTH_MEASURE( 0.02539999999999999897 ), #106 );
#294 = DIRECTION ( 'NONE',  ( 0.000000000000000000, 0.000000000000000000, -1.000000000000000000 ) ) ;
#295 = DIRECTION ( 'NONE',  ( 0.000000000000000000, 0.000000000000000000, -1.000000000000000000 ) ) ;
#296 = EDGE_LOOP ( 'NONE', ( #181, #125 ) ) ;
#297 =( CONVERSION_BASED_UNIT ( 'INCH', #60 ) LENGTH_UNIT ( ) NAMED_UNIT ( #139 ) );
#298 = CLOSED_SHELL ( 'NONE', ( #32, #234, #241, #172 ) ) ;
#299 = COLOUR_RGB ( '',0.7921568627450980005, 0.8196078431372548767, 0.9333333333333333481 ) ;
#300 = SURFACE_STYLE_FILL_AREA ( #169 ) ;
#301 = CARTESIAN_POINT ( 'NONE',  ( 0.000000000000000000, 0.000000000000000000, 0.000000000000000000 ) ) ;
#302 = UNCERTAINTY_MEASURE_WITH_UNIT (LENGTH_MEASURE( 1.000000000000000082E-05 ), #250, 'distance_accuracy_value', 'NONE');
#303 = LENGTH_MEASURE_WITH_UNIT ( LENGTH_MEASURE( 0.02539999999999999897 ), #262 );
#304 = DIMENSIONAL_EXPONENTS ( 1.000000000000000000, 0.000000000000000000, 0.000000000000000000, 0.000000000000000000, 0.000000000000000000, 0.000000000000000000, 0.000000000000000000 ) ;
#305 = AXIS2_PLACEMENT_3D ( 'NONE', #2, #282, #242 ) ;
#306 = FILL_AREA_STYLE_COLOUR ( '', #168 ) ;
#307 =( CONVERSION_BASED_UNIT ( 'INCH', #191 ) LENGTH_UNIT ( ) NAMED_UNIT ( #87 ) );
#308 = DIRECTION ( 'NONE',  ( 0.000000000000000000, -1.000000000000000000, -0.000000000000000000 ) ) ;
#309 = CARTESIAN_POINT ( 'NONE',  ( 0.000000000000000000, 0.000000000000000000, -0.1250000000000000000 ) ) ;
ENDSEC;
END-ISO-10303-21;
