ISO-10303-21;
HEADER;
FILE_DESCRIPTION (( 'STEP AP214' ),
    '1' );
FILE_NAME ('Micro_SFPM-040-70.STEP',
    '2021-09-02T07:03:23',
    ( '' ),
    ( '' ),
    'SwSTEP 2.0',
    'SolidWorks 2020',
    '' );
FILE_SCHEMA (( 'AUTOMOTIVE_DESIGN' ));
ENDSEC;

DATA;
#1 = PLANE ( 'NONE',  #200 ) ;
#2 = PRODUCT ( 'Micro_SFPM-040-70', 'Micro_SFPM-040-70', '', ( #17 ) ) ;
#3 = APPLICATION_CONTEXT ( 'automotive_design' ) ;
#4 = EDGE_CURVE ( 'NONE', #201, #178, #246, .T. ) ;
#5 = CARTESIAN_POINT ( 'NONE',  ( 0.0000000000000000000, 0.0000000000000000000, 2.952755999999999936 ) ) ;
#6 = CIRCLE ( 'NONE', #208, 0.1181100000000000066 ) ;
#7 = DIRECTION ( 'NONE',  ( 0.0000000000000000000, 0.0000000000000000000, -1.000000000000000000 ) ) ;
#8 = DIRECTION ( 'NONE',  ( 1.000000000000000000, 0.0000000000000000000, 0.0000000000000000000 ) ) ;
#9 = DIMENSIONAL_EXPONENTS ( 1.000000000000000000, 0.0000000000000000000, 0.0000000000000000000, 0.0000000000000000000, 0.0000000000000000000, 0.0000000000000000000, 0.0000000000000000000 ) ;
#10 = CARTESIAN_POINT ( 'NONE',  ( 0.0000000000000000000, 0.0000000000000000000, 2.952755999999999936 ) ) ;
#11 = FACE_OUTER_BOUND ( 'NONE', #234, .T. ) ;
#12 = CARTESIAN_POINT ( 'NONE',  ( 0.0000000000000000000, 0.0000000000000000000, 2.937755999999999368 ) ) ;
#13 = EDGE_CURVE ( 'NONE', #106, #231, #296, .T. ) ;
#14 = AXIS2_PLACEMENT_3D ( 'NONE', #122, #236, #238 ) ;
#15 = FILL_AREA_STYLE_COLOUR ( '', #147 ) ;
#16 = AXIS2_PLACEMENT_3D ( 'NONE', #180, #99, #119 ) ;
#17 = PRODUCT_CONTEXT ( 'NONE', #294, 'mechanical' ) ;
#18 = ORIENTED_EDGE ( 'NONE', *, *, #20, .T. ) ;
#19 = AXIS2_PLACEMENT_3D ( 'NONE', #28, #77, #49 ) ;
#20 = EDGE_CURVE ( 'NONE', #106, #110, #105, .T. ) ;
#21 = ORIENTED_EDGE ( 'NONE', *, *, #153, .T. ) ;
#22 = ORIENTED_EDGE ( 'NONE', *, *, #291, .T. ) ;
#23 = DIRECTION ( 'NONE',  ( -1.224646799147353207E-16, -0.0000000000000000000, -1.000000000000000000 ) ) ;
#24 = CIRCLE ( 'NONE', #186, 0.1031099999999991607 ) ;
#25 = SURFACE_STYLE_FILL_AREA ( #155 ) ;
#26 = ORIENTED_EDGE ( 'NONE', *, *, #278, .F. ) ;
#27 = EDGE_CURVE ( 'NONE', #299, #211, #112, .T. ) ;
#28 = CARTESIAN_POINT ( 'NONE',  ( 9.642893389422242582E-17, 0.0000000000000000000, 0.7874019999999999353 ) ) ;
#29 = CYLINDRICAL_SURFACE ( 'NONE', #292, 0.07866125999999999674 ) ;
#30 = ORIENTED_EDGE ( 'NONE', *, *, #4, .F. ) ;
#31 = CIRCLE ( 'NONE', #78, 0.1031099999999991607 ) ;
#32 = CARTESIAN_POINT ( 'NONE',  ( 0.1031099999999991607, 1.262733314600825571E-17, 2.952755999999999936 ) ) ;
#33 = ORIENTED_EDGE ( 'NONE', *, *, #4, .T. ) ;
#34 = DIRECTION ( 'NONE',  ( 1.224646799147353207E-16, 0.0000000000000000000, 1.000000000000000000 ) ) ;
#35 = FACE_OUTER_BOUND ( 'NONE', #206, .T. ) ;
#36 = PRESENTATION_LAYER_ASSIGNMENT (  '', '', ( #113 ) ) ;
#37 = CARTESIAN_POINT ( 'NONE',  ( 0.0000000000000000000, 0.0000000000000000000, 2.952755999999999936 ) ) ;
#38 = ORIENTED_EDGE ( 'NONE', *, *, #287, .T. ) ;
#39 =( CONVERSION_BASED_UNIT ( 'INCH', #171 ) LENGTH_UNIT ( ) NAMED_UNIT ( #169 ) );
#40 =( NAMED_UNIT ( * ) SI_UNIT ( $, .STERADIAN. ) SOLID_ANGLE_UNIT ( ) );
#41 = AXIS2_PLACEMENT_3D ( 'NONE', #121, #212, #166 ) ;
#42 =( NAMED_UNIT ( * ) SI_UNIT ( $, .STERADIAN. ) SOLID_ANGLE_UNIT ( ) );
#43 = ORIENTED_EDGE ( 'NONE', *, *, #228, .F. ) ;
#44 = CONICAL_SURFACE ( 'NONE', #16, 0.1031099999999991607, 0.7853981633974500554 ) ;
#45 = CARTESIAN_POINT ( 'NONE',  ( 9.642893389422242582E-17, 0.0000000000000000000, 0.7874019999999999353 ) ) ;
#46 = CARTESIAN_POINT ( 'NONE',  ( 0.07866126000000009388, 0.0000000000000000000, 0.7874019999999999353 ) ) ;
#47 = APPLICATION_PROTOCOL_DEFINITION ( 'draft international standard', 'automotive_design', 1998, #294 ) ;
#48 = ORIENTED_EDGE ( 'NONE', *, *, #295, .T. ) ;
#49 = DIRECTION ( 'NONE',  ( -1.000000000000000000, 0.0000000000000000000, 0.0000000000000000000 ) ) ;
#50 = PLANE ( 'NONE',  #154 ) ;
#51 = EDGE_LOOP ( 'NONE', ( #134, #21, #197, #109 ) ) ;
#52 = DIRECTION ( 'NONE',  ( -1.000000000000000000, 0.0000000000000000000, 1.224646799147352961E-16 ) ) ;
#53 = ADVANCED_BREP_SHAPE_REPRESENTATION ( 'Micro_SFPM-040-70', ( #237, #115 ), #276 ) ;
#54 = CIRCLE ( 'NONE', #19, 0.07866125999999999674 ) ;
#55 = CARTESIAN_POINT ( 'NONE',  ( -0.07866125999999999674, 0.0000000000000000000, 1.926645205517954173E-17 ) ) ;
#56 = CARTESIAN_POINT ( 'NONE',  ( 0.07866126000000009388, 0.0000000000000000000, 0.7874019999999999353 ) ) ;
#57 = ADVANCED_FACE ( 'NONE', ( #176 ), #1, .F. ) ;
#58 = CARTESIAN_POINT ( 'NONE',  ( -0.1031099999999991607, 0.0000000000000000000, 2.952755999999999936 ) ) ;
#59 = ORIENTED_EDGE ( 'NONE', *, *, #256, .T. ) ;
#60 = STYLED_ITEM ( 'NONE', ( #129 ), #53 ) ;
#61 = DIRECTION ( 'NONE',  ( -0.1736481776669311639, 2.126576849575783008E-17, 0.9848077530122080203 ) ) ;
#62 = AXIS2_PLACEMENT_3D ( 'NONE', #190, #82, #63 ) ;
#63 = DIRECTION ( 'NONE',  ( -1.000000000000000000, 0.0000000000000000000, 1.224646799147352961E-16 ) ) ;
#64 = DIRECTION ( 'NONE',  ( 1.000000000000000000, 0.0000000000000000000, 0.0000000000000000000 ) ) ;
#65 = SHAPE_DEFINITION_REPRESENTATION ( #277, #53 ) ;
#66 = EDGE_CURVE ( 'NONE', #110, #178, #250, .T. ) ;
#67 = VERTEX_POINT ( 'NONE', #274 ) ;
#68 = DIRECTION ( 'NONE',  ( -1.224646799147353207E-16, -0.0000000000000000000, -1.000000000000000000 ) ) ;
#69 = CONICAL_SURFACE ( 'NONE', #14, 0.07866125999999999674, 0.1745329251994338637 ) ;
#70 =( GEOMETRIC_REPRESENTATION_CONTEXT ( 3 ) GLOBAL_UNCERTAINTY_ASSIGNED_CONTEXT ( ( #252 ) ) GLOBAL_UNIT_ASSIGNED_CONTEXT ( ( #150, #196, #42 ) ) REPRESENTATION_CONTEXT ( 'NONE', 'WORKASPACE' ) );
#71 = DIRECTION ( 'NONE',  ( 0.0000000000000000000, 0.0000000000000000000, 1.000000000000000000 ) ) ;
#72 = ORIENTED_EDGE ( 'NONE', *, *, #153, .F. ) ;
#73 = CARTESIAN_POINT ( 'NONE',  ( 0.0000000000000000000, 0.0000000000000000000, 0.0000000000000000000 ) ) ;
#74 = CARTESIAN_POINT ( 'NONE',  ( 0.0000000000000000000, 0.0000000000000000000, 0.0000000000000000000 ) ) ;
#75 = CARTESIAN_POINT ( 'NONE',  ( -0.07866125999999988572, 1.204876468615957931E-17, 0.7874019999999999353 ) ) ;
#76 = ORIENTED_EDGE ( 'NONE', *, *, #20, .F. ) ;
#77 = DIRECTION ( 'NONE',  ( -1.224646799147353207E-16, -0.0000000000000000000, -1.000000000000000000 ) ) ;
#78 = AXIS2_PLACEMENT_3D ( 'NONE', #5, #213, #232 ) ;
#79 = DIRECTION ( 'NONE',  ( 1.000000000000000000, 0.0000000000000000000, 0.0000000000000000000 ) ) ;
#80 = ADVANCED_FACE ( 'NONE', ( #251 ), #69, .T. ) ;
#81 = CARTESIAN_POINT ( 'NONE',  ( -0.07866125999999988572, 9.633226027589770864E-18, 0.7874019999999999353 ) ) ;
#82 = DIRECTION ( 'NONE',  ( -1.224646799147353207E-16, -0.0000000000000000000, -1.000000000000000000 ) ) ;
#83 = VECTOR ( 'NONE', #266, 39.37007874015748143 ) ;
#84 = PRODUCT_DEFINITION ( 'UNKNOWN', '', #96, #181 ) ;
#85 = UNCERTAINTY_MEASURE_WITH_UNIT (LENGTH_MEASURE( 1.000000000000000082E-05 ), #126, 'distance_accuracy_value', 'NONE');
#86 = VERTEX_POINT ( 'NONE', #98 ) ;
#87 = DIRECTION ( 'NONE',  ( -1.224646799147353207E-16, -0.0000000000000000000, -1.000000000000000000 ) ) ;
#88 =( LENGTH_UNIT ( ) NAMED_UNIT ( * ) SI_UNIT ( $, .METRE. ) );
#89 = EDGE_CURVE ( 'NONE', #110, #106, #54, .T. ) ;
#90 = EDGE_LOOP ( 'NONE', ( #183, #275, #139, #92 ) ) ;
#91 = CARTESIAN_POINT ( 'NONE',  ( 0.1181100000000000066, 1.446430334472939084E-17, 2.952755999999999936 ) ) ;
#92 = ORIENTED_EDGE ( 'NONE', *, *, #295, .F. ) ;
#93 = CARTESIAN_POINT ( 'NONE',  ( 0.0000000000000000000, 0.0000000000000000000, 0.0000000000000000000 ) ) ;
#94 = DIRECTION ( 'NONE',  ( 0.0000000000000000000, 0.0000000000000000000, -1.000000000000000000 ) ) ;
#95 = CONICAL_SURFACE ( 'NONE', #267, 0.07866125999999999674, 0.1745329251994338637 ) ;
#96 = PRODUCT_DEFINITION_FORMATION_WITH_SPECIFIED_SOURCE ( 'ANY', '', #2, .NOT_KNOWN. ) ;
#97 = ADVANCED_FACE ( 'NONE', ( #11 ), #279, .T. ) ;
#98 = CARTESIAN_POINT ( 'NONE',  ( 0.1031099999999991607, 1.354581824536882251E-17, 2.952755999999999936 ) ) ;
#99 = DIRECTION ( 'NONE',  ( 0.0000000000000000000, 0.0000000000000000000, -1.000000000000000000 ) ) ;
#100 = FACE_OUTER_BOUND ( 'NONE', #174, .T. ) ;
#101 = VECTOR ( 'NONE', #61, 39.37007874015747433 ) ;
#102 = CYLINDRICAL_SURFACE ( 'NONE', #168, 0.1181100000000000066 ) ;
#103 =( NAMED_UNIT ( * ) PLANE_ANGLE_UNIT ( ) SI_UNIT ( $, .RADIAN. ) );
#104 =( LENGTH_UNIT ( ) NAMED_UNIT ( * ) SI_UNIT ( $, .METRE. ) );
#105 = CIRCLE ( 'NONE', #289, 0.07866125999999999674 ) ;
#106 = VERTEX_POINT ( 'NONE', #75 ) ;
#107 =( LENGTH_UNIT ( ) NAMED_UNIT ( * ) SI_UNIT ( $, .METRE. ) );
#108 = DIRECTION ( 'NONE',  ( 0.0000000000000000000, 0.0000000000000000000, 1.000000000000000000 ) ) ;
#109 = ORIENTED_EDGE ( 'NONE', *, *, #27, .F. ) ;
#110 = VERTEX_POINT ( 'NONE', #56 ) ;
#111 = ADVANCED_FACE ( 'NONE', ( #210 ), #95, .T. ) ;
#112 = LINE ( 'NONE', #151, #230 ) ;
#113 = STYLED_ITEM ( 'NONE', ( #189 ), #237 ) ;
#114 = EDGE_LOOP ( 'NONE', ( #22, #48 ) ) ;
#115 = AXIS2_PLACEMENT_3D ( 'NONE', #221, #273, #64 ) ;
#116 = ORIENTED_EDGE ( 'NONE', *, *, #268, .F. ) ;
#117 = CARTESIAN_POINT ( 'NONE',  ( 0.0000000000000000000, 0.0000000000000000000, 2.952755999999999936 ) ) ;
#118 = EDGE_CURVE ( 'NONE', #178, #67, #127, .T. ) ;
#119 = DIRECTION ( 'NONE',  ( -1.000000000000000000, 0.0000000000000000000, 0.0000000000000000000 ) ) ;
#120 = MECHANICAL_DESIGN_GEOMETRIC_PRESENTATION_REPRESENTATION (  '', ( #113 ), #172 ) ;
#121 = CARTESIAN_POINT ( 'NONE',  ( 0.0000000000000000000, 0.0000000000000000000, 2.952755999999999936 ) ) ;
#122 = CARTESIAN_POINT ( 'NONE',  ( 9.642893389422242582E-17, 0.0000000000000000000, 0.7874019999999999353 ) ) ;
#123 = DIRECTION ( 'NONE',  ( 0.7071067811865486830, 8.659560562354947649E-17, -0.7071067811865462405 ) ) ;
#124 = AXIS2_PLACEMENT_3D ( 'NONE', #74, #162, #138 ) ;
#125 = LINE ( 'NONE', #81, #101 ) ;
#126 =( CONVERSION_BASED_UNIT ( 'INCH', #288 ) LENGTH_UNIT ( ) NAMED_UNIT ( #9 ) );
#127 = CIRCLE ( 'NONE', #218, 0.1181100000000000066 ) ;
#128 = LINE ( 'NONE', #219, #283 ) ;
#129 = PRESENTATION_STYLE_ASSIGNMENT (( #245 ) ) ;
#130 = ORIENTED_EDGE ( 'NONE', *, *, #291, .F. ) ;
#131 = CLOSED_SHELL ( 'NONE', ( #223, #111, #215, #97, #194, #143, #207, #80, #202, #57 ) ) ;
#132 = EDGE_LOOP ( 'NONE', ( #72, #244, #222, #43 ) ) ;
#133 = APPLICATION_PROTOCOL_DEFINITION ( 'draft international standard', 'automotive_design', 1998, #3 ) ;
#134 = ORIENTED_EDGE ( 'NONE', *, *, #167, .F. ) ;
#135 = ORIENTED_EDGE ( 'NONE', *, *, #249, .T. ) ;
#136 = ORIENTED_EDGE ( 'NONE', *, *, #167, .T. ) ;
#137 = CYLINDRICAL_SURFACE ( 'NONE', #124, 0.07866125999999999674 ) ;
#138 = DIRECTION ( 'NONE',  ( -1.000000000000000000, 0.0000000000000000000, 1.224646799147352961E-16 ) ) ;
#139 = ORIENTED_EDGE ( 'NONE', *, *, #13, .T. ) ;
#140 = FACE_OUTER_BOUND ( 'NONE', #51, .T. ) ;
#141 = CIRCLE ( 'NONE', #160, 0.07866125999999999674 ) ;
#142 = CIRCLE ( 'NONE', #62, 0.07866125999999999674 ) ;
#143 = ADVANCED_FACE ( 'NONE', ( #35 ), #50, .T. ) ;
#144 = LINE ( 'NONE', #220, #83 ) ;
#145 = CARTESIAN_POINT ( 'NONE',  ( 9.642893389422242582E-17, 0.0000000000000000000, 0.7874019999999999353 ) ) ;
#146 = DIRECTION ( 'NONE',  ( 1.000000000000000000, 0.0000000000000000000, 0.0000000000000000000 ) ) ;
#147 = COLOUR_RGB ( '',0.7921568627450980005, 0.8196078431372548767, 0.9333333333333333481 ) ;
#148 = AXIS2_PLACEMENT_3D ( 'NONE', #286, #87, #146 ) ;
#149 = SURFACE_SIDE_STYLE ('',( #217 ) ) ;
#150 =( CONVERSION_BASED_UNIT ( 'INCH', #298 ) LENGTH_UNIT ( ) NAMED_UNIT ( #203 ) );
#151 = CARTESIAN_POINT ( 'NONE',  ( -0.1031099999999991607, 0.0000000000000000000, 2.952755999999999936 ) ) ;
#152 = ORIENTED_EDGE ( 'NONE', *, *, #235, .F. ) ;
#153 = EDGE_CURVE ( 'NONE', #86, #201, #239, .T. ) ;
#154 = AXIS2_PLACEMENT_3D ( 'NONE', #10, #280, #255 ) ;
#155 = FILL_AREA_STYLE ('',( #269 ) ) ;
#156 = ORIENTED_EDGE ( 'NONE', *, *, #118, .T. ) ;
#157 = DIRECTION ( 'NONE',  ( 1.000000000000000000, 0.0000000000000000000, -0.0000000000000000000 ) ) ;
#158 = EDGE_LOOP ( 'NONE', ( #76, #173, #281, #226 ) ) ;
#159 = PRODUCT_RELATED_PRODUCT_CATEGORY ( 'part', '', ( #2 ) ) ;
#160 = AXIS2_PLACEMENT_3D ( 'NONE', #240, #285, #262 ) ;
#161 = FACE_OUTER_BOUND ( 'NONE', #132, .T. ) ;
#162 = DIRECTION ( 'NONE',  ( -1.224646799147353207E-16, -0.0000000000000000000, -1.000000000000000000 ) ) ;
#163 = DIRECTION ( 'NONE',  ( -1.000000000000000000, 0.0000000000000000000, 0.0000000000000000000 ) ) ;
#164 = EDGE_LOOP ( 'NONE', ( #18, #59, #130, #227 ) ) ;
#165 = DIRECTION ( 'NONE',  ( -0.0000000000000000000, -0.0000000000000000000, -1.000000000000000000 ) ) ;
#166 = DIRECTION ( 'NONE',  ( -1.000000000000000000, 0.0000000000000000000, 0.0000000000000000000 ) ) ;
#167 = EDGE_CURVE ( 'NONE', #86, #299, #31, .T. ) ;
#168 = AXIS2_PLACEMENT_3D ( 'NONE', #117, #165, #163 ) ;
#169 = DIMENSIONAL_EXPONENTS ( 1.000000000000000000, 0.0000000000000000000, 0.0000000000000000000, 0.0000000000000000000, 0.0000000000000000000, 0.0000000000000000000, 0.0000000000000000000 ) ;
#170 =( NAMED_UNIT ( * ) PLANE_ANGLE_UNIT ( ) SI_UNIT ( $, .RADIAN. ) );
#171 = LENGTH_MEASURE_WITH_UNIT ( LENGTH_MEASURE( 0.02539999999999999897 ), #104 );
#172 =( GEOMETRIC_REPRESENTATION_CONTEXT ( 3 ) GLOBAL_UNCERTAINTY_ASSIGNED_CONTEXT ( ( #85 ) ) GLOBAL_UNIT_ASSIGNED_CONTEXT ( ( #126, #103, #195 ) ) REPRESENTATION_CONTEXT ( 'NONE', 'WORKASPACE' ) );
#173 = ORIENTED_EDGE ( 'NONE', *, *, #268, .T. ) ;
#174 = EDGE_LOOP ( 'NONE', ( #30, #297, #272, #248 ) ) ;
#175 = VECTOR ( 'NONE', #123, 39.37007874015748854 ) ;
#176 = FACE_OUTER_BOUND ( 'NONE', #114, .T. ) ;
#177 = DIRECTION ( 'NONE',  ( -1.000000000000000000, 0.0000000000000000000, 0.0000000000000000000 ) ) ;
#178 = VERTEX_POINT ( 'NONE', #209 ) ;
#179 = COLOUR_RGB ( '',0.7921568627450980005, 0.8196078431372548767, 0.9333333333333333481 ) ;
#180 = CARTESIAN_POINT ( 'NONE',  ( 0.0000000000000000000, 0.0000000000000000000, 2.952755999999999936 ) ) ;
#181 = PRODUCT_DEFINITION_CONTEXT ( 'detailed design', #3, 'design' ) ;
#182 = CARTESIAN_POINT ( 'NONE',  ( 1.238273348520836934E-16, 0.0000000000000000000, 1.011126921968824810 ) ) ;
#183 = ORIENTED_EDGE ( 'NONE', *, *, #256, .F. ) ;
#184 = CARTESIAN_POINT ( 'NONE',  ( -0.1181100000000000066, 0.0000000000000000000, 2.937755999999999368 ) ) ;
#185 = CARTESIAN_POINT ( 'NONE',  ( 0.0000000000000000000, 0.0000000000000000000, 2.952755999999999936 ) ) ;
#186 = AXIS2_PLACEMENT_3D ( 'NONE', #37, #108, #290 ) ;
#187 = FACE_OUTER_BOUND ( 'NONE', #90, .T. ) ;
#188 = UNCERTAINTY_MEASURE_WITH_UNIT (LENGTH_MEASURE( 1.000000000000000082E-05 ), #39, 'distance_accuracy_value', 'NONE');
#189 = PRESENTATION_STYLE_ASSIGNMENT (( #243 ) ) ;
#190 = CARTESIAN_POINT ( 'NONE',  ( 1.179729942015078748E-33, 0.0000000000000000000, 9.633226027589770864E-18 ) ) ;
#191 = VECTOR ( 'NONE', #68, 39.37007874015748143 ) ;
#192 = CIRCLE ( 'NONE', #148, 0.1181100000000000066 ) ;
#193 = MECHANICAL_DESIGN_GEOMETRIC_PRESENTATION_REPRESENTATION (  '', ( #60 ), #70 ) ;
#194 = ADVANCED_FACE ( 'NONE', ( #100 ), #102, .T. ) ;
#195 =( NAMED_UNIT ( * ) SI_UNIT ( $, .STERADIAN. ) SOLID_ANGLE_UNIT ( ) );
#196 =( NAMED_UNIT ( * ) PLANE_ANGLE_UNIT ( ) SI_UNIT ( $, .RADIAN. ) );
#197 = ORIENTED_EDGE ( 'NONE', *, *, #249, .F. ) ;
#198 = VERTEX_POINT ( 'NONE', #205 ) ;
#199 = DIRECTION ( 'NONE',  ( -0.7071067811865486830, 0.0000000000000000000, -0.7071067811865462405 ) ) ;
#200 = AXIS2_PLACEMENT_3D ( 'NONE', #93, #71, #157 ) ;
#201 = VERTEX_POINT ( 'NONE', #257 ) ;
#202 = ADVANCED_FACE ( 'NONE', ( #187 ), #29, .T. ) ;
#203 = DIMENSIONAL_EXPONENTS ( 1.000000000000000000, 0.0000000000000000000, 0.0000000000000000000, 0.0000000000000000000, 0.0000000000000000000, 0.0000000000000000000, 0.0000000000000000000 ) ;
#204 = DIRECTION ( 'NONE',  ( -0.0000000000000000000, -0.0000000000000000000, -1.000000000000000000 ) ) ;
#205 = CARTESIAN_POINT ( 'NONE',  ( 0.07866125999999999674, 9.633226027589770864E-18, 0.0000000000000000000 ) ) ;
#206 = EDGE_LOOP ( 'NONE', ( #38, #136 ) ) ;
#207 = ADVANCED_FACE ( 'NONE', ( #161 ), #242, .T. ) ;
#208 = AXIS2_PLACEMENT_3D ( 'NONE', #233, #7, #260 ) ;
#209 = CARTESIAN_POINT ( 'NONE',  ( 0.1181100000000001454, 1.446430334472940625E-17, 1.011126921968824810 ) ) ;
#210 = FACE_OUTER_BOUND ( 'NONE', #158, .T. ) ;
#211 = VERTEX_POINT ( 'NONE', #184 ) ;
#212 = DIRECTION ( 'NONE',  ( -0.0000000000000000000, -0.0000000000000000000, -1.000000000000000000 ) ) ;
#213 = DIRECTION ( 'NONE',  ( 0.0000000000000000000, 0.0000000000000000000, 1.000000000000000000 ) ) ;
#214 = VECTOR ( 'NONE', #229, 39.37007874015748143 ) ;
#215 = ADVANCED_FACE ( 'NONE', ( #140 ), #44, .T. ) ;
#216 = FILL_AREA_STYLE ('',( #15 ) ) ;
#217 = SURFACE_STYLE_FILL_AREA ( #216 ) ;
#218 = AXIS2_PLACEMENT_3D ( 'NONE', #182, #261, #8 ) ;
#219 = CARTESIAN_POINT ( 'NONE',  ( 0.07866125999999999674, 9.633226027589770864E-18, -9.633226027589770864E-18 ) ) ;
#220 = CARTESIAN_POINT ( 'NONE',  ( -0.1181100000000000066, 0.0000000000000000000, 2.952755999999999936 ) ) ;
#221 = CARTESIAN_POINT ( 'NONE',  ( 0.0000000000000000000, 0.0000000000000000000, 0.0000000000000000000 ) ) ;
#222 = ORIENTED_EDGE ( 'NONE', *, *, #27, .T. ) ;
#223 = ADVANCED_FACE ( 'NONE', ( #282 ), #137, .T. ) ;
#224 = VECTOR ( 'NONE', #204, 39.37007874015748143 ) ;
#225 = PRESENTATION_LAYER_ASSIGNMENT (  '', '', ( #60 ) ) ;
#226 = ORIENTED_EDGE ( 'NONE', *, *, #66, .F. ) ;
#227 = ORIENTED_EDGE ( 'NONE', *, *, #13, .F. ) ;
#228 = EDGE_CURVE ( 'NONE', #201, #211, #6, .T. ) ;
#229 = DIRECTION ( 'NONE',  ( 0.1736481776669313581, 0.0000000000000000000, 0.9848077530122077983 ) ) ;
#230 = VECTOR ( 'NONE', #199, 39.37007874015748854 ) ;
#231 = VERTEX_POINT ( 'NONE', #55 ) ;
#232 = DIRECTION ( 'NONE',  ( 1.000000000000000000, 0.0000000000000000000, 0.0000000000000000000 ) ) ;
#233 = CARTESIAN_POINT ( 'NONE',  ( 0.0000000000000000000, 0.0000000000000000000, 2.937755999999999368 ) ) ;
#234 = EDGE_LOOP ( 'NONE', ( #135, #33, #26, #152 ) ) ;
#235 = EDGE_CURVE ( 'NONE', #211, #67, #144, .T. ) ;
#236 = DIRECTION ( 'NONE',  ( 1.224646799147353207E-16, 0.0000000000000000000, 1.000000000000000000 ) ) ;
#237 = MANIFOLD_SOLID_BREP ( 'Cut-Revolve1', #131 ) ;
#238 = DIRECTION ( 'NONE',  ( 1.000000000000000000, 0.0000000000000000000, 0.0000000000000000000 ) ) ;
#239 = LINE ( 'NONE', #32, #175 ) ;
#240 = CARTESIAN_POINT ( 'NONE',  ( 1.179729942015078748E-33, 0.0000000000000000000, 9.633226027589770864E-18 ) ) ;
#241 = DIRECTION ( 'NONE',  ( -1.224646799147353207E-16, -0.0000000000000000000, -1.000000000000000000 ) ) ;
#242 = CONICAL_SURFACE ( 'NONE', #264, 0.1031099999999991607, 0.7853981633974500554 ) ;
#243 = SURFACE_STYLE_USAGE ( .BOTH. , #149 ) ;
#244 = ORIENTED_EDGE ( 'NONE', *, *, #287, .F. ) ;
#245 = SURFACE_STYLE_USAGE ( .BOTH. , #247 ) ;
#246 = LINE ( 'NONE', #91, #224 ) ;
#247 = SURFACE_SIDE_STYLE ('',( #25 ) ) ;
#248 = ORIENTED_EDGE ( 'NONE', *, *, #118, .F. ) ;
#249 = EDGE_CURVE ( 'NONE', #211, #201, #259, .T. ) ;
#250 = LINE ( 'NONE', #46, #214 ) ;
#251 = FACE_OUTER_BOUND ( 'NONE', #258, .T. ) ;
#252 = UNCERTAINTY_MEASURE_WITH_UNIT (LENGTH_MEASURE( 1.000000000000000082E-05 ), #150, 'distance_accuracy_value', 'NONE');
#253 = AXIS2_PLACEMENT_3D ( 'NONE', #12, #265, #263 ) ;
#254 = DIRECTION ( 'NONE',  ( -1.000000000000000000, 0.0000000000000000000, 0.0000000000000000000 ) ) ;
#255 = DIRECTION ( 'NONE',  ( 1.000000000000000000, 0.0000000000000000000, -0.0000000000000000000 ) ) ;
#256 = EDGE_CURVE ( 'NONE', #110, #198, #128, .T. ) ;
#257 = CARTESIAN_POINT ( 'NONE',  ( 0.1181100000000000066, 1.446430334472939084E-17, 2.937755999999999368 ) ) ;
#258 = EDGE_LOOP ( 'NONE', ( #116, #270, #293, #156 ) ) ;
#259 = CIRCLE ( 'NONE', #253, 0.1181100000000000066 ) ;
#260 = DIRECTION ( 'NONE',  ( 1.000000000000000000, 0.0000000000000000000, 0.0000000000000000000 ) ) ;
#261 = DIRECTION ( 'NONE',  ( -1.224646799147353207E-16, -0.0000000000000000000, -1.000000000000000000 ) ) ;
#262 = DIRECTION ( 'NONE',  ( -1.000000000000000000, 0.0000000000000000000, 1.224646799147352961E-16 ) ) ;
#263 = DIRECTION ( 'NONE',  ( 1.000000000000000000, 0.0000000000000000000, 0.0000000000000000000 ) ) ;
#264 = AXIS2_PLACEMENT_3D ( 'NONE', #185, #94, #254 ) ;
#265 = DIRECTION ( 'NONE',  ( 0.0000000000000000000, 0.0000000000000000000, -1.000000000000000000 ) ) ;
#266 = DIRECTION ( 'NONE',  ( -0.0000000000000000000, -0.0000000000000000000, -1.000000000000000000 ) ) ;
#267 = AXIS2_PLACEMENT_3D ( 'NONE', #145, #34, #79 ) ;
#268 = EDGE_CURVE ( 'NONE', #106, #67, #125, .T. ) ;
#269 = FILL_AREA_STYLE_COLOUR ( '', #179 ) ;
#270 = ORIENTED_EDGE ( 'NONE', *, *, #89, .F. ) ;
#271 = CARTESIAN_POINT ( 'NONE',  ( -0.07866125999999999674, 0.0000000000000000000, 9.633226027589770864E-18 ) ) ;
#272 = ORIENTED_EDGE ( 'NONE', *, *, #235, .T. ) ;
#273 = DIRECTION ( 'NONE',  ( 0.0000000000000000000, 0.0000000000000000000, 1.000000000000000000 ) ) ;
#274 = CARTESIAN_POINT ( 'NONE',  ( -0.1181099999999998956, 0.0000000000000000000, 1.011126921968824810 ) ) ;
#275 = ORIENTED_EDGE ( 'NONE', *, *, #89, .T. ) ;
#276 =( GEOMETRIC_REPRESENTATION_CONTEXT ( 3 ) GLOBAL_UNCERTAINTY_ASSIGNED_CONTEXT ( ( #188 ) ) GLOBAL_UNIT_ASSIGNED_CONTEXT ( ( #39, #170, #40 ) ) REPRESENTATION_CONTEXT ( 'NONE', 'WORKASPACE' ) );
#277 = PRODUCT_DEFINITION_SHAPE ( 'NONE', 'NONE',  #84 ) ;
#278 = EDGE_CURVE ( 'NONE', #67, #178, #192, .T. ) ;
#279 = CYLINDRICAL_SURFACE ( 'NONE', #41, 0.1181100000000000066 ) ;
#280 = DIRECTION ( 'NONE',  ( 0.0000000000000000000, 0.0000000000000000000, 1.000000000000000000 ) ) ;
#281 = ORIENTED_EDGE ( 'NONE', *, *, #278, .T. ) ;
#282 = FACE_OUTER_BOUND ( 'NONE', #164, .T. ) ;
#283 = VECTOR ( 'NONE', #241, 39.37007874015748143 ) ;
#284 = DIRECTION ( 'NONE',  ( -1.224646799147353207E-16, -0.0000000000000000000, -1.000000000000000000 ) ) ;
#285 = DIRECTION ( 'NONE',  ( -1.224646799147353207E-16, -0.0000000000000000000, -1.000000000000000000 ) ) ;
#286 = CARTESIAN_POINT ( 'NONE',  ( 1.238273348520836934E-16, 0.0000000000000000000, 1.011126921968824810 ) ) ;
#287 = EDGE_CURVE ( 'NONE', #299, #86, #24, .T. ) ;
#288 = LENGTH_MEASURE_WITH_UNIT ( LENGTH_MEASURE( 0.02539999999999999897 ), #107 );
#289 = AXIS2_PLACEMENT_3D ( 'NONE', #45, #23, #177 ) ;
#290 = DIRECTION ( 'NONE',  ( 1.000000000000000000, 0.0000000000000000000, 0.0000000000000000000 ) ) ;
#291 = EDGE_CURVE ( 'NONE', #231, #198, #142, .T. ) ;
#292 = AXIS2_PLACEMENT_3D ( 'NONE', #73, #284, #52 ) ;
#293 = ORIENTED_EDGE ( 'NONE', *, *, #66, .T. ) ;
#294 = APPLICATION_CONTEXT ( 'automotive_design' ) ;
#295 = EDGE_CURVE ( 'NONE', #198, #231, #141, .T. ) ;
#296 = LINE ( 'NONE', #271, #191 ) ;
#297 = ORIENTED_EDGE ( 'NONE', *, *, #228, .T. ) ;
#298 = LENGTH_MEASURE_WITH_UNIT ( LENGTH_MEASURE( 0.02539999999999999897 ), #88 );
#299 = VERTEX_POINT ( 'NONE', #58 ) ;
ENDSEC;
END-ISO-10303-21;
