ISO-10303-21;
HEADER;
FILE_DESCRIPTION (( 'STEP AP214' ),
    '1' );
FILE_NAME ('Micro_SFA-375-69.STEP',
    '2021-09-02T04:01:57',
    ( '' ),
    ( '' ),
    'SwSTEP 2.0',
    'SolidWorks 2020',
    '' );
FILE_SCHEMA (( 'AUTOMOTIVE_DESIGN' ));
ENDSEC;

DATA;
#1 = FACE_OUTER_BOUND ( 'NONE', #97, .T. ) ;
#2 = DIRECTION ( 'NONE',  ( -1.000000000000000000, 0.0000000000000000000, 0.0000000000000000000 ) ) ;
#3 = ORIENTED_EDGE ( 'NONE', *, *, #123, .F. ) ;
#4 = FACE_OUTER_BOUND ( 'NONE', #78, .T. ) ;
#5 = DIRECTION ( 'NONE',  ( -1.224646799147353454E-16, -0.0000000000000000000, -1.000000000000000000 ) ) ;
#6 = DIRECTION ( 'NONE',  ( -0.0000000000000000000, -0.0000000000000000000, -1.000000000000000000 ) ) ;
#7 = AXIS2_PLACEMENT_3D ( 'NONE', #135, #43, #206 ) ;
#8 = LINE ( 'NONE', #142, #12 ) ;
#9 = DIRECTION ( 'NONE',  ( -1.224646799147353454E-16, -0.0000000000000000000, -1.000000000000000000 ) ) ;
#10 = VECTOR ( 'NONE', #108, 39.37007874015748143 ) ;
#11 = AXIS2_PLACEMENT_3D ( 'NONE', #118, #95, #171 ) ;
#12 = VECTOR ( 'NONE', #158, 39.37007874015748143 ) ;
#13 = EDGE_CURVE ( 'NONE', #17, #224, #294, .T. ) ;
#14 = CARTESIAN_POINT ( 'NONE',  ( 0.0000000000000000000, 0.0000000000000000000, 3.000000000000000444 ) ) ;
#15 = AXIS2_PLACEMENT_3D ( 'NONE', #211, #9, #90 ) ;
#16 = COLOUR_RGB ( '',0.7921568627450980005, 0.8196078431372548767, 0.9333333333333333481 ) ;
#17 = VERTEX_POINT ( 'NONE', #27 ) ;
#18 = ADVANCED_FACE ( 'NONE', ( #266 ), #197, .T. ) ;
#19 = ORIENTED_EDGE ( 'NONE', *, *, #13, .F. ) ;
#20 = PRESENTATION_STYLE_ASSIGNMENT (( #228 ) ) ;
#21 = CARTESIAN_POINT ( 'NONE',  ( 0.1873124999999999929, 2.293916535652885596E-17, -2.293916535652886521E-17 ) ) ;
#22 = SHAPE_DEFINITION_REPRESENTATION ( #100, #124 ) ;
#23 = PLANE ( 'NONE',  #7 ) ;
#24 = VECTOR ( 'NONE', #47, 39.37007874015748143 ) ;
#25 = DIRECTION ( 'NONE',  ( 1.000000000000000000, 0.0000000000000000000, 0.0000000000000000000 ) ) ;
#26 = DIRECTION ( 'NONE',  ( 1.000000000000000000, 0.0000000000000000000, 0.0000000000000000000 ) ) ;
#27 = CARTESIAN_POINT ( 'NONE',  ( 0.1873124999999999929, 2.293916535652885596E-17, 0.0000000000000000000 ) ) ;
#28 = SURFACE_SIDE_STYLE ('',( #64 ) ) ;
#29 = UNCERTAINTY_MEASURE_WITH_UNIT (LENGTH_MEASURE( 1.000000000000000082E-05 ), #248, 'distance_accuracy_value', 'NONE');
#30 =( GEOMETRIC_REPRESENTATION_CONTEXT ( 3 ) GLOBAL_UNCERTAINTY_ASSIGNED_CONTEXT ( ( #29 ) ) GLOBAL_UNIT_ASSIGNED_CONTEXT ( ( #248, #77, #133 ) ) REPRESENTATION_CONTEXT ( 'NONE', 'WORKASPACE' ) );
#31 = LINE ( 'NONE', #88, #24 ) ;
#32 = CONICAL_SURFACE ( 'NONE', #45, 0.1725000000000009304, 0.7853981633974460586 ) ;
#33 = DIMENSIONAL_EXPONENTS ( 1.000000000000000000, 0.0000000000000000000, 0.0000000000000000000, 0.0000000000000000000, 0.0000000000000000000, 0.0000000000000000000, 0.0000000000000000000 ) ;
#34 = DIRECTION ( 'NONE',  ( 1.000000000000000000, 0.0000000000000000000, 0.0000000000000000000 ) ) ;
#35 = FACE_OUTER_BOUND ( 'NONE', #103, .T. ) ;
#36 = AXIS2_PLACEMENT_3D ( 'NONE', #70, #269, #256 ) ;
#37 = APPLICATION_PROTOCOL_DEFINITION ( 'draft international standard', 'automotive_design', 1998, #223 ) ;
#38 = PRODUCT_RELATED_PRODUCT_CATEGORY ( 'part', '', ( #109 ) ) ;
#39 = ORIENTED_EDGE ( 'NONE', *, *, #121, .F. ) ;
#40 = DIRECTION ( 'NONE',  ( 1.000000000000000000, 0.0000000000000000000, -0.0000000000000000000 ) ) ;
#41 = SURFACE_STYLE_FILL_AREA ( #60 ) ;
#42 = ORIENTED_EDGE ( 'NONE', *, *, #132, .T. ) ;
#43 = DIRECTION ( 'NONE',  ( 0.0000000000000000000, 0.0000000000000000000, 1.000000000000000000 ) ) ;
#44 = ADVANCED_FACE ( 'NONE', ( #4 ), #23, .F. ) ;
#45 = AXIS2_PLACEMENT_3D ( 'NONE', #139, #192, #165 ) ;
#46 = DIRECTION ( 'NONE',  ( -1.224646799147353454E-16, -0.0000000000000000000, -1.000000000000000000 ) ) ;
#47 = DIRECTION ( 'NONE',  ( -0.0000000000000000000, -0.0000000000000000000, -1.000000000000000000 ) ) ;
#48 = DIRECTION ( 'NONE',  ( -0.0000000000000000000, -0.0000000000000000000, -1.000000000000000000 ) ) ;
#49 = VECTOR ( 'NONE', #147, 39.37007874015748143 ) ;
#50 = CARTESIAN_POINT ( 'NONE',  ( 1.377727649040772882E-16, 0.0000000000000000000, 1.125000000000000000 ) ) ;
#51 = MECHANICAL_DESIGN_GEOMETRIC_PRESENTATION_REPRESENTATION (  '', ( #261 ), #126 ) ;
#52 =( LENGTH_UNIT ( ) NAMED_UNIT ( * ) SI_UNIT ( $, .METRE. ) );
#53 = VERTEX_POINT ( 'NONE', #156 ) ;
#54 = ORIENTED_EDGE ( 'NONE', *, *, #94, .T. ) ;
#55 = DIRECTION ( 'NONE',  ( 0.0000000000000000000, 0.0000000000000000000, 1.000000000000000000 ) ) ;
#56 = ORIENTED_EDGE ( 'NONE', *, *, #195, .F. ) ;
#57 = DIMENSIONAL_EXPONENTS ( 1.000000000000000000, 0.0000000000000000000, 0.0000000000000000000, 0.0000000000000000000, 0.0000000000000000000, 0.0000000000000000000, 0.0000000000000000000 ) ;
#58 = ADVANCED_FACE ( 'NONE', ( #1 ), #293, .T. ) ;
#59 = CARTESIAN_POINT ( 'NONE',  ( 0.0000000000000000000, 0.0000000000000000000, 3.000000000000000444 ) ) ;
#60 = FILL_AREA_STYLE ('',( #277 ) ) ;
#61 = VERTEX_POINT ( 'NONE', #207 ) ;
#62 = DIRECTION ( 'NONE',  ( 1.000000000000000000, 0.0000000000000000000, 0.0000000000000000000 ) ) ;
#63 = EDGE_CURVE ( 'NONE', #298, #242, #104, .T. ) ;
#64 = SURFACE_STYLE_FILL_AREA ( #286 ) ;
#65 = PRODUCT_DEFINITION ( 'UNKNOWN', '', #184, #221 ) ;
#66 = VECTOR ( 'NONE', #182, 39.37007874015748143 ) ;
#67 = FACE_OUTER_BOUND ( 'NONE', #155, .T. ) ;
#68 = DIRECTION ( 'NONE',  ( -1.000000000000000000, 0.0000000000000000000, 0.0000000000000000000 ) ) ;
#69 =( NAMED_UNIT ( * ) SI_UNIT ( $, .STERADIAN. ) SOLID_ANGLE_UNIT ( ) );
#70 = CARTESIAN_POINT ( 'NONE',  ( 0.0000000000000000000, 0.0000000000000000000, 3.000000000000000444 ) ) ;
#71 = CARTESIAN_POINT ( 'NONE',  ( -0.1725000000000009304, 0.0000000000000000000, 3.000000000000000444 ) ) ;
#72 = LINE ( 'NONE', #146, #49 ) ;
#73 = EDGE_LOOP ( 'NONE', ( #274, #42, #175, #247 ) ) ;
#74 = DIRECTION ( 'NONE',  ( -0.0000000000000000000, -0.0000000000000000000, -1.000000000000000000 ) ) ;
#75 = CYLINDRICAL_SURFACE ( 'NONE', #11, 0.1873124999999999929 ) ;
#76 = EDGE_LOOP ( 'NONE', ( #240, #282, #127, #259 ) ) ;
#77 =( NAMED_UNIT ( * ) PLANE_ANGLE_UNIT ( ) SI_UNIT ( $, .RADIAN. ) );
#78 = EDGE_LOOP ( 'NONE', ( #229, #185 ) ) ;
#79 = ORIENTED_EDGE ( 'NONE', *, *, #163, .T. ) ;
#80 = CARTESIAN_POINT ( 'NONE',  ( -0.1725000000000009304, 0.0000000000000000000, 3.000000000000000444 ) ) ;
#81 = EDGE_LOOP ( 'NONE', ( #173, #153 ) ) ;
#82 = AXIS2_PLACEMENT_3D ( 'NONE', #87, #234, #26 ) ;
#83 = PLANE ( 'NONE',  #177 ) ;
#84 = CARTESIAN_POINT ( 'NONE',  ( 0.0000000000000000000, 0.0000000000000000000, 0.0000000000000000000 ) ) ;
#85 = ORIENTED_EDGE ( 'NONE', *, *, #154, .T. ) ;
#86 = FACE_OUTER_BOUND ( 'NONE', #81, .T. ) ;
#87 = CARTESIAN_POINT ( 'NONE',  ( 0.0000000000000000000, 0.0000000000000000000, 3.000000000000000444 ) ) ;
#88 = CARTESIAN_POINT ( 'NONE',  ( 0.1875000000000000278, 2.296212748401286801E-17, 3.000000000000000444 ) ) ;
#89 = VECTOR ( 'NONE', #275, 39.37007874015747433 ) ;
#90 = DIRECTION ( 'NONE',  ( -1.000000000000000000, 0.0000000000000000000, 0.0000000000000000000 ) ) ;
#91 =( CONVERSION_BASED_UNIT ( 'INCH', #92 ) LENGTH_UNIT ( ) NAMED_UNIT ( #299 ) );
#92 = LENGTH_MEASURE_WITH_UNIT ( LENGTH_MEASURE( 0.02539999999999999897 ), #157 );
#93 = CIRCLE ( 'NONE', #283, 0.1875000000000000278 ) ;
#94 = EDGE_CURVE ( 'NONE', #53, #152, #183, .T. ) ;
#95 = DIRECTION ( 'NONE',  ( -1.224646799147353454E-16, -0.0000000000000000000, -1.000000000000000000 ) ) ;
#96 = FACE_OUTER_BOUND ( 'NONE', #202, .T. ) ;
#97 = EDGE_LOOP ( 'NONE', ( #295, #122, #102, #54 ) ) ;
#98 = CIRCLE ( 'NONE', #82, 0.1725000000000009304 ) ;
#99 = SURFACE_SIDE_STYLE ('',( #41 ) ) ;
#100 = PRODUCT_DEFINITION_SHAPE ( 'NONE', 'NONE',  #65 ) ;
#101 = FACE_OUTER_BOUND ( 'NONE', #73, .T. ) ;
#102 = ORIENTED_EDGE ( 'NONE', *, *, #167, .T. ) ;
#103 = EDGE_LOOP ( 'NONE', ( #39, #181, #176, #19 ) ) ;
#104 = LINE ( 'NONE', #80, #66 ) ;
#105 = AXIS2_PLACEMENT_3D ( 'NONE', #137, #162, #159 ) ;
#106 =( LENGTH_UNIT ( ) NAMED_UNIT ( * ) SI_UNIT ( $, .METRE. ) );
#107 = ORIENTED_EDGE ( 'NONE', *, *, #163, .F. ) ;
#108 = DIRECTION ( 'NONE',  ( -1.224646799147353454E-16, -0.0000000000000000000, -1.000000000000000000 ) ) ;
#109 = PRODUCT ( 'Micro_SFA-375-69', 'Micro_SFA-375-69', '', ( #250 ) ) ;
#110 = ADVANCED_FACE ( 'NONE', ( #101 ), #201, .T. ) ;
#111 = DIRECTION ( 'NONE',  ( 1.000000000000000000, 0.0000000000000000000, 0.0000000000000000000 ) ) ;
#112 = AXIS2_PLACEMENT_3D ( 'NONE', #50, #186, #285 ) ;
#113 = CARTESIAN_POINT ( 'NONE',  ( -0.1873124999999999929, 0.0000000000000000000, 2.293916535652886521E-17 ) ) ;
#114 = CARTESIAN_POINT ( 'NONE',  ( -0.1875000000000000278, 0.0000000000000000000, 3.000000000000000444 ) ) ;
#115 = ADVANCED_FACE ( 'NONE', ( #86 ), #83, .T. ) ;
#116 = AXIS2_PLACEMENT_3D ( 'NONE', #284, #5, #111 ) ;
#117 = SURFACE_STYLE_USAGE ( .BOTH. , #28 ) ;
#118 = CARTESIAN_POINT ( 'NONE',  ( 0.0000000000000000000, 0.0000000000000000000, 0.0000000000000000000 ) ) ;
#119 =( NAMED_UNIT ( * ) SI_UNIT ( $, .STERADIAN. ) SOLID_ANGLE_UNIT ( ) );
#120 = DIRECTION ( 'NONE',  ( 1.000000000000000000, 0.0000000000000000000, 0.0000000000000000000 ) ) ;
#121 = EDGE_CURVE ( 'NONE', #218, #17, #226, .T. ) ;
#122 = ORIENTED_EDGE ( 'NONE', *, *, #204, .F. ) ;
#123 = EDGE_CURVE ( 'NONE', #242, #151, #188, .T. ) ;
#124 = ADVANCED_BREP_SHAPE_REPRESENTATION ( 'Micro_SFA-375-69', ( #134, #273 ), #216 ) ;
#125 = CARTESIAN_POINT ( 'NONE',  ( 0.1873125000000001317, 0.0000000000000000000, 1.125000000000000000 ) ) ;
#126 =( GEOMETRIC_REPRESENTATION_CONTEXT ( 3 ) GLOBAL_UNCERTAINTY_ASSIGNED_CONTEXT ( ( #179 ) ) GLOBAL_UNIT_ASSIGNED_CONTEXT ( ( #91, #233, #69 ) ) REPRESENTATION_CONTEXT ( 'NONE', 'WORKASPACE' ) );
#127 = ORIENTED_EDGE ( 'NONE', *, *, #63, .T. ) ;
#128 = DIRECTION ( 'NONE',  ( 0.0000000000000000000, 0.0000000000000000000, 1.000000000000000000 ) ) ;
#129 = AXIS2_PLACEMENT_3D ( 'NONE', #145, #217, #120 ) ;
#130 = PRESENTATION_LAYER_ASSIGNMENT (  '', '', ( #203 ) ) ;
#131 = DIRECTION ( 'NONE',  ( 0.0000000000000000000, 0.0000000000000000000, -1.000000000000000000 ) ) ;
#132 = EDGE_CURVE ( 'NONE', #151, #53, #31, .T. ) ;
#133 =( NAMED_UNIT ( * ) SI_UNIT ( $, .STERADIAN. ) SOLID_ANGLE_UNIT ( ) );
#134 = MANIFOLD_SOLID_BREP ( 'Cut-Revolve1', #213 ) ;
#135 = CARTESIAN_POINT ( 'NONE',  ( 0.0000000000000000000, 0.0000000000000000000, 0.0000000000000000000 ) ) ;
#136 = CARTESIAN_POINT ( 'NONE',  ( -0.1874999999999998890, 0.0000000000000000000, 1.126063365341178457 ) ) ;
#137 = CARTESIAN_POINT ( 'NONE',  ( 2.809237542898493243E-33, 0.0000000000000000000, 2.293916535652886521E-17 ) ) ;
#138 = PRESENTATION_STYLE_ASSIGNMENT (( #117 ) ) ;
#139 = CARTESIAN_POINT ( 'NONE',  ( 0.0000000000000000000, 0.0000000000000000000, 3.000000000000000444 ) ) ;
#140 = UNCERTAINTY_MEASURE_WITH_UNIT (LENGTH_MEASURE( 1.000000000000000082E-05 ), #245, 'distance_accuracy_value', 'NONE');
#141 = VECTOR ( 'NONE', #209, 39.37007874015748143 ) ;
#142 = CARTESIAN_POINT ( 'NONE',  ( 0.1873125000000001317, 0.0000000000000000000, 1.125000000000000000 ) ) ;
#143 = EDGE_CURVE ( 'NONE', #151, #242, #93, .T. ) ;
#144 =( NAMED_UNIT ( * ) PLANE_ANGLE_UNIT ( ) SI_UNIT ( $, .RADIAN. ) );
#145 = CARTESIAN_POINT ( 'NONE',  ( 0.0000000000000000000, 0.0000000000000000000, 3.000000000000000444 ) ) ;
#146 = CARTESIAN_POINT ( 'NONE',  ( 0.1725000000000009304, 2.112515728529195628E-17, 3.000000000000000444 ) ) ;
#147 = DIRECTION ( 'NONE',  ( 0.7071067811865459074, 8.659560562354913137E-17, -0.7071067811865491270 ) ) ;
#148 = CIRCLE ( 'NONE', #15, 0.1873124999999999929 ) ;
#149 = ORIENTED_EDGE ( 'NONE', *, *, #94, .F. ) ;
#150 = APPLICATION_PROTOCOL_DEFINITION ( 'draft international standard', 'automotive_design', 1998, #289 ) ;
#151 = VERTEX_POINT ( 'NONE', #191 ) ;
#152 = VERTEX_POINT ( 'NONE', #136 ) ;
#153 = ORIENTED_EDGE ( 'NONE', *, *, #230, .T. ) ;
#154 = EDGE_CURVE ( 'NONE', #242, #152, #161, .T. ) ;
#155 = EDGE_LOOP ( 'NONE', ( #222, #255, #3, #276 ) ) ;
#156 = CARTESIAN_POINT ( 'NONE',  ( 0.1875000000000001388, 2.296212748401288342E-17, 1.126063365341178457 ) ) ;
#157 =( LENGTH_UNIT ( ) NAMED_UNIT ( * ) SI_UNIT ( $, .METRE. ) );
#158 = DIRECTION ( 'NONE',  ( 0.1736481776669313304, 0.0000000000000000000, 0.9848077530122077983 ) ) ;
#159 = DIRECTION ( 'NONE',  ( -1.000000000000000000, 0.0000000000000000000, 1.224646799147353454E-16 ) ) ;
#160 = ADVANCED_FACE ( 'NONE', ( #67 ), #32, .T. ) ;
#161 = LINE ( 'NONE', #114, #257 ) ;
#162 = DIRECTION ( 'NONE',  ( -1.224646799147353454E-16, -0.0000000000000000000, -1.000000000000000000 ) ) ;
#163 = EDGE_CURVE ( 'NONE', #180, #218, #278, .T. ) ;
#164 = AXIS2_PLACEMENT_3D ( 'NONE', #290, #235, #68 ) ;
#165 = DIRECTION ( 'NONE',  ( -1.000000000000000000, 0.0000000000000000000, 0.0000000000000000000 ) ) ;
#166 = LENGTH_MEASURE_WITH_UNIT ( LENGTH_MEASURE( 0.02539999999999999897 ), #52 );
#167 = EDGE_CURVE ( 'NONE', #218, #53, #8, .T. ) ;
#168 = CARTESIAN_POINT ( 'NONE',  ( 1.379029896002171128E-16, 0.0000000000000000000, 1.126063365341178457 ) ) ;
#169 = ORIENTED_EDGE ( 'NONE', *, *, #143, .T. ) ;
#170 = AXIS2_PLACEMENT_3D ( 'NONE', #205, #131, #281 ) ;
#171 = DIRECTION ( 'NONE',  ( -1.000000000000000000, 0.0000000000000000000, 1.224646799147353454E-16 ) ) ;
#172 = DIRECTION ( 'NONE',  ( -1.000000000000000000, 0.0000000000000000000, 0.0000000000000000000 ) ) ;
#173 = ORIENTED_EDGE ( 'NONE', *, *, #198, .T. ) ;
#174 = EDGE_CURVE ( 'NONE', #224, #17, #287, .T. ) ;
#175 = ORIENTED_EDGE ( 'NONE', *, *, #236, .F. ) ;
#176 = ORIENTED_EDGE ( 'NONE', *, *, #195, .T. ) ;
#177 = AXIS2_PLACEMENT_3D ( 'NONE', #59, #128, #40 ) ;
#178 = ORIENTED_EDGE ( 'NONE', *, *, #132, .F. ) ;
#179 = UNCERTAINTY_MEASURE_WITH_UNIT (LENGTH_MEASURE( 1.000000000000000082E-05 ), #91, 'distance_accuracy_value', 'NONE');
#180 = VERTEX_POINT ( 'NONE', #265 ) ;
#181 = ORIENTED_EDGE ( 'NONE', *, *, #204, .T. ) ;
#182 = DIRECTION ( 'NONE',  ( -0.7071067811865459074, 0.0000000000000000000, -0.7071067811865491270 ) ) ;
#183 = CIRCLE ( 'NONE', #116, 0.1875000000000000278 ) ;
#184 = PRODUCT_DEFINITION_FORMATION_WITH_SPECIFIED_SOURCE ( 'ANY', '', #109, .NOT_KNOWN. ) ;
#185 = ORIENTED_EDGE ( 'NONE', *, *, #13, .T. ) ;
#186 = DIRECTION ( 'NONE',  ( 1.224646799147353454E-16, 0.0000000000000000000, 1.000000000000000000 ) ) ;
#187 = DIRECTION ( 'NONE',  ( 0.0000000000000000000, 0.0000000000000000000, -1.000000000000000000 ) ) ;
#188 = CIRCLE ( 'NONE', #170, 0.1875000000000000278 ) ;
#189 = LINE ( 'NONE', #288, #89 ) ;
#190 = ADVANCED_FACE ( 'NONE', ( #239 ), #227, .T. ) ;
#191 = CARTESIAN_POINT ( 'NONE',  ( 0.1875000000000000278, 2.296212748401286801E-17, 2.985000000000001208 ) ) ;
#192 = DIRECTION ( 'NONE',  ( 0.0000000000000000000, 0.0000000000000000000, -1.000000000000000000 ) ) ;
#193 = PRESENTATION_LAYER_ASSIGNMENT (  '', '', ( #261 ) ) ;
#194 = DIRECTION ( 'NONE',  ( -1.224646799147353454E-16, -0.0000000000000000000, -1.000000000000000000 ) ) ;
#195 = EDGE_CURVE ( 'NONE', #180, #224, #231, .T. ) ;
#196 = EDGE_LOOP ( 'NONE', ( #79, #270, #200, #56 ) ) ;
#197 = CONICAL_SURFACE ( 'NONE', #36, 0.1725000000000009304, 0.7853981633974460586 ) ;
#198 = EDGE_CURVE ( 'NONE', #298, #61, #98, .T. ) ;
#199 = ORIENTED_EDGE ( 'NONE', *, *, #236, .T. ) ;
#200 = ORIENTED_EDGE ( 'NONE', *, *, #174, .F. ) ;
#201 = CYLINDRICAL_SURFACE ( 'NONE', #212, 0.1875000000000000278 ) ;
#202 = EDGE_LOOP ( 'NONE', ( #178, #169, #85, #149 ) ) ;
#203 = STYLED_ITEM ( 'NONE', ( #20 ), #124 ) ;
#204 = EDGE_CURVE ( 'NONE', #218, #180, #148, .T. ) ;
#205 = CARTESIAN_POINT ( 'NONE',  ( 0.0000000000000000000, 0.0000000000000000000, 2.985000000000001208 ) ) ;
#206 = DIRECTION ( 'NONE',  ( 1.000000000000000000, 0.0000000000000000000, -0.0000000000000000000 ) ) ;
#207 = CARTESIAN_POINT ( 'NONE',  ( 0.1725000000000009304, 2.204364238465241369E-17, 3.000000000000000444 ) ) ;
#208 = AXIS2_PLACEMENT_3D ( 'NONE', #168, #194, #34 ) ;
#209 = DIRECTION ( 'NONE',  ( -1.224646799147353454E-16, -0.0000000000000000000, -1.000000000000000000 ) ) ;
#210 = EDGE_CURVE ( 'NONE', #180, #152, #189, .T. ) ;
#211 = CARTESIAN_POINT ( 'NONE',  ( 1.377727649040772882E-16, 0.0000000000000000000, 1.125000000000000000 ) ) ;
#212 = AXIS2_PLACEMENT_3D ( 'NONE', #279, #6, #2 ) ;
#213 = CLOSED_SHELL ( 'NONE', ( #292, #190, #160, #110, #262, #115, #18, #58, #268, #44 ) ) ;
#214 = CYLINDRICAL_SURFACE ( 'NONE', #258, 0.1875000000000000278 ) ;
#215 = AXIS2_PLACEMENT_3D ( 'NONE', #263, #46, #267 ) ;
#216 =( GEOMETRIC_REPRESENTATION_CONTEXT ( 3 ) GLOBAL_UNCERTAINTY_ASSIGNED_CONTEXT ( ( #140 ) ) GLOBAL_UNIT_ASSIGNED_CONTEXT ( ( #245, #144, #119 ) ) REPRESENTATION_CONTEXT ( 'NONE', 'WORKASPACE' ) );
#217 = DIRECTION ( 'NONE',  ( 0.0000000000000000000, 0.0000000000000000000, 1.000000000000000000 ) ) ;
#218 = VERTEX_POINT ( 'NONE', #125 ) ;
#219 = ORIENTED_EDGE ( 'NONE', *, *, #167, .F. ) ;
#220 = CIRCLE ( 'NONE', #208, 0.1875000000000000278 ) ;
#221 = PRODUCT_DEFINITION_CONTEXT ( 'detailed design', #223, 'design' ) ;
#222 = ORIENTED_EDGE ( 'NONE', *, *, #230, .F. ) ;
#223 = APPLICATION_CONTEXT ( 'automotive_design' ) ;
#224 = VERTEX_POINT ( 'NONE', #246 ) ;
#225 = EDGE_CURVE ( 'NONE', #61, #151, #72, .T. ) ;
#226 = LINE ( 'NONE', #21, #10 ) ;
#227 = CONICAL_SURFACE ( 'NONE', #112, 0.1873124999999999929, 0.1745329251994338360 ) ;
#228 = SURFACE_STYLE_USAGE ( .BOTH. , #99 ) ;
#229 = ORIENTED_EDGE ( 'NONE', *, *, #174, .T. ) ;
#230 = EDGE_CURVE ( 'NONE', #61, #298, #272, .T. ) ;
#231 = LINE ( 'NONE', #113, #141 ) ;
#232 = AXIS2_PLACEMENT_3D ( 'NONE', #260, #253, #62 ) ;
#233 =( NAMED_UNIT ( * ) PLANE_ANGLE_UNIT ( ) SI_UNIT ( $, .RADIAN. ) );
#234 = DIRECTION ( 'NONE',  ( 0.0000000000000000000, 0.0000000000000000000, 1.000000000000000000 ) ) ;
#235 = DIRECTION ( 'NONE',  ( -1.224646799147353454E-16, -0.0000000000000000000, -1.000000000000000000 ) ) ;
#236 = EDGE_CURVE ( 'NONE', #152, #53, #220, .T. ) ;
#237 = COLOUR_RGB ( '',0.7921568627450980005, 0.8196078431372548767, 0.9333333333333333481 ) ;
#238 = AXIS2_PLACEMENT_3D ( 'NONE', #271, #296, #241 ) ;
#239 = FACE_OUTER_BOUND ( 'NONE', #249, .T. ) ;
#240 = ORIENTED_EDGE ( 'NONE', *, *, #225, .F. ) ;
#241 = DIRECTION ( 'NONE',  ( -1.000000000000000000, 0.0000000000000000000, 1.224646799147353454E-16 ) ) ;
#242 = VERTEX_POINT ( 'NONE', #244 ) ;
#243 = FACE_OUTER_BOUND ( 'NONE', #196, .T. ) ;
#244 = CARTESIAN_POINT ( 'NONE',  ( -0.1875000000000000278, 0.0000000000000000000, 2.985000000000001208 ) ) ;
#245 =( CONVERSION_BASED_UNIT ( 'INCH', #166 ) LENGTH_UNIT ( ) NAMED_UNIT ( #33 ) );
#246 = CARTESIAN_POINT ( 'NONE',  ( -0.1873124999999999929, 0.0000000000000000000, 4.587833071305773041E-17 ) ) ;
#247 = ORIENTED_EDGE ( 'NONE', *, *, #154, .F. ) ;
#248 =( CONVERSION_BASED_UNIT ( 'INCH', #252 ) LENGTH_UNIT ( ) NAMED_UNIT ( #57 ) );
#249 = EDGE_LOOP ( 'NONE', ( #107, #251, #199, #219 ) ) ;
#250 = PRODUCT_CONTEXT ( 'NONE', #289, 'mechanical' ) ;
#251 = ORIENTED_EDGE ( 'NONE', *, *, #210, .T. ) ;
#252 = LENGTH_MEASURE_WITH_UNIT ( LENGTH_MEASURE( 0.02539999999999999897 ), #106 );
#253 = DIRECTION ( 'NONE',  ( 1.224646799147353454E-16, 0.0000000000000000000, 1.000000000000000000 ) ) ;
#254 = DIRECTION ( 'NONE',  ( 1.000000000000000000, 0.0000000000000000000, 0.0000000000000000000 ) ) ;
#255 = ORIENTED_EDGE ( 'NONE', *, *, #225, .T. ) ;
#256 = DIRECTION ( 'NONE',  ( -1.000000000000000000, 0.0000000000000000000, 0.0000000000000000000 ) ) ;
#257 = VECTOR ( 'NONE', #48, 39.37007874015748143 ) ;
#258 = AXIS2_PLACEMENT_3D ( 'NONE', #14, #74, #172 ) ;
#259 = ORIENTED_EDGE ( 'NONE', *, *, #143, .F. ) ;
#260 = CARTESIAN_POINT ( 'NONE',  ( 1.377727649040772882E-16, 0.0000000000000000000, 1.125000000000000000 ) ) ;
#261 = STYLED_ITEM ( 'NONE', ( #138 ), #134 ) ;
#262 = ADVANCED_FACE ( 'NONE', ( #96 ), #214, .T. ) ;
#263 = CARTESIAN_POINT ( 'NONE',  ( 2.809237542898493243E-33, 0.0000000000000000000, 2.293916535652886521E-17 ) ) ;
#264 = CARTESIAN_POINT ( 'NONE',  ( 0.0000000000000000000, 0.0000000000000000000, 2.985000000000001208 ) ) ;
#265 = CARTESIAN_POINT ( 'NONE',  ( -0.1873124999999998541, 2.295064642027086507E-17, 1.125000000000000000 ) ) ;
#266 = FACE_OUTER_BOUND ( 'NONE', #76, .T. ) ;
#267 = DIRECTION ( 'NONE',  ( -1.000000000000000000, 0.0000000000000000000, 1.224646799147353454E-16 ) ) ;
#268 = ADVANCED_FACE ( 'NONE', ( #35 ), #280, .T. ) ;
#269 = DIRECTION ( 'NONE',  ( 0.0000000000000000000, 0.0000000000000000000, -1.000000000000000000 ) ) ;
#270 = ORIENTED_EDGE ( 'NONE', *, *, #121, .T. ) ;
#271 = CARTESIAN_POINT ( 'NONE',  ( 0.0000000000000000000, 0.0000000000000000000, 0.0000000000000000000 ) ) ;
#272 = CIRCLE ( 'NONE', #129, 0.1725000000000009304 ) ;
#273 = AXIS2_PLACEMENT_3D ( 'NONE', #84, #55, #254 ) ;
#274 = ORIENTED_EDGE ( 'NONE', *, *, #123, .T. ) ;
#275 = DIRECTION ( 'NONE',  ( -0.1736481776669311639, 2.126576849575782392E-17, 0.9848077530122080203 ) ) ;
#276 = ORIENTED_EDGE ( 'NONE', *, *, #63, .F. ) ;
#277 = FILL_AREA_STYLE_COLOUR ( '', #16 ) ;
#278 = CIRCLE ( 'NONE', #164, 0.1873124999999999929 ) ;
#279 = CARTESIAN_POINT ( 'NONE',  ( 0.0000000000000000000, 0.0000000000000000000, 3.000000000000000444 ) ) ;
#280 = CYLINDRICAL_SURFACE ( 'NONE', #238, 0.1873124999999999929 ) ;
#281 = DIRECTION ( 'NONE',  ( 1.000000000000000000, 0.0000000000000000000, 0.0000000000000000000 ) ) ;
#282 = ORIENTED_EDGE ( 'NONE', *, *, #198, .F. ) ;
#283 = AXIS2_PLACEMENT_3D ( 'NONE', #264, #187, #25 ) ;
#284 = CARTESIAN_POINT ( 'NONE',  ( 1.379029896002171128E-16, 0.0000000000000000000, 1.126063365341178457 ) ) ;
#285 = DIRECTION ( 'NONE',  ( 1.000000000000000000, 0.0000000000000000000, 0.0000000000000000000 ) ) ;
#286 = FILL_AREA_STYLE ('',( #291 ) ) ;
#287 = CIRCLE ( 'NONE', #215, 0.1873124999999999929 ) ;
#288 = CARTESIAN_POINT ( 'NONE',  ( -0.1873124999999998541, 2.293916535652885596E-17, 1.125000000000000000 ) ) ;
#289 = APPLICATION_CONTEXT ( 'automotive_design' ) ;
#290 = CARTESIAN_POINT ( 'NONE',  ( 1.377727649040772882E-16, 0.0000000000000000000, 1.125000000000000000 ) ) ;
#291 = FILL_AREA_STYLE_COLOUR ( '', #237 ) ;
#292 = ADVANCED_FACE ( 'NONE', ( #243 ), #75, .T. ) ;
#293 = CONICAL_SURFACE ( 'NONE', #232, 0.1873124999999999929, 0.1745329251994338360 ) ;
#294 = CIRCLE ( 'NONE', #105, 0.1873124999999999929 ) ;
#295 = ORIENTED_EDGE ( 'NONE', *, *, #210, .F. ) ;
#296 = DIRECTION ( 'NONE',  ( -1.224646799147353454E-16, -0.0000000000000000000, -1.000000000000000000 ) ) ;
#297 = MECHANICAL_DESIGN_GEOMETRIC_PRESENTATION_REPRESENTATION (  '', ( #203 ), #30 ) ;
#298 = VERTEX_POINT ( 'NONE', #71 ) ;
#299 = DIMENSIONAL_EXPONENTS ( 1.000000000000000000, 0.0000000000000000000, 0.0000000000000000000, 0.0000000000000000000, 0.0000000000000000000, 0.0000000000000000000, 0.0000000000000000000 ) ;
ENDSEC;
END-ISO-10303-21;
