ISO-10303-21;
HEADER;
FILE_DESCRIPTION (( 'STEP AP214' ),
    '1' );
FILE_NAME ('59575.STEP',
    '2023-07-24T15:12:09',
    ( '' ),
    ( '' ),
    'SwSTEP 2.0',
    'SolidWorks 2023',
    '' );
FILE_SCHEMA (( 'AUTOMOTIVE_DESIGN' ));
ENDSEC;

DATA;
#1 = APPLICATION_PROTOCOL_DEFINITION ( 'draft international standard', 'automotive_design', 1998, #58 ) ;
#2 = SURFACE_SIDE_STYLE ('',( #255 ) ) ;
#3 = ORIENTED_EDGE ( 'NONE', *, *, #163, .T. ) ;
#4 = CARTESIAN_POINT ( 'NONE',  ( 0.000000000000000000, 0.000000000000000000, -3.000000000000000000 ) ) ;
#5 = AXIS2_PLACEMENT_3D ( 'NONE', #227, #86, #197 ) ;
#6 = AXIS2_PLACEMENT_3D ( 'NONE', #280, #85, #120 ) ;
#7 = CARTESIAN_POINT ( 'NONE',  ( 3.000000000000000888, 9.000000000000001776, 3.673940397442056910E-16 ) ) ;
#8 = ORIENTED_EDGE ( 'NONE', *, *, #319, .T. ) ;
#9 = DIRECTION ( 'NONE',  ( 0.000000000000000000, 0.000000000000000000, -1.000000000000000000 ) ) ;
#10 = AXIS2_PLACEMENT_3D ( 'NONE', #67, #62, #286 ) ;
#11 = ORIENTED_EDGE ( 'NONE', *, *, #319, .F. ) ;
#12 = SURFACE_STYLE_FILL_AREA ( #180 ) ;
#13 = COLOUR_RGB ( '',1.000000000000000000, 0.000000000000000000, 0.000000000000000000 ) ;
#14 = CIRCLE ( 'NONE', #104, 2.999999999999998668 ) ;
#15 = EDGE_LOOP ( 'NONE', ( #261, #103 ) ) ;
#16 = FILL_AREA_STYLE ('',( #207 ) ) ;
#17 = VERTEX_POINT ( 'NONE', #356 ) ;
#18 = SURFACE_SIDE_STYLE ('',( #237 ) ) ;
#19 = CIRCLE ( 'NONE', #283, 3.000000000000000000 ) ;
#20 = ORIENTED_EDGE ( 'NONE', *, *, #272, .F. ) ;
#21 = STYLED_ITEM ( 'NONE', ( #342 ), #53 ) ;
#22 = DIRECTION ( 'NONE',  ( 0.000000000000000000, 0.000000000000000000, -1.000000000000000000 ) ) ;
#23 = DIRECTION ( 'NONE',  ( 0.000000000000000000, 0.000000000000000000, -1.000000000000000000 ) ) ;
#24 = AXIS2_PLACEMENT_3D ( 'NONE', #284, #115, #174 ) ;
#25 = CARTESIAN_POINT ( 'NONE',  ( 8.023096076392732812E-15, 9.000000000000001776, 0.000000000000000000 ) ) ;
#26 = DIRECTION ( 'NONE',  ( 1.213614799521464586E-16, -1.000000000000000000, 0.000000000000000000 ) ) ;
#27 = DIRECTION ( 'NONE',  ( -0.000000000000000000, -1.000000000000000000, -0.000000000000000000 ) ) ;
#28 =( LENGTH_UNIT ( ) NAMED_UNIT ( * ) SI_UNIT ( .MILLI., .METRE. ) );
#29 =( NAMED_UNIT ( * ) SI_UNIT ( $, .STERADIAN. ) SOLID_ANGLE_UNIT ( ) );
#30 = CYLINDRICAL_SURFACE ( 'NONE', #147, 2.999999999999995559 ) ;
#31 = DIRECTION ( 'NONE',  ( -1.000000000000000000, 0.000000000000000000, 0.000000000000000000 ) ) ;
#32 = FACE_OUTER_BOUND ( 'NONE', #292, .T. ) ;
#33 = MECHANICAL_DESIGN_GEOMETRIC_PRESENTATION_REPRESENTATION (  '', ( #340 ), #228 ) ;
#34 = CARTESIAN_POINT ( 'NONE',  ( 0.000000000000000000, 0.000000000000000000, 0.000000000000000000 ) ) ;
#35 = PRODUCT_RELATED_PRODUCT_CATEGORY ( 'part', '', ( #256 ) ) ;
#36 = ADVANCED_FACE ( 'NONE', ( #359 ), #302, .F. ) ;
#37 =( LENGTH_UNIT ( ) NAMED_UNIT ( * ) SI_UNIT ( .MILLI., .METRE. ) );
#38 = UNCERTAINTY_MEASURE_WITH_UNIT (LENGTH_MEASURE( 1.000000000000000082E-05 ), #134, 'distance_accuracy_value', 'NONE');
#39 = AXIS2_PLACEMENT_3D ( 'NONE', #177, #260, #95 ) ;
#40 = COLOUR_RGB ( '',1.000000000000000000, 0.000000000000000000, 0.000000000000000000 ) ;
#41 = DIRECTION ( 'NONE',  ( -0.000000000000000000, -1.000000000000000000, -0.000000000000000000 ) ) ;
#42 = ORIENTED_EDGE ( 'NONE', *, *, #262, .F. ) ;
#43 = ORIENTED_EDGE ( 'NONE', *, *, #60, .F. ) ;
#44 = FILL_AREA_STYLE_COLOUR ( '', #140 ) ;
#45 = ORIENTED_EDGE ( 'NONE', *, *, #198, .F. ) ;
#46 = TOROIDAL_SURFACE ( 'NONE', #126, 2.500000000000000000, 0.5000000000000000000 ) ;
#47 =( LENGTH_UNIT ( ) NAMED_UNIT ( * ) SI_UNIT ( .MILLI., .METRE. ) );
#48 = CARTESIAN_POINT ( 'NONE',  ( 3.000000000000000000, 63.00000000000000000, 0.000000000000000000 ) ) ;
#49 = AXIS2_PLACEMENT_3D ( 'NONE', #364, #27, #23 ) ;
#50 = VERTEX_POINT ( 'NONE', #7 ) ;
#51 =( NAMED_UNIT ( * ) SI_UNIT ( $, .STERADIAN. ) SOLID_ANGLE_UNIT ( ) );
#52 = AXIS2_PLACEMENT_3D ( 'NONE', #305, #277, #214 ) ;
#53 = ADVANCED_FACE ( 'NONE', ( #236 ), #112, .T. ) ;
#54 = SURFACE_STYLE_USAGE ( .BOTH. , #304 ) ;
#55 = AXIS2_PLACEMENT_3D ( 'NONE', #360, #303, #217 ) ;
#56 = PRESENTATION_LAYER_ASSIGNMENT (  '', '', ( #340 ) ) ;
#57 = SURFACE_STYLE_USAGE ( .BOTH. , #168 ) ;
#58 = APPLICATION_CONTEXT ( 'automotive_design' ) ;
#59 = DIRECTION ( 'NONE',  ( -1.213614799521464586E-16, 1.000000000000000000, -0.000000000000000000 ) ) ;
#60 = EDGE_CURVE ( 'NONE', #122, #73, #233, .T. ) ;
#61 = FILL_AREA_STYLE_COLOUR ( '', #13 ) ;
#62 = DIRECTION ( 'NONE',  ( 0.000000000000000000, 0.000000000000000000, 1.000000000000000000 ) ) ;
#63 = CIRCLE ( 'NONE', #363, 0.5000000000000000000 ) ;
#64 = CARTESIAN_POINT ( 'NONE',  ( -2.999999999999997335, 63.00000000000000000, 0.000000000000000000 ) ) ;
#65 = COLOUR_RGB ( '',1.000000000000000000, 0.000000000000000000, 0.000000000000000000 ) ;
#66 =( NAMED_UNIT ( * ) PLANE_ANGLE_UNIT ( ) SI_UNIT ( $, .RADIAN. ) );
#67 = CARTESIAN_POINT ( 'NONE',  ( 0.000000000000000000, 0.000000000000000000, 0.000000000000000000 ) ) ;
#68 =( NAMED_UNIT ( * ) SI_UNIT ( $, .STERADIAN. ) SOLID_ANGLE_UNIT ( ) );
#69 = CIRCLE ( 'NONE', #269, 2.500000000000000000 ) ;
#70 = EDGE_LOOP ( 'NONE', ( #20, #270 ) ) ;
#71 = DIRECTION ( 'NONE',  ( -1.000000000000000000, 0.000000000000000000, 0.000000000000000000 ) ) ;
#72 = AXIS2_PLACEMENT_3D ( 'NONE', #48, #26, #171 ) ;
#73 = VERTEX_POINT ( 'NONE', #87 ) ;
#74 = CYLINDRICAL_SURFACE ( 'NONE', #52, 3.000000000000000000 ) ;
#75 = ORIENTED_EDGE ( 'NONE', *, *, #118, .T. ) ;
#76 = APPLICATION_CONTEXT ( 'automotive_design' ) ;
#77 =( NAMED_UNIT ( * ) PLANE_ANGLE_UNIT ( ) SI_UNIT ( $, .RADIAN. ) );
#78 = PRESENTATION_LAYER_ASSIGNMENT (  '', '', ( #322 ) ) ;
#79 =( NAMED_UNIT ( * ) PLANE_ANGLE_UNIT ( ) SI_UNIT ( $, .RADIAN. ) );
#80 = EDGE_CURVE ( 'NONE', #50, #265, #223, .T. ) ;
#81 = FILL_AREA_STYLE ('',( #61 ) ) ;
#82 =( NAMED_UNIT ( * ) PLANE_ANGLE_UNIT ( ) SI_UNIT ( $, .RADIAN. ) );
#83 = FILL_AREA_STYLE_COLOUR ( '', #40 ) ;
#84 = AXIS2_PLACEMENT_3D ( 'NONE', #172, #88, #113 ) ;
#85 = DIRECTION ( 'NONE',  ( -0.000000000000000000, -1.000000000000000000, -0.000000000000000000 ) ) ;
#86 = DIRECTION ( 'NONE',  ( 0.000000000000000000, 1.000000000000000000, 0.000000000000000000 ) ) ;
#87 = CARTESIAN_POINT ( 'NONE',  ( 0.000000000000000000, 0.5000000000000000000, -3.000000000000000000 ) ) ;
#88 = DIRECTION ( 'NONE',  ( 0.000000000000000000, -1.000000000000000000, -0.000000000000000000 ) ) ;
#89 = FILL_AREA_STYLE ('',( #229 ) ) ;
#90 = STYLED_ITEM ( 'NONE', ( #343 ), #278 ) ;
#91 = LINE ( 'NONE', #320, #111 ) ;
#92 =( GEOMETRIC_REPRESENTATION_CONTEXT ( 3 ) GLOBAL_UNCERTAINTY_ASSIGNED_CONTEXT ( ( #238 ) ) GLOBAL_UNIT_ASSIGNED_CONTEXT ( ( #276, #251, #29 ) ) REPRESENTATION_CONTEXT ( 'NONE', 'WORKASPACE' ) );
#93 = UNCERTAINTY_MEASURE_WITH_UNIT (LENGTH_MEASURE( 1.000000000000000082E-05 ), #47, 'distance_accuracy_value', 'NONE');
#94 = SURFACE_STYLE_USAGE ( .BOTH. , #352 ) ;
#95 = DIRECTION ( 'NONE',  ( -1.000000000000000000, -1.213614799521464586E-16, 0.000000000000000000 ) ) ;
#96 = CIRCLE ( 'NONE', #195, 0.5000000000000000000 ) ;
#97 = PRESENTATION_LAYER_ASSIGNMENT (  '', '', ( #259 ) ) ;
#98 = CLOSED_SHELL ( 'NONE', ( #354, #53, #208, #349, #216, #99 ) ) ;
#99 = ADVANCED_FACE ( 'NONE', ( #148 ), #366, .T. ) ;
#100 = PLANE ( 'NONE',  #84 ) ;
#101 = ORIENTED_EDGE ( 'NONE', *, *, #198, .T. ) ;
#102 = FILL_AREA_STYLE ('',( #83 ) ) ;
#103 = ORIENTED_EDGE ( 'NONE', *, *, #187, .T. ) ;
#104 = AXIS2_PLACEMENT_3D ( 'NONE', #339, #344, #199 ) ;
#105 = PRESENTATION_STYLE_ASSIGNMENT (( #192 ) ) ;
#106 = DIRECTION ( 'NONE',  ( 0.000000000000000000, 0.000000000000000000, -1.000000000000000000 ) ) ;
#107 =( LENGTH_UNIT ( ) NAMED_UNIT ( * ) SI_UNIT ( .MILLI., .METRE. ) );
#108 = DIRECTION ( 'NONE',  ( -1.213614799521464586E-16, 1.000000000000000000, -0.000000000000000000 ) ) ;
#109 = SURFACE_STYLE_FILL_AREA ( #81 ) ;
#110 = PRODUCT_DEFINITION_SHAPE ( 'NONE', 'NONE',  #170 ) ;
#111 = VECTOR ( 'NONE', #203, 1000.000000000000000 ) ;
#112 = TOROIDAL_SURFACE ( 'NONE', #49, 2.500000000000000000, 0.5000000000000000000 ) ;
#113 = DIRECTION ( 'NONE',  ( 0.000000000000000000, 0.000000000000000000, -1.000000000000000000 ) ) ;
#114 = CARTESIAN_POINT ( 'NONE',  ( 0.000000000000000000, 0.5000000000000000000, 0.000000000000000000 ) ) ;
#115 = DIRECTION ( 'NONE',  ( -0.000000000000000000, -1.000000000000000000, -0.000000000000000000 ) ) ;
#116 = FACE_OUTER_BOUND ( 'NONE', #346, .T. ) ;
#117 =( GEOMETRIC_REPRESENTATION_CONTEXT ( 3 ) GLOBAL_UNCERTAINTY_ASSIGNED_CONTEXT ( ( #351 ) ) GLOBAL_UNIT_ASSIGNED_CONTEXT ( ( #37, #151, #128 ) ) REPRESENTATION_CONTEXT ( 'NONE', 'WORKASPACE' ) );
#118 = EDGE_CURVE ( 'NONE', #73, #17, #63, .T. ) ;
#119 = AXIS2_PLACEMENT_3D ( 'NONE', #114, #279, #249 ) ;
#120 = DIRECTION ( 'NONE',  ( 0.000000000000000000, 0.000000000000000000, -1.000000000000000000 ) ) ;
#121 = ADVANCED_FACE ( 'NONE', ( #32 ), #230, .F. ) ;
#122 = VERTEX_POINT ( 'NONE', #211 ) ;
#123 = CARTESIAN_POINT ( 'NONE',  ( 3.673940397442059868E-16, 0.000000000000000000, 3.000000000000000000 ) ) ;
#124 = CARTESIAN_POINT ( 'NONE',  ( 0.000000000000000000, 9.000000000000000000, 0.000000000000000000 ) ) ;
#125 = UNCERTAINTY_MEASURE_WITH_UNIT (LENGTH_MEASURE( 1.000000000000000082E-05 ), #28, 'distance_accuracy_value', 'NONE');
#126 = AXIS2_PLACEMENT_3D ( 'NONE', #291, #263, #131 ) ;
#127 = VERTEX_POINT ( 'NONE', #135 ) ;
#128 =( NAMED_UNIT ( * ) SI_UNIT ( $, .STERADIAN. ) SOLID_ANGLE_UNIT ( ) );
#129 = AXIS2_PLACEMENT_3D ( 'NONE', #338, #225, #22 ) ;
#130 = DIRECTION ( 'NONE',  ( 0.000000000000000000, 0.000000000000000000, -1.000000000000000000 ) ) ;
#131 = DIRECTION ( 'NONE',  ( 0.000000000000000000, 0.000000000000000000, -1.000000000000000000 ) ) ;
#132 = ORIENTED_EDGE ( 'NONE', *, *, #224, .F. ) ;
#133 = ORIENTED_EDGE ( 'NONE', *, *, #272, .T. ) ;
#134 =( LENGTH_UNIT ( ) NAMED_UNIT ( * ) SI_UNIT ( .MILLI., .METRE. ) );
#135 = CARTESIAN_POINT ( 'NONE',  ( 0.000000000000000000, 9.000000000000000000, -3.000000000000000000 ) ) ;
#136 = ORIENTED_EDGE ( 'NONE', *, *, #288, .F. ) ;
#137 = DIRECTION ( 'NONE',  ( -1.224646799147353454E-16, 0.000000000000000000, -1.000000000000000000 ) ) ;
#138 = FILL_AREA_STYLE_COLOUR ( '', #65 ) ;
#139 = CARTESIAN_POINT ( 'NONE',  ( 2.999999999999996891, 63.00000000000000000, 3.673940397442054445E-16 ) ) ;
#140 = COLOUR_RGB ( '',1.000000000000000000, 0.000000000000000000, 0.000000000000000000 ) ;
#141 = CARTESIAN_POINT ( 'NONE',  ( 0.000000000000000000, 0.5000000000000000000, -2.500000000000000000 ) ) ;
#142 = CIRCLE ( 'NONE', #318, 2.999999999999998668 ) ;
#143 = SHAPE_DEFINITION_REPRESENTATION ( #110, #296 ) ;
#144 = EDGE_CURVE ( 'NONE', #299, #127, #247, .T. ) ;
#145 = LINE ( 'NONE', #4, #357 ) ;
#146 = PRESENTATION_STYLE_ASSIGNMENT (( #232 ) ) ;
#147 = AXIS2_PLACEMENT_3D ( 'NONE', #345, #59, #31 ) ;
#148 = FACE_OUTER_BOUND ( 'NONE', #70, .T. ) ;
#149 = APPLICATION_PROTOCOL_DEFINITION ( 'draft international standard', 'automotive_design', 1998, #76 ) ;
#150 = ADVANCED_FACE ( 'NONE', ( #164 ), #330, .T. ) ;
#151 =( NAMED_UNIT ( * ) PLANE_ANGLE_UNIT ( ) SI_UNIT ( $, .RADIAN. ) );
#152 = CARTESIAN_POINT ( 'NONE',  ( 8.023096076392732812E-15, 9.000000000000001776, 0.000000000000000000 ) ) ;
#153 = UNCERTAINTY_MEASURE_WITH_UNIT (LENGTH_MEASURE( 1.000000000000000082E-05 ), #245, 'distance_accuracy_value', 'NONE');
#154 = SURFACE_STYLE_USAGE ( .BOTH. , #18 ) ;
#155 = MECHANICAL_DESIGN_GEOMETRIC_PRESENTATION_REPRESENTATION (  '', ( #313 ), #173 ) ;
#156 = VERTEX_POINT ( 'NONE', #222 ) ;
#157 = FILL_AREA_STYLE ('',( #241 ) ) ;
#158 = EDGE_LOOP ( 'NONE', ( #329, #101 ) ) ;
#159 = ORIENTED_EDGE ( 'NONE', *, *, #341, .T. ) ;
#160 = ORIENTED_EDGE ( 'NONE', *, *, #163, .F. ) ;
#161 = CIRCLE ( 'NONE', #191, 2.999999999999992450 ) ;
#162 = CIRCLE ( 'NONE', #167, 2.999999999999992450 ) ;
#163 = EDGE_CURVE ( 'NONE', #122, #240, #96, .T. ) ;
#164 = FACE_OUTER_BOUND ( 'NONE', #202, .T. ) ;
#165 = MECHANICAL_DESIGN_GEOMETRIC_PRESENTATION_REPRESENTATION (  '', ( #205 ), #92 ) ;
#166 = PRESENTATION_STYLE_ASSIGNMENT (( #54 ) ) ;
#167 = AXIS2_PLACEMENT_3D ( 'NONE', #25, #108, #218 ) ;
#168 = SURFACE_SIDE_STYLE ('',( #369 ) ) ;
#169 = SURFACE_STYLE_FILL_AREA ( #196 ) ;
#170 = PRODUCT_DEFINITION ( 'UNKNOWN', '', #184, #316 ) ;
#171 = DIRECTION ( 'NONE',  ( 1.000000000000000000, 1.213614799521464586E-16, 0.000000000000000000 ) ) ;
#172 = CARTESIAN_POINT ( 'NONE',  ( 0.000000000000000000, 0.000000000000000000, 0.000000000000000000 ) ) ;
#173 =( GEOMETRIC_REPRESENTATION_CONTEXT ( 3 ) GLOBAL_UNCERTAINTY_ASSIGNED_CONTEXT ( ( #93 ) ) GLOBAL_UNIT_ASSIGNED_CONTEXT ( ( #47, #79, #68 ) ) REPRESENTATION_CONTEXT ( 'NONE', 'WORKASPACE' ) );
#174 = DIRECTION ( 'NONE',  ( 0.000000000000000000, 0.000000000000000000, -1.000000000000000000 ) ) ;
#175 = SURFACE_SIDE_STYLE ('',( #169 ) ) ;
#176 = DIRECTION ( 'NONE',  ( -0.000000000000000000, -1.000000000000000000, -0.000000000000000000 ) ) ;
#177 = CARTESIAN_POINT ( 'NONE',  ( 8.023096076392732812E-15, 9.000000000000000000, 0.000000000000000000 ) ) ;
#178 = ORIENTED_EDGE ( 'NONE', *, *, #188, .T. ) ;
#179 = DIRECTION ( 'NONE',  ( -0.000000000000000000, -1.000000000000000000, -0.000000000000000000 ) ) ;
#180 = FILL_AREA_STYLE ('',( #44 ) ) ;
#181 =( NAMED_UNIT ( * ) SI_UNIT ( $, .STERADIAN. ) SOLID_ANGLE_UNIT ( ) );
#182 = VECTOR ( 'NONE', #350, 1000.000000000000000 ) ;
#183 = UNCERTAINTY_MEASURE_WITH_UNIT (LENGTH_MEASURE( 1.000000000000000082E-05 ), #347, 'distance_accuracy_value', 'NONE');
#184 = PRODUCT_DEFINITION_FORMATION_WITH_SPECIFIED_SOURCE ( 'ANY', '', #256, .NOT_KNOWN. ) ;
#185 = ORIENTED_EDGE ( 'NONE', *, *, #348, .F. ) ;
#186 = CARTESIAN_POINT ( 'NONE',  ( 0.000000000000000000, 0.5000000000000000000, 0.000000000000000000 ) ) ;
#187 = EDGE_CURVE ( 'NONE', #265, #266, #142, .T. ) ;
#188 = EDGE_CURVE ( 'NONE', #50, #156, #162, .T. ) ;
#189 = ORIENTED_EDGE ( 'NONE', *, *, #290, .F. ) ;
#190 = ORIENTED_EDGE ( 'NONE', *, *, #341, .F. ) ;
#191 = AXIS2_PLACEMENT_3D ( 'NONE', #152, #289, #71 ) ;
#192 = SURFACE_STYLE_USAGE ( .BOTH. , #300 ) ;
#193 =( NAMED_UNIT ( * ) PLANE_ANGLE_UNIT ( ) SI_UNIT ( $, .RADIAN. ) );
#194 = SURFACE_SIDE_STYLE ('',( #334 ) ) ;
#195 = AXIS2_PLACEMENT_3D ( 'NONE', #336, #271, #137 ) ;
#196 = FILL_AREA_STYLE ('',( #138 ) ) ;
#197 = DIRECTION ( 'NONE',  ( 0.000000000000000000, -0.000000000000000000, 1.000000000000000000 ) ) ;
#198 = EDGE_CURVE ( 'NONE', #240, #17, #219, .T. ) ;
#199 = DIRECTION ( 'NONE',  ( -1.000000000000000000, 0.000000000000000000, 0.000000000000000000 ) ) ;
#200 = VECTOR ( 'NONE', #315, 1000.000000000000000 ) ;
#201 = COLOUR_RGB ( '',0.7921568627450980005, 0.8196078431372548767, 0.9333333333333333481 ) ;
#202 = EDGE_LOOP ( 'NONE', ( #353, #178, #323, #209 ) ) ;
#203 = DIRECTION ( 'NONE',  ( -1.213614799521464586E-16, 1.000000000000000000, -0.000000000000000000 ) ) ;
#204 = ORIENTED_EDGE ( 'NONE', *, *, #60, .T. ) ;
#205 = STYLED_ITEM ( 'NONE', ( #166 ), #99 ) ;
#206 = ORIENTED_EDGE ( 'NONE', *, *, #118, .F. ) ;
#207 = FILL_AREA_STYLE_COLOUR ( '', #212 ) ;
#208 = ADVANCED_FACE ( 'NONE', ( #328 ), #100, .T. ) ;
#209 = ORIENTED_EDGE ( 'NONE', *, *, #187, .F. ) ;
#210 = SURFACE_STYLE_FILL_AREA ( #157 ) ;
#211 = CARTESIAN_POINT ( 'NONE',  ( 3.673940397442059868E-16, 0.5000000000000000000, 3.000000000000000000 ) ) ;
#212 = COLOUR_RGB ( '',0.7921568627450980005, 0.8196078431372548767, 0.9333333333333333481 ) ;
#213 = ORIENTED_EDGE ( 'NONE', *, *, #80, .T. ) ;
#214 = DIRECTION ( 'NONE',  ( 0.000000000000000000, 0.000000000000000000, -1.000000000000000000 ) ) ;
#215 = EDGE_LOOP ( 'NONE', ( #159, #3, #136, #206 ) ) ;
#216 = ADVANCED_FACE ( 'NONE', ( #116 ), #310, .T. ) ;
#217 = DIRECTION ( 'NONE',  ( -1.000000000000000000, 0.000000000000000000, 0.000000000000000000 ) ) ;
#218 = DIRECTION ( 'NONE',  ( -1.000000000000000000, 0.000000000000000000, 0.000000000000000000 ) ) ;
#219 = CIRCLE ( 'NONE', #129, 2.500000000000000000 ) ;
#220 = ORIENTED_EDGE ( 'NONE', *, *, #348, .T. ) ;
#221 =( LENGTH_UNIT ( ) NAMED_UNIT ( * ) SI_UNIT ( .MILLI., .METRE. ) );
#222 = CARTESIAN_POINT ( 'NONE',  ( -2.999999999999984457, 9.000000000000001776, 0.000000000000000000 ) ) ;
#223 = LINE ( 'NONE', #139, #200 ) ;
#224 = EDGE_CURVE ( 'NONE', #127, #73, #145, .T. ) ;
#225 = DIRECTION ( 'NONE',  ( -0.000000000000000000, -1.000000000000000000, -0.000000000000000000 ) ) ;
#226 = FILL_AREA_STYLE_COLOUR ( '', #333 ) ;
#227 = CARTESIAN_POINT ( 'NONE',  ( 0.000000000000000000, 9.000000000000000000, 0.000000000000000000 ) ) ;
#228 =( GEOMETRIC_REPRESENTATION_CONTEXT ( 3 ) GLOBAL_UNCERTAINTY_ASSIGNED_CONTEXT ( ( #38 ) ) GLOBAL_UNIT_ASSIGNED_CONTEXT ( ( #134, #243, #181 ) ) REPRESENTATION_CONTEXT ( 'NONE', 'WORKASPACE' ) );
#229 = FILL_AREA_STYLE_COLOUR ( '', #201 ) ;
#230 = PLANE ( 'NONE',  #39 ) ;
#231 = CARTESIAN_POINT ( 'NONE',  ( 3.367778697655221505E-16, 0.000000000000000000, 2.500000000000000000 ) ) ;
#232 = SURFACE_STYLE_USAGE ( .BOTH. , #175 ) ;
#233 = CIRCLE ( 'NONE', #119, 3.000000000000000000 ) ;
#234 = MECHANICAL_DESIGN_GEOMETRIC_PRESENTATION_REPRESENTATION (  '', ( #90 ), #325 ) ;
#235 = CLOSED_SHELL ( 'NONE', ( #273, #121, #150, #36 ) ) ;
#236 = FACE_OUTER_BOUND ( 'NONE', #215, .T. ) ;
#237 = SURFACE_STYLE_FILL_AREA ( #16 ) ;
#238 = UNCERTAINTY_MEASURE_WITH_UNIT (LENGTH_MEASURE( 1.000000000000000082E-05 ), #276, 'distance_accuracy_value', 'NONE');
#239 = PRESENTATION_STYLE_ASSIGNMENT (( #154 ) ) ;
#240 = VERTEX_POINT ( 'NONE', #231 ) ;
#241 = FILL_AREA_STYLE_COLOUR ( '', #258 ) ;
#242 = EDGE_LOOP ( 'NONE', ( #160, #204, #75, #45 ) ) ;
#243 =( NAMED_UNIT ( * ) PLANE_ANGLE_UNIT ( ) SI_UNIT ( $, .RADIAN. ) );
#244 = DIRECTION ( 'NONE',  ( -0.000000000000000000, -1.000000000000000000, -0.000000000000000000 ) ) ;
#245 =( LENGTH_UNIT ( ) NAMED_UNIT ( * ) SI_UNIT ( .MILLI., .METRE. ) );
#246 =( GEOMETRIC_REPRESENTATION_CONTEXT ( 3 ) GLOBAL_UNCERTAINTY_ASSIGNED_CONTEXT ( ( #153 ) ) GLOBAL_UNIT_ASSIGNED_CONTEXT ( ( #245, #77, #257 ) ) REPRESENTATION_CONTEXT ( 'NONE', 'WORKASPACE' ) );
#247 = CIRCLE ( 'NONE', #294, 3.000000000000000000 ) ;
#248 = PRESENTATION_LAYER_ASSIGNMENT (  '', '', ( #313 ) ) ;
#249 = DIRECTION ( 'NONE',  ( 0.000000000000000000, 0.000000000000000000, -1.000000000000000000 ) ) ;
#250 = DIRECTION ( 'NONE',  ( -1.000000000000000000, 0.000000000000000000, 0.000000000000000000 ) ) ;
#251 =( NAMED_UNIT ( * ) PLANE_ANGLE_UNIT ( ) SI_UNIT ( $, .RADIAN. ) );
#252 = SURFACE_STYLE_USAGE ( .BOTH. , #2 ) ;
#253 = DIRECTION ( 'NONE',  ( 0.000000000000000000, 0.000000000000000000, 1.000000000000000000 ) ) ;
#254 =( NAMED_UNIT ( * ) SI_UNIT ( $, .STERADIAN. ) SOLID_ANGLE_UNIT ( ) );
#255 = SURFACE_STYLE_FILL_AREA ( #89 ) ;
#256 = PRODUCT ( '59575', '59575', '', ( #285 ) ) ;
#257 =( NAMED_UNIT ( * ) SI_UNIT ( $, .STERADIAN. ) SOLID_ANGLE_UNIT ( ) );
#258 = COLOUR_RGB ( '',1.000000000000000000, 0.000000000000000000, 0.000000000000000000 ) ;
#259 = STYLED_ITEM ( 'NONE', ( #146 ), #216 ) ;
#260 = DIRECTION ( 'NONE',  ( -1.213614799521464586E-16, 1.000000000000000000, 0.000000000000000000 ) ) ;
#261 = ORIENTED_EDGE ( 'NONE', *, *, #262, .T. ) ;
#262 = EDGE_CURVE ( 'NONE', #266, #265, #14, .T. ) ;
#263 = DIRECTION ( 'NONE',  ( -0.000000000000000000, -1.000000000000000000, -0.000000000000000000 ) ) ;
#264 = UNCERTAINTY_MEASURE_WITH_UNIT (LENGTH_MEASURE( 1.000000000000000082E-05 ), #221, 'distance_accuracy_value', 'NONE');
#265 = VERTEX_POINT ( 'NONE', #312 ) ;
#266 = VERTEX_POINT ( 'NONE', #64 ) ;
#267 = ORIENTED_EDGE ( 'NONE', *, *, #144, .T. ) ;
#268 = CARTESIAN_POINT ( 'NONE',  ( 3.673940397442059868E-16, 9.000000000000000000, 3.000000000000000000 ) ) ;
#269 = AXIS2_PLACEMENT_3D ( 'NONE', #34, #179, #9 ) ;
#270 = ORIENTED_EDGE ( 'NONE', *, *, #144, .F. ) ;
#271 = DIRECTION ( 'NONE',  ( 1.000000000000000000, 0.000000000000000000, -1.224646799147353207E-16 ) ) ;
#272 = EDGE_CURVE ( 'NONE', #127, #299, #332, .T. ) ;
#273 = ADVANCED_FACE ( 'NONE', ( #287 ), #30, .T. ) ;
#274 = CARTESIAN_POINT ( 'NONE',  ( 1.469576158976823750E-15, 63.00000000000000000, 0.000000000000000000 ) ) ;
#275 =( GEOMETRIC_REPRESENTATION_CONTEXT ( 3 ) GLOBAL_UNCERTAINTY_ASSIGNED_CONTEXT ( ( #125 ) ) GLOBAL_UNIT_ASSIGNED_CONTEXT ( ( #28, #66, #370 ) ) REPRESENTATION_CONTEXT ( 'NONE', 'WORKASPACE' ) );
#276 =( LENGTH_UNIT ( ) NAMED_UNIT ( * ) SI_UNIT ( .MILLI., .METRE. ) );
#277 = DIRECTION ( 'NONE',  ( -0.000000000000000000, -1.000000000000000000, -0.000000000000000000 ) ) ;
#278 = MANIFOLD_SOLID_BREP ( 'Revolve - Cutting Edge', #98 ) ;
#279 = DIRECTION ( 'NONE',  ( -0.000000000000000000, -1.000000000000000000, -0.000000000000000000 ) ) ;
#280 = CARTESIAN_POINT ( 'NONE',  ( 0.000000000000000000, 9.000000000000000000, 0.000000000000000000 ) ) ;
#281 = MANIFOLD_SOLID_BREP ( 'Revolve - Tool Body (Straight Shanked)', #235 ) ;
#282 = FILL_AREA_STYLE ('',( #226 ) ) ;
#283 = AXIS2_PLACEMENT_3D ( 'NONE', #186, #41, #130 ) ;
#284 = CARTESIAN_POINT ( 'NONE',  ( 0.000000000000000000, 0.000000000000000000, 0.000000000000000000 ) ) ;
#285 = PRODUCT_CONTEXT ( 'NONE', #58, 'mechanical' ) ;
#286 = DIRECTION ( 'NONE',  ( 1.000000000000000000, 0.000000000000000000, 0.000000000000000000 ) ) ;
#287 = FACE_OUTER_BOUND ( 'NONE', #327, .T. ) ;
#288 = EDGE_CURVE ( 'NONE', #17, #240, #69, .T. ) ;
#289 = DIRECTION ( 'NONE',  ( -1.213614799521464586E-16, 1.000000000000000000, -0.000000000000000000 ) ) ;
#290 = EDGE_CURVE ( 'NONE', #156, #266, #91, .T. ) ;
#291 = CARTESIAN_POINT ( 'NONE',  ( 0.000000000000000000, 0.5000000000000000000, 0.000000000000000000 ) ) ;
#292 = EDGE_LOOP ( 'NONE', ( #185, #362 ) ) ;
#293 = PRESENTATION_STYLE_ASSIGNMENT (( #94 ) ) ;
#294 = AXIS2_PLACEMENT_3D ( 'NONE', #124, #244, #106 ) ;
#295 = PRESENTATION_LAYER_ASSIGNMENT (  '', '', ( #90 ) ) ;
#296 = ADVANCED_BREP_SHAPE_REPRESENTATION ( '59575', ( #278, #281, #10 ), #246 ) ;
#297 = FACE_OUTER_BOUND ( 'NONE', #242, .T. ) ;
#298 = EDGE_LOOP ( 'NONE', ( #133, #8, #190, #132 ) ) ;
#299 = VERTEX_POINT ( 'NONE', #268 ) ;
#300 = SURFACE_SIDE_STYLE ('',( #12 ) ) ;
#301 = DIRECTION ( 'NONE',  ( -1.213614799521464586E-16, 1.000000000000000000, -0.000000000000000000 ) ) ;
#302 = PLANE ( 'NONE',  #72 ) ;
#303 = DIRECTION ( 'NONE',  ( -1.213614799521464586E-16, 1.000000000000000000, -0.000000000000000000 ) ) ;
#304 = SURFACE_SIDE_STYLE ('',( #109 ) ) ;
#305 = CARTESIAN_POINT ( 'NONE',  ( 0.000000000000000000, 0.000000000000000000, 0.000000000000000000 ) ) ;
#306 = SURFACE_STYLE_USAGE ( .BOTH. , #194 ) ;
#307 = MECHANICAL_DESIGN_GEOMETRIC_PRESENTATION_REPRESENTATION (  '', ( #21 ), #314 ) ;
#308 = MECHANICAL_DESIGN_GEOMETRIC_PRESENTATION_REPRESENTATION (  '', ( #259 ), #275 ) ;
#309 = DIRECTION ( 'NONE',  ( -1.000000000000000000, 0.000000000000000000, 0.000000000000000000 ) ) ;
#310 = CYLINDRICAL_SURFACE ( 'NONE', #24, 3.000000000000000000 ) ;
#311 = PRESENTATION_LAYER_ASSIGNMENT (  '', '', ( #361 ) ) ;
#312 = CARTESIAN_POINT ( 'NONE',  ( 3.000000000000000444, 63.00000000000000000, 3.673940397442056910E-16 ) ) ;
#313 = STYLED_ITEM ( 'NONE', ( #358 ), #208 ) ;
#314 =( GEOMETRIC_REPRESENTATION_CONTEXT ( 3 ) GLOBAL_UNCERTAINTY_ASSIGNED_CONTEXT ( ( #321 ) ) GLOBAL_UNIT_ASSIGNED_CONTEXT ( ( #107, #193, #337 ) ) REPRESENTATION_CONTEXT ( 'NONE', 'WORKASPACE' ) );
#315 = DIRECTION ( 'NONE',  ( -1.213614799521464586E-16, 1.000000000000000000, -0.000000000000000000 ) ) ;
#316 = PRODUCT_DEFINITION_CONTEXT ( 'detailed design', #76, 'design' ) ;
#317 = MECHANICAL_DESIGN_GEOMETRIC_PRESENTATION_REPRESENTATION (  '', ( #361 ), #117 ) ;
#318 = AXIS2_PLACEMENT_3D ( 'NONE', #274, #301, #250 ) ;
#319 = EDGE_CURVE ( 'NONE', #299, #122, #326, .T. ) ;
#320 = CARTESIAN_POINT ( 'NONE',  ( -2.999999999999994227, 63.00000000000000000, 0.000000000000000000 ) ) ;
#321 = UNCERTAINTY_MEASURE_WITH_UNIT (LENGTH_MEASURE( 1.000000000000000082E-05 ), #107, 'distance_accuracy_value', 'NONE');
#322 = STYLED_ITEM ( 'NONE', ( #105 ), #354 ) ;
#323 = ORIENTED_EDGE ( 'NONE', *, *, #290, .T. ) ;
#324 = PRESENTATION_LAYER_ASSIGNMENT (  '', '', ( #205 ) ) ;
#325 =( GEOMETRIC_REPRESENTATION_CONTEXT ( 3 ) GLOBAL_UNCERTAINTY_ASSIGNED_CONTEXT ( ( #183 ) ) GLOBAL_UNIT_ASSIGNED_CONTEXT ( ( #347, #367, #254 ) ) REPRESENTATION_CONTEXT ( 'NONE', 'WORKASPACE' ) );
#326 = LINE ( 'NONE', #123, #182 ) ;
#327 = EDGE_LOOP ( 'NONE', ( #220, #213, #42, #189 ) ) ;
#328 = FACE_OUTER_BOUND ( 'NONE', #158, .T. ) ;
#329 = ORIENTED_EDGE ( 'NONE', *, *, #288, .T. ) ;
#330 = CYLINDRICAL_SURFACE ( 'NONE', #55, 2.999999999999995559 ) ;
#331 =( GEOMETRIC_REPRESENTATION_CONTEXT ( 3 ) GLOBAL_UNCERTAINTY_ASSIGNED_CONTEXT ( ( #264 ) ) GLOBAL_UNIT_ASSIGNED_CONTEXT ( ( #221, #82, #51 ) ) REPRESENTATION_CONTEXT ( 'NONE', 'WORKASPACE' ) );
#332 = CIRCLE ( 'NONE', #6, 3.000000000000000000 ) ;
#333 = COLOUR_RGB ( '',1.000000000000000000, 0.000000000000000000, 0.000000000000000000 ) ;
#334 = SURFACE_STYLE_FILL_AREA ( #102 ) ;
#335 = ORIENTED_EDGE ( 'NONE', *, *, #224, .T. ) ;
#336 = CARTESIAN_POINT ( 'NONE',  ( 3.061616997868383141E-16, 0.5000000000000000000, 2.500000000000000000 ) ) ;
#337 =( NAMED_UNIT ( * ) SI_UNIT ( $, .STERADIAN. ) SOLID_ANGLE_UNIT ( ) );
#338 = CARTESIAN_POINT ( 'NONE',  ( 0.000000000000000000, 0.000000000000000000, 0.000000000000000000 ) ) ;
#339 = CARTESIAN_POINT ( 'NONE',  ( 1.469576158976823750E-15, 63.00000000000000000, 0.000000000000000000 ) ) ;
#340 = STYLED_ITEM ( 'NONE', ( #239 ), #281 ) ;
#341 = EDGE_CURVE ( 'NONE', #73, #122, #19, .T. ) ;
#342 = PRESENTATION_STYLE_ASSIGNMENT (( #57 ) ) ;
#343 = PRESENTATION_STYLE_ASSIGNMENT (( #252 ) ) ;
#344 = DIRECTION ( 'NONE',  ( -1.213614799521464586E-16, 1.000000000000000000, -0.000000000000000000 ) ) ;
#345 = CARTESIAN_POINT ( 'NONE',  ( 1.469576158976823750E-15, 63.00000000000000000, 0.000000000000000000 ) ) ;
#346 = EDGE_LOOP ( 'NONE', ( #11, #267, #335, #43 ) ) ;
#347 =( LENGTH_UNIT ( ) NAMED_UNIT ( * ) SI_UNIT ( .MILLI., .METRE. ) );
#348 = EDGE_CURVE ( 'NONE', #156, #50, #161, .T. ) ;
#349 = ADVANCED_FACE ( 'NONE', ( #297 ), #46, .T. ) ;
#350 = DIRECTION ( 'NONE',  ( -0.000000000000000000, -1.000000000000000000, -0.000000000000000000 ) ) ;
#351 = UNCERTAINTY_MEASURE_WITH_UNIT (LENGTH_MEASURE( 1.000000000000000082E-05 ), #37, 'distance_accuracy_value', 'NONE');
#352 = SURFACE_SIDE_STYLE ('',( #210 ) ) ;
#353 = ORIENTED_EDGE ( 'NONE', *, *, #80, .F. ) ;
#354 = ADVANCED_FACE ( 'NONE', ( #355 ), #74, .T. ) ;
#355 = FACE_OUTER_BOUND ( 'NONE', #298, .T. ) ;
#356 = CARTESIAN_POINT ( 'NONE',  ( 0.000000000000000000, 0.000000000000000000, -2.500000000000000000 ) ) ;
#357 = VECTOR ( 'NONE', #176, 1000.000000000000000 ) ;
#358 = PRESENTATION_STYLE_ASSIGNMENT (( #306 ) ) ;
#359 = FACE_OUTER_BOUND ( 'NONE', #15, .T. ) ;
#360 = CARTESIAN_POINT ( 'NONE',  ( 1.469576158976823750E-15, 63.00000000000000000, 0.000000000000000000 ) ) ;
#361 = STYLED_ITEM ( 'NONE', ( #293 ), #349 ) ;
#362 = ORIENTED_EDGE ( 'NONE', *, *, #188, .F. ) ;
#363 = AXIS2_PLACEMENT_3D ( 'NONE', #141, #309, #253 ) ;
#364 = CARTESIAN_POINT ( 'NONE',  ( 0.000000000000000000, 0.5000000000000000000, 0.000000000000000000 ) ) ;
#365 = MECHANICAL_DESIGN_GEOMETRIC_PRESENTATION_REPRESENTATION (  '', ( #322 ), #331 ) ;
#366 = PLANE ( 'NONE',  #5 ) ;
#367 =( NAMED_UNIT ( * ) PLANE_ANGLE_UNIT ( ) SI_UNIT ( $, .RADIAN. ) );
#368 = PRESENTATION_LAYER_ASSIGNMENT (  '', '', ( #21 ) ) ;
#369 = SURFACE_STYLE_FILL_AREA ( #282 ) ;
#370 =( NAMED_UNIT ( * ) SI_UNIT ( $, .STERADIAN. ) SOLID_ANGLE_UNIT ( ) );
ENDSEC;
END-ISO-10303-21;
