ISO-10303-21;
HEADER;
FILE_DESCRIPTION (( 'STEP AP214' ),
    '1' );
FILE_NAME ('81558.STEP',
    '2023-06-23T01:53:07',
    ( '' ),
    ( '' ),
    'SwSTEP 2.0',
    'SolidWorks 2023',
    '' );
FILE_SCHEMA (( 'AUTOMOTIVE_DESIGN' ));
ENDSEC;

DATA;
#1 = ADVANCED_FACE ( 'NONE', ( #251 ), #200, .F. ) ;
#2 = ORIENTED_EDGE ( 'NONE', *, *, #102, .T. ) ;
#3 = CARTESIAN_POINT ( 'NONE',  ( 0.1562499999999999722, 3.000000000000000444, 1.913510623667739771E-17 ) ) ;
#4 = EDGE_LOOP ( 'NONE', ( #120, #29 ) ) ;
#5 = LENGTH_MEASURE_WITH_UNIT ( LENGTH_MEASURE( 0.02539999999999999897 ), #282 );
#6 = STYLED_ITEM ( 'NONE', ( #94 ), #199 ) ;
#7 = ORIENTED_EDGE ( 'NONE', *, *, #121, .T. ) ;
#8 = VERTEX_POINT ( 'NONE', #35 ) ;
#9 = CARTESIAN_POINT ( 'NONE',  ( 1.913510623667739463E-17, 0.000000000000000000, 0.1562500000000000000 ) ) ;
#10 = PRESENTATION_LAYER_ASSIGNMENT (  '', '', ( #278 ) ) ;
#11 = PRESENTATION_LAYER_ASSIGNMENT (  '', '', ( #6 ) ) ;
#12 = PRODUCT_CONTEXT ( 'NONE', #115, 'mechanical' ) ;
#13 = SURFACE_SIDE_STYLE ('',( #149 ) ) ;
#14 = FILL_AREA_STYLE ('',( #225 ) ) ;
#15 = CIRCLE ( 'NONE', #234, 0.1562500000000000000 ) ;
#16 = EDGE_CURVE ( 'NONE', #8, #293, #137, .T. ) ;
#17 = LENGTH_MEASURE_WITH_UNIT ( LENGTH_MEASURE( 0.02539999999999999897 ), #92 );
#18 =( GEOMETRIC_REPRESENTATION_CONTEXT ( 3 ) GLOBAL_UNCERTAINTY_ASSIGNED_CONTEXT ( ( #108 ) ) GLOBAL_UNIT_ASSIGNED_CONTEXT ( ( #241, #183, #213 ) ) REPRESENTATION_CONTEXT ( 'NONE', 'WORKASPACE' ) );
#19 = SURFACE_STYLE_USAGE ( .BOTH. , #265 ) ;
#20 = CARTESIAN_POINT ( 'NONE',  ( 0.000000000000000000, 1.562500000000000000, 0.000000000000000000 ) ) ;
#21 = DIRECTION ( 'NONE',  ( -1.000000000000000000, 0.000000000000000000, 0.000000000000000000 ) ) ;
#22 = UNCERTAINTY_MEASURE_WITH_UNIT (LENGTH_MEASURE( 1.000000000000000082E-05 ), #286, 'distance_accuracy_value', 'NONE');
#23 = FACE_OUTER_BOUND ( 'NONE', #4, .T. ) ;
#24 = CYLINDRICAL_SURFACE ( 'NONE', #295, 0.1562500000000000278 ) ;
#25 = UNCERTAINTY_MEASURE_WITH_UNIT (LENGTH_MEASURE( 1.000000000000000082E-05 ), #74, 'distance_accuracy_value', 'NONE');
#26 = SURFACE_STYLE_USAGE ( .BOTH. , #193 ) ;
#27 = ORIENTED_EDGE ( 'NONE', *, *, #170, .F. ) ;
#28 =( NAMED_UNIT ( * ) SI_UNIT ( $, .STERADIAN. ) SOLID_ANGLE_UNIT ( ) );
#29 = ORIENTED_EDGE ( 'NONE', *, *, #197, .T. ) ;
#30 =( CONVERSION_BASED_UNIT ( 'INCH', #246 ) LENGTH_UNIT ( ) NAMED_UNIT ( #76 ) );
#31 = VERTEX_POINT ( 'NONE', #99 ) ;
#32 = ADVANCED_FACE ( 'NONE', ( #297 ), #296, .F. ) ;
#33 = DIRECTION ( 'NONE',  ( -0.000000000000000000, -1.000000000000000000, -0.000000000000000000 ) ) ;
#34 = AXIS2_PLACEMENT_3D ( 'NONE', #204, #128, #47 ) ;
#35 = CARTESIAN_POINT ( 'NONE',  ( 0.000000000000000000, 1.562500000000000000, -0.1562500000000000000 ) ) ;
#36 = DIRECTION ( 'NONE',  ( 4.259641040512536405E-17, -1.000000000000000000, 0.000000000000000000 ) ) ;
#37 = CARTESIAN_POINT ( 'NONE',  ( 0.000000000000000000, 0.000000000000000000, 0.000000000000000000 ) ) ;
#38 = STYLED_ITEM ( 'NONE', ( #269 ), #255 ) ;
#39 = FILL_AREA_STYLE ('',( #186 ) ) ;
#40 = CARTESIAN_POINT ( 'NONE',  ( 0.000000000000000000, 1.562500000000000000, 0.000000000000000000 ) ) ;
#41 = APPLICATION_PROTOCOL_DEFINITION ( 'draft international standard', 'automotive_design', 1998, #115 ) ;
#42 = SURFACE_SIDE_STYLE ('',( #161 ) ) ;
#43 =( NAMED_UNIT ( * ) PLANE_ANGLE_UNIT ( ) SI_UNIT ( $, .RADIAN. ) );
#44 = COLOUR_RGB ( '',1.000000000000000000, 0.000000000000000000, 0.000000000000000000 ) ;
#45 = FILL_AREA_STYLE ('',( #262 ) ) ;
#46 = ORIENTED_EDGE ( 'NONE', *, *, #71, .T. ) ;
#47 = DIRECTION ( 'NONE',  ( 0.000000000000000000, 0.000000000000000000, -1.000000000000000000 ) ) ;
#48 = EDGE_CURVE ( 'NONE', #174, #114, #87, .T. ) ;
#49 = LINE ( 'NONE', #145, #113 ) ;
#50 = SHAPE_DEFINITION_REPRESENTATION ( #152, #221 ) ;
#51 = CLOSED_SHELL ( 'NONE', ( #82, #255, #66, #163 ) ) ;
#52 = EDGE_LOOP ( 'NONE', ( #122, #148, #27, #216 ) ) ;
#53 = DIRECTION ( 'NONE',  ( 1.000000000000000000, 0.000000000000000000, 0.000000000000000000 ) ) ;
#54 = ORIENTED_EDGE ( 'NONE', *, *, #71, .F. ) ;
#55 = DIMENSIONAL_EXPONENTS ( 1.000000000000000000, 0.000000000000000000, 0.000000000000000000, 0.000000000000000000, 0.000000000000000000, 0.000000000000000000, 0.000000000000000000 ) ;
#56 = FACE_OUTER_BOUND ( 'NONE', #194, .T. ) ;
#57 = PRODUCT ( '81558', '81558', '', ( #12 ) ) ;
#58 = PRODUCT_DEFINITION_FORMATION_WITH_SPECIFIED_SOURCE ( 'ANY', '', #57, .NOT_KNOWN. ) ;
#59 =( LENGTH_UNIT ( ) NAMED_UNIT ( * ) SI_UNIT ( $, .METRE. ) );
#60 = DIRECTION ( 'NONE',  ( 1.000000000000000000, 4.259641040512536405E-17, 0.000000000000000000 ) ) ;
#61 = COLOUR_RGB ( '',0.7921568627450980005, 0.8196078431372548767, 0.9333333333333333481 ) ;
#62 = DIRECTION ( 'NONE',  ( 0.000000000000000000, -0.000000000000000000, 1.000000000000000000 ) ) ;
#63 = DIRECTION ( 'NONE',  ( -0.000000000000000000, -1.000000000000000000, -0.000000000000000000 ) ) ;
#64 = CARTESIAN_POINT ( 'NONE',  ( 0.000000000000000000, 0.000000000000000000, 0.000000000000000000 ) ) ;
#65 = AXIS2_PLACEMENT_3D ( 'NONE', #209, #261, #203 ) ;
#66 = ADVANCED_FACE ( 'NONE', ( #56 ), #222, .T. ) ;
#67 = CARTESIAN_POINT ( 'NONE',  ( 0.1562500000000000000, 1.562500000000000000, 1.913510623667739771E-17 ) ) ;
#68 = CARTESIAN_POINT ( 'NONE',  ( -6.123233995736772199E-17, 3.000000000000000444, 0.000000000000000000 ) ) ;
#69 = ORIENTED_EDGE ( 'NONE', *, *, #170, .T. ) ;
#70 = CARTESIAN_POINT ( 'NONE',  ( 0.000000000000000000, 1.562500000000000000, 0.000000000000000000 ) ) ;
#71 = EDGE_CURVE ( 'NONE', #293, #192, #301, .T. ) ;
#72 = PLANE ( 'NONE',  #217 ) ;
#73 = EDGE_LOOP ( 'NONE', ( #181, #165 ) ) ;
#74 =( CONVERSION_BASED_UNIT ( 'INCH', #118 ) LENGTH_UNIT ( ) NAMED_UNIT ( #268 ) );
#75 = ORIENTED_EDGE ( 'NONE', *, *, #48, .T. ) ;
#76 = DIMENSIONAL_EXPONENTS ( 1.000000000000000000, 0.000000000000000000, 0.000000000000000000, 0.000000000000000000, 0.000000000000000000, 0.000000000000000000, 0.000000000000000000 ) ;
#77 = CYLINDRICAL_SURFACE ( 'NONE', #93, 0.1562500000000000000 ) ;
#78 = LENGTH_MEASURE_WITH_UNIT ( LENGTH_MEASURE( 0.02539999999999999897 ), #59 );
#79 =( GEOMETRIC_REPRESENTATION_CONTEXT ( 3 ) GLOBAL_UNCERTAINTY_ASSIGNED_CONTEXT ( ( #235 ) ) GLOBAL_UNIT_ASSIGNED_CONTEXT ( ( #159, #303, #89 ) ) REPRESENTATION_CONTEXT ( 'NONE', 'WORKASPACE' ) );
#80 = DIRECTION ( 'NONE',  ( -4.259641040512536405E-17, 1.000000000000000000, 0.000000000000000000 ) ) ;
#81 = DIRECTION ( 'NONE',  ( -4.259641040512536405E-17, 1.000000000000000000, -0.000000000000000000 ) ) ;
#82 = ADVANCED_FACE ( 'NONE', ( #100 ), #77, .T. ) ;
#83 = LINE ( 'NONE', #135, #180 ) ;
#84 = PRESENTATION_LAYER_ASSIGNMENT (  '', '', ( #38 ) ) ;
#85 = DIRECTION ( 'NONE',  ( -4.259641040512536405E-17, 1.000000000000000000, -0.000000000000000000 ) ) ;
#86 = DIRECTION ( 'NONE',  ( 0.000000000000000000, 0.000000000000000000, -1.000000000000000000 ) ) ;
#87 = CIRCLE ( 'NONE', #240, 0.1562500000000000833 ) ;
#88 = AXIS2_PLACEMENT_3D ( 'NONE', #20, #162, #237 ) ;
#89 =( NAMED_UNIT ( * ) SI_UNIT ( $, .STERADIAN. ) SOLID_ANGLE_UNIT ( ) );
#90 = DIRECTION ( 'NONE',  ( -0.000000000000000000, -1.000000000000000000, -0.000000000000000000 ) ) ;
#91 = EDGE_LOOP ( 'NONE', ( #294, #2, #144, #95 ) ) ;
#92 =( LENGTH_UNIT ( ) NAMED_UNIT ( * ) SI_UNIT ( $, .METRE. ) );
#93 = AXIS2_PLACEMENT_3D ( 'NONE', #285, #205, #231 ) ;
#94 = PRESENTATION_STYLE_ASSIGNMENT (( #140 ) ) ;
#95 = ORIENTED_EDGE ( 'NONE', *, *, #48, .F. ) ;
#96 = VECTOR ( 'NONE', #33, 39.37007874015748143 ) ;
#97 = STYLED_ITEM ( 'NONE', ( #280 ), #305 ) ;
#98 = DIMENSIONAL_EXPONENTS ( 1.000000000000000000, 0.000000000000000000, 0.000000000000000000, 0.000000000000000000, 0.000000000000000000, 0.000000000000000000, 0.000000000000000000 ) ;
#99 = CARTESIAN_POINT ( 'NONE',  ( -0.1562500000000000000, 1.562500000000000000, 0.000000000000000000 ) ) ;
#100 = FACE_OUTER_BOUND ( 'NONE', #191, .T. ) ;
#101 = DIRECTION ( 'NONE',  ( -1.000000000000000000, 0.000000000000000000, 0.000000000000000000 ) ) ;
#102 = EDGE_CURVE ( 'NONE', #116, #31, #138, .T. ) ;
#103 = DIRECTION ( 'NONE',  ( 0.000000000000000000, 0.000000000000000000, -1.000000000000000000 ) ) ;
#104 =( NAMED_UNIT ( * ) PLANE_ANGLE_UNIT ( ) SI_UNIT ( $, .RADIAN. ) );
#105 = CARTESIAN_POINT ( 'NONE',  ( 0.000000000000000000, 0.000000000000000000, -0.1562500000000000000 ) ) ;
#106 = DIRECTION ( 'NONE',  ( 0.000000000000000000, 0.000000000000000000, -1.000000000000000000 ) ) ;
#107 =( NAMED_UNIT ( * ) SI_UNIT ( $, .STERADIAN. ) SOLID_ANGLE_UNIT ( ) );
#108 = UNCERTAINTY_MEASURE_WITH_UNIT (LENGTH_MEASURE( 1.000000000000000082E-05 ), #241, 'distance_accuracy_value', 'NONE');
#109 = AXIS2_PLACEMENT_3D ( 'NONE', #40, #198, #153 ) ;
#110 = FILL_AREA_STYLE_COLOUR ( '', #44 ) ;
#111 = DIRECTION ( 'NONE',  ( 0.000000000000000000, 0.000000000000000000, -1.000000000000000000 ) ) ;
#112 = PRESENTATION_STYLE_ASSIGNMENT (( #190 ) ) ;
#113 = VECTOR ( 'NONE', #90, 39.37007874015748143 ) ;
#114 = VERTEX_POINT ( 'NONE', #259 ) ;
#115 = APPLICATION_CONTEXT ( 'automotive_design' ) ;
#116 = VERTEX_POINT ( 'NONE', #67 ) ;
#117 = AXIS2_PLACEMENT_3D ( 'NONE', #150, #218, #53 ) ;
#118 = LENGTH_MEASURE_WITH_UNIT ( LENGTH_MEASURE( 0.02539999999999999897 ), #215 );
#119 = SURFACE_SIDE_STYLE ('',( #130 ) ) ;
#120 = ORIENTED_EDGE ( 'NONE', *, *, #288, .T. ) ;
#121 = EDGE_CURVE ( 'NONE', #293, #8, #245, .T. ) ;
#122 = ORIENTED_EDGE ( 'NONE', *, *, #136, .T. ) ;
#123 = AXIS2_PLACEMENT_3D ( 'NONE', #300, #36, #60 ) ;
#124 = PRESENTATION_LAYER_ASSIGNMENT (  '', '', ( #127 ) ) ;
#125 = SURFACE_STYLE_USAGE ( .BOTH. , #13 ) ;
#126 = DIRECTION ( 'NONE',  ( -0.000000000000000000, -1.000000000000000000, -0.000000000000000000 ) ) ;
#127 = STYLED_ITEM ( 'NONE', ( #112 ), #163 ) ;
#128 = DIRECTION ( 'NONE',  ( -0.000000000000000000, -1.000000000000000000, -0.000000000000000000 ) ) ;
#129 = CARTESIAN_POINT ( 'NONE',  ( 1.913510623667739463E-17, 0.000000000000000000, 0.1562500000000000000 ) ) ;
#130 = SURFACE_STYLE_FILL_AREA ( #156 ) ;
#131 = APPLICATION_CONTEXT ( 'automotive_design' ) ;
#132 = COLOUR_RGB ( '',0.7921568627450980005, 0.8196078431372548767, 0.9333333333333333481 ) ;
#133 = PLANE ( 'NONE',  #173 ) ;
#134 = CARTESIAN_POINT ( 'NONE',  ( 0.000000000000000000, 1.562500000000000000, 0.000000000000000000 ) ) ;
#135 = CARTESIAN_POINT ( 'NONE',  ( -0.1562500000000001110, 3.000000000000000444, 0.000000000000000000 ) ) ;
#136 = EDGE_CURVE ( 'NONE', #31, #116, #206, .T. ) ;
#137 = CIRCLE ( 'NONE', #109, 0.1562500000000000000 ) ;
#138 = CIRCLE ( 'NONE', #274, 0.1562500000000000000 ) ;
#139 = UNCERTAINTY_MEASURE_WITH_UNIT (LENGTH_MEASURE( 1.000000000000000082E-05 ), #275, 'distance_accuracy_value', 'NONE');
#140 = SURFACE_STYLE_USAGE ( .BOTH. , #119 ) ;
#141 = ORIENTED_EDGE ( 'NONE', *, *, #211, .F. ) ;
#142 = DIMENSIONAL_EXPONENTS ( 1.000000000000000000, 0.000000000000000000, 0.000000000000000000, 0.000000000000000000, 0.000000000000000000, 0.000000000000000000, 0.000000000000000000 ) ;
#143 =( NAMED_UNIT ( * ) PLANE_ANGLE_UNIT ( ) SI_UNIT ( $, .RADIAN. ) );
#144 = ORIENTED_EDGE ( 'NONE', *, *, #238, .T. ) ;
#145 = CARTESIAN_POINT ( 'NONE',  ( 0.000000000000000000, 0.000000000000000000, -0.1562500000000000000 ) ) ;
#146 = COLOUR_RGB ( '',1.000000000000000000, 0.000000000000000000, 0.000000000000000000 ) ;
#147 = ORIENTED_EDGE ( 'NONE', *, *, #211, .T. ) ;
#148 = ORIENTED_EDGE ( 'NONE', *, *, #272, .T. ) ;
#149 = SURFACE_STYLE_FILL_AREA ( #182 ) ;
#150 = CARTESIAN_POINT ( 'NONE',  ( 0.000000000000000000, 0.000000000000000000, 0.000000000000000000 ) ) ;
#151 =( NAMED_UNIT ( * ) SI_UNIT ( $, .STERADIAN. ) SOLID_ANGLE_UNIT ( ) );
#152 = PRODUCT_DEFINITION_SHAPE ( 'NONE', 'NONE',  #230 ) ;
#153 = DIRECTION ( 'NONE',  ( 0.000000000000000000, 0.000000000000000000, -1.000000000000000000 ) ) ;
#154 = FILL_AREA_STYLE_COLOUR ( '', #179 ) ;
#155 = VECTOR ( 'NONE', #85, 39.37007874015748143 ) ;
#156 = FILL_AREA_STYLE ('',( #281 ) ) ;
#157 =( CONVERSION_BASED_UNIT ( 'INCH', #17 ) LENGTH_UNIT ( ) NAMED_UNIT ( #169 ) );
#158 =( NAMED_UNIT ( * ) PLANE_ANGLE_UNIT ( ) SI_UNIT ( $, .RADIAN. ) );
#159 =( CONVERSION_BASED_UNIT ( 'INCH', #249 ) LENGTH_UNIT ( ) NAMED_UNIT ( #263 ) );
#160 = MECHANICAL_DESIGN_GEOMETRIC_PRESENTATION_REPRESENTATION (  '', ( #38 ), #227 ) ;
#161 = SURFACE_STYLE_FILL_AREA ( #257 ) ;
#162 = DIRECTION ( 'NONE',  ( -4.259641040512536405E-17, 1.000000000000000000, -0.000000000000000000 ) ) ;
#163 = ADVANCED_FACE ( 'NONE', ( #23 ), #133, .T. ) ;
#164 = DIRECTION ( 'NONE',  ( -4.259641040512536405E-17, 1.000000000000000000, -0.000000000000000000 ) ) ;
#165 = ORIENTED_EDGE ( 'NONE', *, *, #102, .F. ) ;
#166 = COLOUR_RGB ( '',1.000000000000000000, 0.000000000000000000, 0.000000000000000000 ) ;
#167 = SURFACE_STYLE_FILL_AREA ( #39 ) ;
#168 = AXIS2_PLACEMENT_3D ( 'NONE', #253, #207, #307 ) ;
#169 = DIMENSIONAL_EXPONENTS ( 1.000000000000000000, 0.000000000000000000, 0.000000000000000000, 0.000000000000000000, 0.000000000000000000, 0.000000000000000000, 0.000000000000000000 ) ;
#170 = EDGE_CURVE ( 'NONE', #114, #174, #252, .T. ) ;
#171 = FACE_OUTER_BOUND ( 'NONE', #291, .T. ) ;
#172 = STYLED_ITEM ( 'NONE', ( #298 ), #66 ) ;
#173 = AXIS2_PLACEMENT_3D ( 'NONE', #64, #236, #111 ) ;
#174 = VERTEX_POINT ( 'NONE', #260 ) ;
#175 = CARTESIAN_POINT ( 'NONE',  ( -6.123233995736772199E-17, 3.000000000000000444, 0.000000000000000000 ) ) ;
#176 = PRODUCT_RELATED_PRODUCT_CATEGORY ( 'part', '', ( #57 ) ) ;
#177 = APPLICATION_PROTOCOL_DEFINITION ( 'draft international standard', 'automotive_design', 1998, #131 ) ;
#178 =( LENGTH_UNIT ( ) NAMED_UNIT ( * ) SI_UNIT ( $, .METRE. ) );
#179 = COLOUR_RGB ( '',1.000000000000000000, 0.000000000000000000, 0.000000000000000000 ) ;
#180 = VECTOR ( 'NONE', #287, 39.37007874015748143 ) ;
#181 = ORIENTED_EDGE ( 'NONE', *, *, #136, .F. ) ;
#182 = FILL_AREA_STYLE ('',( #154 ) ) ;
#183 =( NAMED_UNIT ( * ) PLANE_ANGLE_UNIT ( ) SI_UNIT ( $, .RADIAN. ) );
#184 = UNCERTAINTY_MEASURE_WITH_UNIT (LENGTH_MEASURE( 1.000000000000000082E-05 ), #157, 'distance_accuracy_value', 'NONE');
#185 = CYLINDRICAL_SURFACE ( 'NONE', #168, 0.1562500000000000278 ) ;
#186 = FILL_AREA_STYLE_COLOUR ( '', #61 ) ;
#187 =( LENGTH_UNIT ( ) NAMED_UNIT ( * ) SI_UNIT ( $, .METRE. ) );
#188 = PRODUCT_DEFINITION_CONTEXT ( 'detailed design', #131, 'design' ) ;
#189 = DIRECTION ( 'NONE',  ( -0.000000000000000000, -1.000000000000000000, -0.000000000000000000 ) ) ;
#190 = SURFACE_STYLE_USAGE ( .BOTH. , #42 ) ;
#191 = EDGE_LOOP ( 'NONE', ( #247, #46, #243, #141 ) ) ;
#192 = VERTEX_POINT ( 'NONE', #129 ) ;
#193 = SURFACE_SIDE_STYLE ('',( #242 ) ) ;
#194 = EDGE_LOOP ( 'NONE', ( #54, #7, #147, #244 ) ) ;
#195 = AXIS2_PLACEMENT_3D ( 'NONE', #37, #126, #103 ) ;
#196 = MECHANICAL_DESIGN_GEOMETRIC_PRESENTATION_REPRESENTATION (  '', ( #127 ), #284 ) ;
#197 = EDGE_CURVE ( 'NONE', #192, #289, #15, .T. ) ;
#198 = DIRECTION ( 'NONE',  ( -0.000000000000000000, -1.000000000000000000, -0.000000000000000000 ) ) ;
#199 = MANIFOLD_SOLID_BREP ( 'Revolve - Tool Body (Straight Shanked)', #248 ) ;
#200 = PLANE ( 'NONE',  #226 ) ;
#201 = CARTESIAN_POINT ( 'NONE',  ( 1.417542327657712825E-34, 1.562500000000000000, 0.000000000000000000 ) ) ;
#202 = SURFACE_SIDE_STYLE ('',( #228 ) ) ;
#203 = DIRECTION ( 'NONE',  ( -1.000000000000000000, 0.000000000000000000, 0.000000000000000000 ) ) ;
#204 = CARTESIAN_POINT ( 'NONE',  ( 0.000000000000000000, 0.000000000000000000, 0.000000000000000000 ) ) ;
#205 = DIRECTION ( 'NONE',  ( -0.000000000000000000, -1.000000000000000000, -0.000000000000000000 ) ) ;
#206 = CIRCLE ( 'NONE', #88, 0.1562500000000000000 ) ;
#207 = DIRECTION ( 'NONE',  ( -4.259641040512536405E-17, 1.000000000000000000, -0.000000000000000000 ) ) ;
#208 =( NAMED_UNIT ( * ) SI_UNIT ( $, .STERADIAN. ) SOLID_ANGLE_UNIT ( ) );
#209 = CARTESIAN_POINT ( 'NONE',  ( -6.123233995736772199E-17, 3.000000000000000444, 0.000000000000000000 ) ) ;
#210 =( GEOMETRIC_REPRESENTATION_CONTEXT ( 3 ) GLOBAL_UNCERTAINTY_ASSIGNED_CONTEXT ( ( #139 ) ) GLOBAL_UNIT_ASSIGNED_CONTEXT ( ( #275, #104, #151 ) ) REPRESENTATION_CONTEXT ( 'NONE', 'WORKASPACE' ) );
#211 = EDGE_CURVE ( 'NONE', #8, #289, #49, .T. ) ;
#212 =( NAMED_UNIT ( * ) PLANE_ANGLE_UNIT ( ) SI_UNIT ( $, .RADIAN. ) );
#213 =( NAMED_UNIT ( * ) SI_UNIT ( $, .STERADIAN. ) SOLID_ANGLE_UNIT ( ) );
#214 = FACE_OUTER_BOUND ( 'NONE', #91, .T. ) ;
#215 =( LENGTH_UNIT ( ) NAMED_UNIT ( * ) SI_UNIT ( $, .METRE. ) );
#216 = ORIENTED_EDGE ( 'NONE', *, *, #238, .F. ) ;
#217 = AXIS2_PLACEMENT_3D ( 'NONE', #70, #232, #62 ) ;
#218 = DIRECTION ( 'NONE',  ( 0.000000000000000000, 0.000000000000000000, 1.000000000000000000 ) ) ;
#219 =( LENGTH_UNIT ( ) NAMED_UNIT ( * ) SI_UNIT ( $, .METRE. ) );
#220 = ORIENTED_EDGE ( 'NONE', *, *, #121, .F. ) ;
#221 = ADVANCED_BREP_SHAPE_REPRESENTATION ( '81558', ( #305, #199, #117 ), #18 ) ;
#222 = CYLINDRICAL_SURFACE ( 'NONE', #195, 0.1562500000000000000 ) ;
#223 = PRESENTATION_LAYER_ASSIGNMENT (  '', '', ( #172 ) ) ;
#224 =( GEOMETRIC_REPRESENTATION_CONTEXT ( 3 ) GLOBAL_UNCERTAINTY_ASSIGNED_CONTEXT ( ( #25 ) ) GLOBAL_UNIT_ASSIGNED_CONTEXT ( ( #74, #212, #267 ) ) REPRESENTATION_CONTEXT ( 'NONE', 'WORKASPACE' ) );
#225 = FILL_AREA_STYLE_COLOUR ( '', #166 ) ;
#226 = AXIS2_PLACEMENT_3D ( 'NONE', #201, #80, #273 ) ;
#227 =( GEOMETRIC_REPRESENTATION_CONTEXT ( 3 ) GLOBAL_UNCERTAINTY_ASSIGNED_CONTEXT ( ( #276 ) ) GLOBAL_UNIT_ASSIGNED_CONTEXT ( ( #30, #143, #107 ) ) REPRESENTATION_CONTEXT ( 'NONE', 'WORKASPACE' ) );
#228 = SURFACE_STYLE_FILL_AREA ( #14 ) ;
#229 = CARTESIAN_POINT ( 'NONE',  ( 0.000000000000000000, 0.000000000000000000, 0.000000000000000000 ) ) ;
#230 = PRODUCT_DEFINITION ( 'UNKNOWN', '', #58, #188 ) ;
#231 = DIRECTION ( 'NONE',  ( 0.000000000000000000, 0.000000000000000000, -1.000000000000000000 ) ) ;
#232 = DIRECTION ( 'NONE',  ( 0.000000000000000000, 1.000000000000000000, 0.000000000000000000 ) ) ;
#233 = AXIS2_PLACEMENT_3D ( 'NONE', #309, #63, #86 ) ;
#234 = AXIS2_PLACEMENT_3D ( 'NONE', #229, #189, #106 ) ;
#235 = UNCERTAINTY_MEASURE_WITH_UNIT (LENGTH_MEASURE( 1.000000000000000082E-05 ), #159, 'distance_accuracy_value', 'NONE');
#236 = DIRECTION ( 'NONE',  ( 0.000000000000000000, -1.000000000000000000, -0.000000000000000000 ) ) ;
#237 = DIRECTION ( 'NONE',  ( -1.000000000000000000, 0.000000000000000000, 0.000000000000000000 ) ) ;
#238 = EDGE_CURVE ( 'NONE', #31, #114, #83, .T. ) ;
#239 = FACE_OUTER_BOUND ( 'NONE', #52, .T. ) ;
#240 = AXIS2_PLACEMENT_3D ( 'NONE', #175, #81, #101 ) ;
#241 =( CONVERSION_BASED_UNIT ( 'INCH', #5 ) LENGTH_UNIT ( ) NAMED_UNIT ( #142 ) );
#242 = SURFACE_STYLE_FILL_AREA ( #45 ) ;
#243 = ORIENTED_EDGE ( 'NONE', *, *, #288, .F. ) ;
#244 = ORIENTED_EDGE ( 'NONE', *, *, #197, .F. ) ;
#245 = CIRCLE ( 'NONE', #233, 0.1562500000000000000 ) ;
#246 = LENGTH_MEASURE_WITH_UNIT ( LENGTH_MEASURE( 0.02539999999999999897 ), #219 );
#247 = ORIENTED_EDGE ( 'NONE', *, *, #16, .T. ) ;
#248 = CLOSED_SHELL ( 'NONE', ( #250, #1, #308, #32 ) ) ;
#249 = LENGTH_MEASURE_WITH_UNIT ( LENGTH_MEASURE( 0.02539999999999999897 ), #178 );
#250 = ADVANCED_FACE ( 'NONE', ( #239 ), #24, .T. ) ;
#251 = FACE_OUTER_BOUND ( 'NONE', #73, .T. ) ;
#252 = CIRCLE ( 'NONE', #65, 0.1562500000000000833 ) ;
#253 = CARTESIAN_POINT ( 'NONE',  ( -6.123233995736772199E-17, 3.000000000000000444, 0.000000000000000000 ) ) ;
#254 = PRESENTATION_STYLE_ASSIGNMENT (( #277 ) ) ;
#255 = ADVANCED_FACE ( 'NONE', ( #171 ), #72, .T. ) ;
#256 = DIRECTION ( 'NONE',  ( -4.259641040512536405E-17, 1.000000000000000000, -0.000000000000000000 ) ) ;
#257 = FILL_AREA_STYLE ('',( #110 ) ) ;
#258 = CARTESIAN_POINT ( 'NONE',  ( 1.913510623667739463E-17, 1.562500000000000000, 0.1562500000000000000 ) ) ;
#259 = CARTESIAN_POINT ( 'NONE',  ( -0.1562500000000001388, 3.000000000000000444, 0.000000000000000000 ) ) ;
#260 = CARTESIAN_POINT ( 'NONE',  ( 0.1562500000000000000, 3.000000000000000444, 1.913510623667739771E-17 ) ) ;
#261 = DIRECTION ( 'NONE',  ( -4.259641040512536405E-17, 1.000000000000000000, -0.000000000000000000 ) ) ;
#262 = FILL_AREA_STYLE_COLOUR ( '', #146 ) ;
#263 = DIMENSIONAL_EXPONENTS ( 1.000000000000000000, 0.000000000000000000, 0.000000000000000000, 0.000000000000000000, 0.000000000000000000, 0.000000000000000000, 0.000000000000000000 ) ;
#264 = MECHANICAL_DESIGN_GEOMETRIC_PRESENTATION_REPRESENTATION (  '', ( #97 ), #304 ) ;
#265 = SURFACE_SIDE_STYLE ('',( #167 ) ) ;
#266 = ORIENTED_EDGE ( 'NONE', *, *, #16, .F. ) ;
#267 =( NAMED_UNIT ( * ) SI_UNIT ( $, .STERADIAN. ) SOLID_ANGLE_UNIT ( ) );
#268 = DIMENSIONAL_EXPONENTS ( 1.000000000000000000, 0.000000000000000000, 0.000000000000000000, 0.000000000000000000, 0.000000000000000000, 0.000000000000000000, 0.000000000000000000 ) ;
#269 = PRESENTATION_STYLE_ASSIGNMENT (( #26 ) ) ;
#270 = EDGE_LOOP ( 'NONE', ( #69, #75 ) ) ;
#271 = CIRCLE ( 'NONE', #34, 0.1562500000000000000 ) ;
#272 = EDGE_CURVE ( 'NONE', #116, #174, #302, .T. ) ;
#273 = DIRECTION ( 'NONE',  ( -1.000000000000000000, -4.259641040512536405E-17, 0.000000000000000000 ) ) ;
#274 = AXIS2_PLACEMENT_3D ( 'NONE', #134, #256, #21 ) ;
#275 =( CONVERSION_BASED_UNIT ( 'INCH', #78 ) LENGTH_UNIT ( ) NAMED_UNIT ( #55 ) );
#276 = UNCERTAINTY_MEASURE_WITH_UNIT (LENGTH_MEASURE( 1.000000000000000082E-05 ), #30, 'distance_accuracy_value', 'NONE');
#277 = SURFACE_STYLE_USAGE ( .BOTH. , #202 ) ;
#278 = STYLED_ITEM ( 'NONE', ( #254 ), #82 ) ;
#279 = PRESENTATION_LAYER_ASSIGNMENT (  '', '', ( #97 ) ) ;
#280 = PRESENTATION_STYLE_ASSIGNMENT (( #19 ) ) ;
#281 = FILL_AREA_STYLE_COLOUR ( '', #132 ) ;
#282 =( LENGTH_UNIT ( ) NAMED_UNIT ( * ) SI_UNIT ( $, .METRE. ) );
#283 = MECHANICAL_DESIGN_GEOMETRIC_PRESENTATION_REPRESENTATION (  '', ( #172 ), #210 ) ;
#284 =( GEOMETRIC_REPRESENTATION_CONTEXT ( 3 ) GLOBAL_UNCERTAINTY_ASSIGNED_CONTEXT ( ( #22 ) ) GLOBAL_UNIT_ASSIGNED_CONTEXT ( ( #286, #158, #208 ) ) REPRESENTATION_CONTEXT ( 'NONE', 'WORKASPACE' ) );
#285 = CARTESIAN_POINT ( 'NONE',  ( 0.000000000000000000, 0.000000000000000000, 0.000000000000000000 ) ) ;
#286 =( CONVERSION_BASED_UNIT ( 'INCH', #306 ) LENGTH_UNIT ( ) NAMED_UNIT ( #98 ) );
#287 = DIRECTION ( 'NONE',  ( -4.259641040512536405E-17, 1.000000000000000000, -0.000000000000000000 ) ) ;
#288 = EDGE_CURVE ( 'NONE', #289, #192, #271, .T. ) ;
#289 = VERTEX_POINT ( 'NONE', #105 ) ;
#290 = MECHANICAL_DESIGN_GEOMETRIC_PRESENTATION_REPRESENTATION (  '', ( #278 ), #79 ) ;
#291 = EDGE_LOOP ( 'NONE', ( #266, #220 ) ) ;
#292 = DIRECTION ( 'NONE',  ( -1.000000000000000000, 0.000000000000000000, 0.000000000000000000 ) ) ;
#293 = VERTEX_POINT ( 'NONE', #258 ) ;
#294 = ORIENTED_EDGE ( 'NONE', *, *, #272, .F. ) ;
#295 = AXIS2_PLACEMENT_3D ( 'NONE', #68, #164, #292 ) ;
#296 = PLANE ( 'NONE',  #123 ) ;
#297 = FACE_OUTER_BOUND ( 'NONE', #270, .T. ) ;
#298 = PRESENTATION_STYLE_ASSIGNMENT (( #125 ) ) ;
#299 = MECHANICAL_DESIGN_GEOMETRIC_PRESENTATION_REPRESENTATION (  '', ( #6 ), #224 ) ;
#300 = CARTESIAN_POINT ( 'NONE',  ( 0.1562500000000000000, 3.000000000000000444, 0.000000000000000000 ) ) ;
#301 = LINE ( 'NONE', #9, #96 ) ;
#302 = LINE ( 'NONE', #3, #155 ) ;
#303 =( NAMED_UNIT ( * ) PLANE_ANGLE_UNIT ( ) SI_UNIT ( $, .RADIAN. ) );
#304 =( GEOMETRIC_REPRESENTATION_CONTEXT ( 3 ) GLOBAL_UNCERTAINTY_ASSIGNED_CONTEXT ( ( #184 ) ) GLOBAL_UNIT_ASSIGNED_CONTEXT ( ( #157, #43, #28 ) ) REPRESENTATION_CONTEXT ( 'NONE', 'WORKASPACE' ) );
#305 = MANIFOLD_SOLID_BREP ( 'Revolve - Cutting Edge', #51 ) ;
#306 = LENGTH_MEASURE_WITH_UNIT ( LENGTH_MEASURE( 0.02539999999999999897 ), #187 );
#307 = DIRECTION ( 'NONE',  ( -1.000000000000000000, 0.000000000000000000, 0.000000000000000000 ) ) ;
#308 = ADVANCED_FACE ( 'NONE', ( #214 ), #185, .T. ) ;
#309 = CARTESIAN_POINT ( 'NONE',  ( 0.000000000000000000, 1.562500000000000000, 0.000000000000000000 ) ) ;
ENDSEC;
END-ISO-10303-21;
