ISO-10303-21;
HEADER;
FILE_DESCRIPTION (( 'STEP AP214' ),
    '1' );
FILE_NAME ('00767.STEP',
    '2023-06-22T14:16:10',
    ( '' ),
    ( '' ),
    'SwSTEP 2.0',
    'SolidWorks 2023',
    '' );
FILE_SCHEMA (( 'AUTOMOTIVE_DESIGN' ));
ENDSEC;

DATA;
#1 = DIRECTION ( 'NONE',  ( -3.628583108584753553E-17, 1.000000000000000000, -0.000000000000000000 ) ) ;
#2 = LINE ( 'NONE', #188, #234 ) ;
#3 = FACE_OUTER_BOUND ( 'NONE', #175, .T. ) ;
#4 = DIRECTION ( 'NONE',  ( 0.000000000000000000, -0.000000000000000000, 1.000000000000000000 ) ) ;
#5 = PRESENTATION_LAYER_ASSIGNMENT (  '', '', ( #66 ) ) ;
#6 = EDGE_LOOP ( 'NONE', ( #97, #260, #122, #262 ) ) ;
#7 = DIRECTION ( 'NONE',  ( -0.000000000000000000, -1.000000000000000000, -0.000000000000000000 ) ) ;
#8 = VERTEX_POINT ( 'NONE', #205 ) ;
#9 =( LENGTH_UNIT ( ) NAMED_UNIT ( * ) SI_UNIT ( $, .METRE. ) );
#10 =( LENGTH_UNIT ( ) NAMED_UNIT ( * ) SI_UNIT ( $, .METRE. ) );
#11 = CYLINDRICAL_SURFACE ( 'NONE', #207, 0.5000000000000001110 ) ;
#12 = EDGE_LOOP ( 'NONE', ( #241, #52, #193, #145 ) ) ;
#13 =( NAMED_UNIT ( * ) SI_UNIT ( $, .STERADIAN. ) SOLID_ANGLE_UNIT ( ) );
#14 = CARTESIAN_POINT ( 'NONE',  ( 0.000000000000000000, 0.000000000000000000, 0.000000000000000000 ) ) ;
#15 =( NAMED_UNIT ( * ) SI_UNIT ( $, .STERADIAN. ) SOLID_ANGLE_UNIT ( ) );
#16 = FACE_OUTER_BOUND ( 'NONE', #57, .T. ) ;
#17 = CARTESIAN_POINT ( 'NONE',  ( -0.5000000000000002220, 6.000000000000000888, 0.000000000000000000 ) ) ;
#18 =( NAMED_UNIT ( * ) SI_UNIT ( $, .STERADIAN. ) SOLID_ANGLE_UNIT ( ) );
#19 = DIRECTION ( 'NONE',  ( -1.000000000000000000, -3.628583108584753553E-17, 0.000000000000000000 ) ) ;
#20 = CIRCLE ( 'NONE', #232, 0.5000000000000000000 ) ;
#21 = PRODUCT_DEFINITION_CONTEXT ( 'detailed design', #63, 'design' ) ;
#22 = EDGE_CURVE ( 'NONE', #214, #140, #41, .T. ) ;
#23 = VECTOR ( 'NONE', #100, 39.37007874015748143 ) ;
#24 = ORIENTED_EDGE ( 'NONE', *, *, #22, .F. ) ;
#25 = CARTESIAN_POINT ( 'NONE',  ( 6.123233995736766036E-17, 0.000000000000000000, 0.5000000000000000000 ) ) ;
#26 = EDGE_LOOP ( 'NONE', ( #33, #240 ) ) ;
#27 = ADVANCED_FACE ( 'NONE', ( #259 ), #290, .T. ) ;
#28 = AXIS2_PLACEMENT_3D ( 'NONE', #40, #131, #78 ) ;
#29 = DIRECTION ( 'NONE',  ( 1.000000000000000000, 3.628583108584753553E-17, 0.000000000000000000 ) ) ;
#30 = ORIENTED_EDGE ( 'NONE', *, *, #22, .T. ) ;
#31 = FACE_OUTER_BOUND ( 'NONE', #55, .T. ) ;
#32 = DIRECTION ( 'NONE',  ( -3.628583108584753553E-17, 1.000000000000000000, -0.000000000000000000 ) ) ;
#33 = ORIENTED_EDGE ( 'NONE', *, *, #209, .T. ) ;
#34 = FILL_AREA_STYLE ('',( #219 ) ) ;
#35 = STYLED_ITEM ( 'NONE', ( #65 ), #212 ) ;
#36 = CARTESIAN_POINT ( 'NONE',  ( 0.000000000000000000, 2.625000000000000000, 0.000000000000000000 ) ) ;
#37 = FILL_AREA_STYLE_COLOUR ( '', #203 ) ;
#38 = MECHANICAL_DESIGN_GEOMETRIC_PRESENTATION_REPRESENTATION (  '', ( #308 ), #45 ) ;
#39 = EDGE_CURVE ( 'NONE', #189, #119, #286, .T. ) ;
#40 = CARTESIAN_POINT ( 'NONE',  ( 0.000000000000000000, 0.000000000000000000, 0.000000000000000000 ) ) ;
#41 = CIRCLE ( 'NONE', #69, 0.5000000000000000000 ) ;
#42 = COLOUR_RGB ( '',1.000000000000000000, 0.000000000000000000, 0.000000000000000000 ) ;
#43 = PRESENTATION_STYLE_ASSIGNMENT (( #91 ) ) ;
#44 =( CONVERSION_BASED_UNIT ( 'INCH', #163 ) LENGTH_UNIT ( ) NAMED_UNIT ( #159 ) );
#45 =( GEOMETRIC_REPRESENTATION_CONTEXT ( 3 ) GLOBAL_UNCERTAINTY_ASSIGNED_CONTEXT ( ( #162 ) ) GLOBAL_UNIT_ASSIGNED_CONTEXT ( ( #200, #275, #177 ) ) REPRESENTATION_CONTEXT ( 'NONE', 'WORKASPACE' ) );
#46 =( NAMED_UNIT ( * ) SI_UNIT ( $, .STERADIAN. ) SOLID_ANGLE_UNIT ( ) );
#47 = DIRECTION ( 'NONE',  ( -3.628583108584753553E-17, 1.000000000000000000, -0.000000000000000000 ) ) ;
#48 = STYLED_ITEM ( 'NONE', ( #83 ), #206 ) ;
#49 =( GEOMETRIC_REPRESENTATION_CONTEXT ( 3 ) GLOBAL_UNCERTAINTY_ASSIGNED_CONTEXT ( ( #257 ) ) GLOBAL_UNIT_ASSIGNED_CONTEXT ( ( #108, #160, #18 ) ) REPRESENTATION_CONTEXT ( 'NONE', 'WORKASPACE' ) );
#50 = ORIENTED_EDGE ( 'NONE', *, *, #171, .T. ) ;
#51 = DIRECTION ( 'NONE',  ( -0.000000000000000000, -1.000000000000000000, -0.000000000000000000 ) ) ;
#52 = ORIENTED_EDGE ( 'NONE', *, *, #133, .T. ) ;
#53 = LINE ( 'NONE', #25, #111 ) ;
#54 = CIRCLE ( 'NONE', #227, 0.5000000000000000000 ) ;
#55 = EDGE_LOOP ( 'NONE', ( #170, #50 ) ) ;
#56 = FILL_AREA_STYLE ('',( #266 ) ) ;
#57 = EDGE_LOOP ( 'NONE', ( #268, #139 ) ) ;
#58 = CARTESIAN_POINT ( 'NONE',  ( 0.000000000000000000, 0.000000000000000000, 0.000000000000000000 ) ) ;
#59 = CARTESIAN_POINT ( 'NONE',  ( 0.4999999999999999445, 6.000000000000000888, 6.123233995736767268E-17 ) ) ;
#60 = DIRECTION ( 'NONE',  ( -0.000000000000000000, -1.000000000000000000, -0.000000000000000000 ) ) ;
#61 = PLANE ( 'NONE',  #157 ) ;
#62 = STYLED_ITEM ( 'NONE', ( #43 ), #211 ) ;
#63 = APPLICATION_CONTEXT ( 'automotive_design' ) ;
#64 = CLOSED_SHELL ( 'NONE', ( #231, #110, #27, #129 ) ) ;
#65 = PRESENTATION_STYLE_ASSIGNMENT (( #279 ) ) ;
#66 = STYLED_ITEM ( 'NONE', ( #126 ), #196 ) ;
#67 = LENGTH_MEASURE_WITH_UNIT ( LENGTH_MEASURE( 0.02539999999999999897 ), #302 );
#68 =( LENGTH_UNIT ( ) NAMED_UNIT ( * ) SI_UNIT ( $, .METRE. ) );
#69 = AXIS2_PLACEMENT_3D ( 'NONE', #166, #47, #208 ) ;
#70 = PRESENTATION_LAYER_ASSIGNMENT (  '', '', ( #35 ) ) ;
#71 = MECHANICAL_DESIGN_GEOMETRIC_PRESENTATION_REPRESENTATION (  '', ( #35 ), #185 ) ;
#72 = DIRECTION ( 'NONE',  ( 0.000000000000000000, 0.000000000000000000, -1.000000000000000000 ) ) ;
#73 = ADVANCED_BREP_SHAPE_REPRESENTATION ( '00767', ( #211, #206, #154 ), #287 ) ;
#74 = ORIENTED_EDGE ( 'NONE', *, *, #263, .F. ) ;
#75 = CARTESIAN_POINT ( 'NONE',  ( -0.5000000000000000000, 2.625000000000000000, 0.000000000000000000 ) ) ;
#76 = ORIENTED_EDGE ( 'NONE', *, *, #39, .T. ) ;
#77 = ORIENTED_EDGE ( 'NONE', *, *, #284, .F. ) ;
#78 = DIRECTION ( 'NONE',  ( 0.000000000000000000, 0.000000000000000000, -1.000000000000000000 ) ) ;
#79 = AXIS2_PLACEMENT_3D ( 'NONE', #187, #172, #124 ) ;
#80 = PRESENTATION_STYLE_ASSIGNMENT (( #295 ) ) ;
#81 = DIMENSIONAL_EXPONENTS ( 1.000000000000000000, 0.000000000000000000, 0.000000000000000000, 0.000000000000000000, 0.000000000000000000, 0.000000000000000000, 0.000000000000000000 ) ;
#82 = SHAPE_DEFINITION_REPRESENTATION ( #123, #73 ) ;
#83 = PRESENTATION_STYLE_ASSIGNMENT (( #197 ) ) ;
#84 = EDGE_CURVE ( 'NONE', #119, #8, #53, .T. ) ;
#85 = PRESENTATION_LAYER_ASSIGNMENT (  '', '', ( #62 ) ) ;
#86 = LENGTH_MEASURE_WITH_UNIT ( LENGTH_MEASURE( 0.02539999999999999897 ), #261 );
#87 = APPLICATION_PROTOCOL_DEFINITION ( 'draft international standard', 'automotive_design', 1998, #63 ) ;
#88 = SURFACE_SIDE_STYLE ('',( #109 ) ) ;
#89 = DIRECTION ( 'NONE',  ( 0.000000000000000000, 0.000000000000000000, -1.000000000000000000 ) ) ;
#90 = FILL_AREA_STYLE ('',( #276 ) ) ;
#91 = SURFACE_STYLE_USAGE ( .BOTH. , #252 ) ;
#92 = CIRCLE ( 'NONE', #254, 0.5000000000000000000 ) ;
#93 = DIMENSIONAL_EXPONENTS ( 1.000000000000000000, 0.000000000000000000, 0.000000000000000000, 0.000000000000000000, 0.000000000000000000, 0.000000000000000000, 0.000000000000000000 ) ;
#94 = ORIENTED_EDGE ( 'NONE', *, *, #225, .F. ) ;
#95 = PRESENTATION_LAYER_ASSIGNMENT (  '', '', ( #48 ) ) ;
#96 = DIRECTION ( 'NONE',  ( -1.000000000000000000, 0.000000000000000000, 0.000000000000000000 ) ) ;
#97 = ORIENTED_EDGE ( 'NONE', *, *, #253, .F. ) ;
#98 =( LENGTH_UNIT ( ) NAMED_UNIT ( * ) SI_UNIT ( $, .METRE. ) );
#99 = UNCERTAINTY_MEASURE_WITH_UNIT (LENGTH_MEASURE( 1.000000000000000082E-05 ), #304, 'distance_accuracy_value', 'NONE');
#100 = DIRECTION ( 'NONE',  ( -3.628583108584753553E-17, 1.000000000000000000, -0.000000000000000000 ) ) ;
#101 = SURFACE_SIDE_STYLE ('',( #264 ) ) ;
#102 = CARTESIAN_POINT ( 'NONE',  ( 0.5000000000000000000, 2.625000000000000000, 6.123233995736767268E-17 ) ) ;
#103 = CARTESIAN_POINT ( 'NONE',  ( 0.000000000000000000, 2.625000000000000000, 0.000000000000000000 ) ) ;
#104 = APPLICATION_PROTOCOL_DEFINITION ( 'draft international standard', 'automotive_design', 1998, #280 ) ;
#105 = DIRECTION ( 'NONE',  ( -3.628583108584753553E-17, 1.000000000000000000, -0.000000000000000000 ) ) ;
#106 =( GEOMETRIC_REPRESENTATION_CONTEXT ( 3 ) GLOBAL_UNCERTAINTY_ASSIGNED_CONTEXT ( ( #307 ) ) GLOBAL_UNIT_ASSIGNED_CONTEXT ( ( #273, #155, #233 ) ) REPRESENTATION_CONTEXT ( 'NONE', 'WORKASPACE' ) );
#107 = DIRECTION ( 'NONE',  ( 0.000000000000000000, 0.000000000000000000, 1.000000000000000000 ) ) ;
#108 =( CONVERSION_BASED_UNIT ( 'INCH', #86 ) LENGTH_UNIT ( ) NAMED_UNIT ( #198 ) );
#109 = SURFACE_STYLE_FILL_AREA ( #90 ) ;
#110 = ADVANCED_FACE ( 'NONE', ( #3 ), #293, .F. ) ;
#111 = VECTOR ( 'NONE', #215, 39.37007874015748143 ) ;
#112 =( LENGTH_UNIT ( ) NAMED_UNIT ( * ) SI_UNIT ( $, .METRE. ) );
#113 = EDGE_CURVE ( 'NONE', #214, #296, #238, .T. ) ;
#114 = DIMENSIONAL_EXPONENTS ( 1.000000000000000000, 0.000000000000000000, 0.000000000000000000, 0.000000000000000000, 0.000000000000000000, 0.000000000000000000, 0.000000000000000000 ) ;
#115 = CARTESIAN_POINT ( 'NONE',  ( -1.224646799147354440E-16, 6.000000000000000888, 0.000000000000000000 ) ) ;
#116 = FACE_OUTER_BOUND ( 'NONE', #292, .T. ) ;
#117 = CARTESIAN_POINT ( 'NONE',  ( 0.000000000000000000, 2.625000000000000000, 0.000000000000000000 ) ) ;
#118 = DIRECTION ( 'NONE',  ( 0.000000000000000000, 1.000000000000000000, 0.000000000000000000 ) ) ;
#119 = VERTEX_POINT ( 'NONE', #181 ) ;
#120 = LENGTH_MEASURE_WITH_UNIT ( LENGTH_MEASURE( 0.02539999999999999897 ), #10 );
#121 = CARTESIAN_POINT ( 'NONE',  ( 0.000000000000000000, 0.000000000000000000, -0.5000000000000000000 ) ) ;
#122 = ORIENTED_EDGE ( 'NONE', *, *, #113, .T. ) ;
#123 = PRODUCT_DEFINITION_SHAPE ( 'NONE', 'NONE',  #137 ) ;
#124 = DIRECTION ( 'NONE',  ( -1.000000000000000000, 0.000000000000000000, 0.000000000000000000 ) ) ;
#125 = ORIENTED_EDGE ( 'NONE', *, *, #209, .F. ) ;
#126 = PRESENTATION_STYLE_ASSIGNMENT (( #230 ) ) ;
#127 = LENGTH_MEASURE_WITH_UNIT ( LENGTH_MEASURE( 0.02539999999999999897 ), #9 );
#128 = AXIS2_PLACEMENT_3D ( 'NONE', #58, #60, #247 ) ;
#129 = ADVANCED_FACE ( 'NONE', ( #298 ), #61, .F. ) ;
#130 = SURFACE_STYLE_FILL_AREA ( #34 ) ;
#131 = DIRECTION ( 'NONE',  ( -0.000000000000000000, -1.000000000000000000, -0.000000000000000000 ) ) ;
#132 = PRESENTATION_LAYER_ASSIGNMENT (  '', '', ( #265 ) ) ;
#133 = EDGE_CURVE ( 'NONE', #119, #189, #20, .T. ) ;
#134 = DIRECTION ( 'NONE',  ( -0.000000000000000000, -1.000000000000000000, -0.000000000000000000 ) ) ;
#135 = CIRCLE ( 'NONE', #128, 0.5000000000000000000 ) ;
#136 = COLOUR_RGB ( '',1.000000000000000000, 0.000000000000000000, 0.000000000000000000 ) ;
#137 = PRODUCT_DEFINITION ( 'UNKNOWN', '', #202, #21 ) ;
#138 = UNCERTAINTY_MEASURE_WITH_UNIT (LENGTH_MEASURE( 1.000000000000000082E-05 ), #44, 'distance_accuracy_value', 'NONE');
#139 = ORIENTED_EDGE ( 'NONE', *, *, #133, .F. ) ;
#140 = VERTEX_POINT ( 'NONE', #102 ) ;
#141 = AXIS2_PLACEMENT_3D ( 'NONE', #117, #306, #256 ) ;
#142 = UNCERTAINTY_MEASURE_WITH_UNIT (LENGTH_MEASURE( 1.000000000000000082E-05 ), #223, 'distance_accuracy_value', 'NONE');
#143 = AXIS2_PLACEMENT_3D ( 'NONE', #270, #105, #246 ) ;
#144 = CARTESIAN_POINT ( 'NONE',  ( 0.000000000000000000, 0.000000000000000000, 0.000000000000000000 ) ) ;
#145 = ORIENTED_EDGE ( 'NONE', *, *, #171, .F. ) ;
#146 = DIRECTION ( 'NONE',  ( 0.000000000000000000, 0.000000000000000000, -1.000000000000000000 ) ) ;
#147 = SURFACE_SIDE_STYLE ('',( #152 ) ) ;
#148 =( NAMED_UNIT ( * ) PLANE_ANGLE_UNIT ( ) SI_UNIT ( $, .RADIAN. ) );
#149 =( NAMED_UNIT ( * ) PLANE_ANGLE_UNIT ( ) SI_UNIT ( $, .RADIAN. ) );
#150 = CARTESIAN_POINT ( 'NONE',  ( -0.5000000000000002220, 6.000000000000000888, 0.000000000000000000 ) ) ;
#151 = CARTESIAN_POINT ( 'NONE',  ( 0.5000000000000000000, 6.000000000000000888, 0.000000000000000000 ) ) ;
#152 = SURFACE_STYLE_FILL_AREA ( #56 ) ;
#153 = COLOUR_RGB ( '',1.000000000000000000, 0.000000000000000000, 0.000000000000000000 ) ;
#154 = AXIS2_PLACEMENT_3D ( 'NONE', #14, #107, #156 ) ;
#155 =( NAMED_UNIT ( * ) PLANE_ANGLE_UNIT ( ) SI_UNIT ( $, .RADIAN. ) );
#156 = DIRECTION ( 'NONE',  ( 1.000000000000000000, 0.000000000000000000, 0.000000000000000000 ) ) ;
#157 = AXIS2_PLACEMENT_3D ( 'NONE', #151, #242, #29 ) ;
#158 = AXIS2_PLACEMENT_3D ( 'NONE', #36, #118, #4 ) ;
#159 = DIMENSIONAL_EXPONENTS ( 1.000000000000000000, 0.000000000000000000, 0.000000000000000000, 0.000000000000000000, 0.000000000000000000, 0.000000000000000000, 0.000000000000000000 ) ;
#160 =( NAMED_UNIT ( * ) PLANE_ANGLE_UNIT ( ) SI_UNIT ( $, .RADIAN. ) );
#161 = FILL_AREA_STYLE ('',( #192 ) ) ;
#162 = UNCERTAINTY_MEASURE_WITH_UNIT (LENGTH_MEASURE( 1.000000000000000082E-05 ), #200, 'distance_accuracy_value', 'NONE');
#163 = LENGTH_MEASURE_WITH_UNIT ( LENGTH_MEASURE( 0.02539999999999999897 ), #68 );
#164 = CIRCLE ( 'NONE', #143, 0.5000000000000001110 ) ;
#165 = UNCERTAINTY_MEASURE_WITH_UNIT (LENGTH_MEASURE( 1.000000000000000082E-05 ), #236, 'distance_accuracy_value', 'NONE');
#166 = CARTESIAN_POINT ( 'NONE',  ( 1.516480271171051896E-32, 2.625000000000000000, 0.000000000000000000 ) ) ;
#167 = ADVANCED_FACE ( 'NONE', ( #31 ), #300, .T. ) ;
#168 = AXIS2_PLACEMENT_3D ( 'NONE', #183, #134, #89 ) ;
#169 = SURFACE_STYLE_FILL_AREA ( #224 ) ;
#170 = ORIENTED_EDGE ( 'NONE', *, *, #225, .T. ) ;
#171 = EDGE_CURVE ( 'NONE', #8, #221, #135, .T. ) ;
#172 = DIRECTION ( 'NONE',  ( -3.628583108584753553E-17, 1.000000000000000000, -0.000000000000000000 ) ) ;
#173 = ORIENTED_EDGE ( 'NONE', *, *, #253, .T. ) ;
#174 = CARTESIAN_POINT ( 'NONE',  ( 1.516480271171051896E-32, 2.625000000000000000, 0.000000000000000000 ) ) ;
#175 = EDGE_LOOP ( 'NONE', ( #24, #77 ) ) ;
#176 = CARTESIAN_POINT ( 'NONE',  ( 0.000000000000000000, 0.000000000000000000, 0.000000000000000000 ) ) ;
#177 =( NAMED_UNIT ( * ) SI_UNIT ( $, .STERADIAN. ) SOLID_ANGLE_UNIT ( ) );
#178 = DIMENSIONAL_EXPONENTS ( 1.000000000000000000, 0.000000000000000000, 0.000000000000000000, 0.000000000000000000, 0.000000000000000000, 0.000000000000000000, 0.000000000000000000 ) ;
#179 = PLANE ( 'NONE',  #158 ) ;
#180 = PRODUCT_CONTEXT ( 'NONE', #280, 'mechanical' ) ;
#181 = CARTESIAN_POINT ( 'NONE',  ( 6.123233995736766036E-17, 2.625000000000000000, 0.5000000000000000000 ) ) ;
#182 =( NAMED_UNIT ( * ) PLANE_ANGLE_UNIT ( ) SI_UNIT ( $, .RADIAN. ) );
#183 = CARTESIAN_POINT ( 'NONE',  ( 0.000000000000000000, 0.000000000000000000, 0.000000000000000000 ) ) ;
#184 = VECTOR ( 'NONE', #228, 39.37007874015748143 ) ;
#185 =( GEOMETRIC_REPRESENTATION_CONTEXT ( 3 ) GLOBAL_UNCERTAINTY_ASSIGNED_CONTEXT ( ( #99 ) ) GLOBAL_UNIT_ASSIGNED_CONTEXT ( ( #304, #148, #199 ) ) REPRESENTATION_CONTEXT ( 'NONE', 'WORKASPACE' ) );
#186 = DIRECTION ( 'NONE',  ( -1.000000000000000000, 0.000000000000000000, 0.000000000000000000 ) ) ;
#187 = CARTESIAN_POINT ( 'NONE',  ( -1.224646799147354440E-16, 6.000000000000000888, 0.000000000000000000 ) ) ;
#188 = CARTESIAN_POINT ( 'NONE',  ( 0.000000000000000000, 0.000000000000000000, -0.5000000000000000000 ) ) ;
#189 = VERTEX_POINT ( 'NONE', #299 ) ;
#190 = FILL_AREA_STYLE_COLOUR ( '', #136 ) ;
#191 = EDGE_LOOP ( 'NONE', ( #76, #229, #94, #74 ) ) ;
#192 = FILL_AREA_STYLE_COLOUR ( '', #216 ) ;
#193 = ORIENTED_EDGE ( 'NONE', *, *, #263, .T. ) ;
#194 = FILL_AREA_STYLE ('',( #37 ) ) ;
#195 = AXIS2_PLACEMENT_3D ( 'NONE', #176, #272, #269 ) ;
#196 = ADVANCED_FACE ( 'NONE', ( #250 ), #274, .T. ) ;
#197 = SURFACE_STYLE_USAGE ( .BOTH. , #147 ) ;
#198 = DIMENSIONAL_EXPONENTS ( 1.000000000000000000, 0.000000000000000000, 0.000000000000000000, 0.000000000000000000, 0.000000000000000000, 0.000000000000000000, 0.000000000000000000 ) ;
#199 =( NAMED_UNIT ( * ) SI_UNIT ( $, .STERADIAN. ) SOLID_ANGLE_UNIT ( ) );
#200 =( CONVERSION_BASED_UNIT ( 'INCH', #120 ) LENGTH_UNIT ( ) NAMED_UNIT ( #81 ) );
#201 = CLOSED_SHELL ( 'NONE', ( #196, #212, #305, #167 ) ) ;
#202 = PRODUCT_DEFINITION_FORMATION_WITH_SPECIFIED_SOURCE ( 'ANY', '', #249, .NOT_KNOWN. ) ;
#203 = COLOUR_RGB ( '',1.000000000000000000, 0.000000000000000000, 0.000000000000000000 ) ;
#204 =( GEOMETRIC_REPRESENTATION_CONTEXT ( 3 ) GLOBAL_UNCERTAINTY_ASSIGNED_CONTEXT ( ( #165 ) ) GLOBAL_UNIT_ASSIGNED_CONTEXT ( ( #236, #182, #15 ) ) REPRESENTATION_CONTEXT ( 'NONE', 'WORKASPACE' ) );
#205 = CARTESIAN_POINT ( 'NONE',  ( 6.123233995736766036E-17, 0.000000000000000000, 0.5000000000000000000 ) ) ;
#206 = MANIFOLD_SOLID_BREP ( 'Revolve - Tool Body (Straight Shanked)', #64 ) ;
#207 = AXIS2_PLACEMENT_3D ( 'NONE', #271, #217, #96 ) ;
#208 = DIRECTION ( 'NONE',  ( -1.000000000000000000, 0.000000000000000000, 0.000000000000000000 ) ) ;
#209 = EDGE_CURVE ( 'NONE', #296, #218, #164, .T. ) ;
#210 = AXIS2_PLACEMENT_3D ( 'NONE', #115, #1, #186 ) ;
#211 = MANIFOLD_SOLID_BREP ( 'Revolve - Cutting Edge', #201 ) ;
#212 = ADVANCED_FACE ( 'NONE', ( #16 ), #179, .T. ) ;
#213 = PRESENTATION_STYLE_ASSIGNMENT (( #294 ) ) ;
#214 = VERTEX_POINT ( 'NONE', #75 ) ;
#215 = DIRECTION ( 'NONE',  ( -0.000000000000000000, -1.000000000000000000, -0.000000000000000000 ) ) ;
#216 = COLOUR_RGB ( '',0.7921568627450980005, 0.8196078431372548767, 0.9333333333333333481 ) ;
#217 = DIRECTION ( 'NONE',  ( -3.628583108584753553E-17, 1.000000000000000000, -0.000000000000000000 ) ) ;
#218 = VERTEX_POINT ( 'NONE', #297 ) ;
#219 = FILL_AREA_STYLE_COLOUR ( '', #153 ) ;
#220 = LINE ( 'NONE', #59, #23 ) ;
#221 = VERTEX_POINT ( 'NONE', #121 ) ;
#222 = DIRECTION ( 'NONE',  ( -0.000000000000000000, -1.000000000000000000, -0.000000000000000000 ) ) ;
#223 =( CONVERSION_BASED_UNIT ( 'INCH', #248 ) LENGTH_UNIT ( ) NAMED_UNIT ( #114 ) );
#224 = FILL_AREA_STYLE ('',( #190 ) ) ;
#225 = EDGE_CURVE ( 'NONE', #221, #8, #54, .T. ) ;
#226 = ORIENTED_EDGE ( 'NONE', *, *, #113, .F. ) ;
#227 = AXIS2_PLACEMENT_3D ( 'NONE', #144, #7, #72 ) ;
#228 = DIRECTION ( 'NONE',  ( -3.628583108584753553E-17, 1.000000000000000000, -0.000000000000000000 ) ) ;
#229 = ORIENTED_EDGE ( 'NONE', *, *, #84, .T. ) ;
#230 = SURFACE_STYLE_USAGE ( .BOTH. , #244 ) ;
#231 = ADVANCED_FACE ( 'NONE', ( #116 ), #11, .T. ) ;
#232 = AXIS2_PLACEMENT_3D ( 'NONE', #103, #222, #146 ) ;
#233 =( NAMED_UNIT ( * ) SI_UNIT ( $, .STERADIAN. ) SOLID_ANGLE_UNIT ( ) );
#234 = VECTOR ( 'NONE', #51, 39.37007874015748143 ) ;
#235 = LENGTH_MEASURE_WITH_UNIT ( LENGTH_MEASURE( 0.02539999999999999897 ), #112 );
#236 =( CONVERSION_BASED_UNIT ( 'INCH', #235 ) LENGTH_UNIT ( ) NAMED_UNIT ( #178 ) );
#237 = MECHANICAL_DESIGN_GEOMETRIC_PRESENTATION_REPRESENTATION (  '', ( #48 ), #255 ) ;
#238 = LINE ( 'NONE', #17, #184 ) ;
#239 = CARTESIAN_POINT ( 'NONE',  ( 3.291653843976647826E-34, 2.625000000000000000, 0.000000000000000000 ) ) ;
#240 = ORIENTED_EDGE ( 'NONE', *, *, #277, .T. ) ;
#241 = ORIENTED_EDGE ( 'NONE', *, *, #84, .F. ) ;
#242 = DIRECTION ( 'NONE',  ( 3.628583108584753553E-17, -1.000000000000000000, 0.000000000000000000 ) ) ;
#243 = PRODUCT_RELATED_PRODUCT_CATEGORY ( 'part', '', ( #249 ) ) ;
#244 = SURFACE_SIDE_STYLE ('',( #130 ) ) ;
#245 = DIMENSIONAL_EXPONENTS ( 1.000000000000000000, 0.000000000000000000, 0.000000000000000000, 0.000000000000000000, 0.000000000000000000, 0.000000000000000000, 0.000000000000000000 ) ;
#246 = DIRECTION ( 'NONE',  ( -1.000000000000000000, 0.000000000000000000, 0.000000000000000000 ) ) ;
#247 = DIRECTION ( 'NONE',  ( 0.000000000000000000, 0.000000000000000000, -1.000000000000000000 ) ) ;
#248 = LENGTH_MEASURE_WITH_UNIT ( LENGTH_MEASURE( 0.02539999999999999897 ), #98 );
#249 = PRODUCT ( '00767', '00767', '', ( #180 ) ) ;
#250 = FACE_OUTER_BOUND ( 'NONE', #191, .T. ) ;
#251 = MECHANICAL_DESIGN_GEOMETRIC_PRESENTATION_REPRESENTATION (  '', ( #62 ), #204 ) ;
#252 = SURFACE_SIDE_STYLE ('',( #283 ) ) ;
#253 = EDGE_CURVE ( 'NONE', #140, #218, #220, .T. ) ;
#254 = AXIS2_PLACEMENT_3D ( 'NONE', #174, #32, #267 ) ;
#255 =( GEOMETRIC_REPRESENTATION_CONTEXT ( 3 ) GLOBAL_UNCERTAINTY_ASSIGNED_CONTEXT ( ( #142 ) ) GLOBAL_UNIT_ASSIGNED_CONTEXT ( ( #223, #149, #13 ) ) REPRESENTATION_CONTEXT ( 'NONE', 'WORKASPACE' ) );
#256 = DIRECTION ( 'NONE',  ( 0.000000000000000000, 0.000000000000000000, -1.000000000000000000 ) ) ;
#257 = UNCERTAINTY_MEASURE_WITH_UNIT (LENGTH_MEASURE( 1.000000000000000082E-05 ), #108, 'distance_accuracy_value', 'NONE');
#258 = SURFACE_SIDE_STYLE ('',( #169 ) ) ;
#259 = FACE_OUTER_BOUND ( 'NONE', #6, .T. ) ;
#260 = ORIENTED_EDGE ( 'NONE', *, *, #284, .T. ) ;
#261 =( LENGTH_UNIT ( ) NAMED_UNIT ( * ) SI_UNIT ( $, .METRE. ) );
#262 = ORIENTED_EDGE ( 'NONE', *, *, #277, .F. ) ;
#263 = EDGE_CURVE ( 'NONE', #189, #221, #2, .T. ) ;
#264 = SURFACE_STYLE_FILL_AREA ( #194 ) ;
#265 = STYLED_ITEM ( 'NONE', ( #213 ), #305 ) ;
#266 = FILL_AREA_STYLE_COLOUR ( '', #301 ) ;
#267 = DIRECTION ( 'NONE',  ( -1.000000000000000000, 0.000000000000000000, 0.000000000000000000 ) ) ;
#268 = ORIENTED_EDGE ( 'NONE', *, *, #39, .F. ) ;
#269 = DIRECTION ( 'NONE',  ( 0.000000000000000000, 0.000000000000000000, -1.000000000000000000 ) ) ;
#270 = CARTESIAN_POINT ( 'NONE',  ( -1.224646799147354440E-16, 6.000000000000000888, 0.000000000000000000 ) ) ;
#271 = CARTESIAN_POINT ( 'NONE',  ( -1.224646799147354440E-16, 6.000000000000000888, 0.000000000000000000 ) ) ;
#272 = DIRECTION ( 'NONE',  ( 0.000000000000000000, -1.000000000000000000, -0.000000000000000000 ) ) ;
#273 =( CONVERSION_BASED_UNIT ( 'INCH', #127 ) LENGTH_UNIT ( ) NAMED_UNIT ( #93 ) );
#274 = CYLINDRICAL_SURFACE ( 'NONE', #28, 0.5000000000000000000 ) ;
#275 =( NAMED_UNIT ( * ) PLANE_ANGLE_UNIT ( ) SI_UNIT ( $, .RADIAN. ) );
#276 = FILL_AREA_STYLE_COLOUR ( '', #42 ) ;
#277 = EDGE_CURVE ( 'NONE', #218, #296, #282, .T. ) ;
#278 = AXIS2_PLACEMENT_3D ( 'NONE', #239, #289, #19 ) ;
#279 = SURFACE_STYLE_USAGE ( .BOTH. , #88 ) ;
#280 = APPLICATION_CONTEXT ( 'automotive_design' ) ;
#281 = PRESENTATION_LAYER_ASSIGNMENT (  '', '', ( #308 ) ) ;
#282 = CIRCLE ( 'NONE', #79, 0.5000000000000001110 ) ;
#283 = SURFACE_STYLE_FILL_AREA ( #161 ) ;
#284 = EDGE_CURVE ( 'NONE', #140, #214, #92, .T. ) ;
#285 =( NAMED_UNIT ( * ) PLANE_ANGLE_UNIT ( ) SI_UNIT ( $, .RADIAN. ) );
#286 = CIRCLE ( 'NONE', #141, 0.5000000000000000000 ) ;
#287 =( GEOMETRIC_REPRESENTATION_CONTEXT ( 3 ) GLOBAL_UNCERTAINTY_ASSIGNED_CONTEXT ( ( #138 ) ) GLOBAL_UNIT_ASSIGNED_CONTEXT ( ( #44, #285, #46 ) ) REPRESENTATION_CONTEXT ( 'NONE', 'WORKASPACE' ) );
#288 = MECHANICAL_DESIGN_GEOMETRIC_PRESENTATION_REPRESENTATION (  '', ( #66 ), #106 ) ;
#289 = DIRECTION ( 'NONE',  ( -3.628583108584753553E-17, 1.000000000000000000, 0.000000000000000000 ) ) ;
#290 = CYLINDRICAL_SURFACE ( 'NONE', #210, 0.5000000000000001110 ) ;
#291 = FACE_OUTER_BOUND ( 'NONE', #12, .T. ) ;
#292 = EDGE_LOOP ( 'NONE', ( #30, #173, #125, #226 ) ) ;
#293 = PLANE ( 'NONE',  #278 ) ;
#294 = SURFACE_STYLE_USAGE ( .BOTH. , #258 ) ;
#295 = SURFACE_STYLE_USAGE ( .BOTH. , #101 ) ;
#296 = VERTEX_POINT ( 'NONE', #150 ) ;
#297 = CARTESIAN_POINT ( 'NONE',  ( 0.5000000000000000000, 6.000000000000000888, 6.123233995736767268E-17 ) ) ;
#298 = FACE_OUTER_BOUND ( 'NONE', #26, .T. ) ;
#299 = CARTESIAN_POINT ( 'NONE',  ( 0.000000000000000000, 2.625000000000000000, -0.5000000000000000000 ) ) ;
#300 = PLANE ( 'NONE',  #195 ) ;
#301 = COLOUR_RGB ( '',0.7921568627450980005, 0.8196078431372548767, 0.9333333333333333481 ) ;
#302 =( LENGTH_UNIT ( ) NAMED_UNIT ( * ) SI_UNIT ( $, .METRE. ) );
#303 = CYLINDRICAL_SURFACE ( 'NONE', #168, 0.5000000000000000000 ) ;
#304 =( CONVERSION_BASED_UNIT ( 'INCH', #67 ) LENGTH_UNIT ( ) NAMED_UNIT ( #245 ) );
#305 = ADVANCED_FACE ( 'NONE', ( #291 ), #303, .T. ) ;
#306 = DIRECTION ( 'NONE',  ( -0.000000000000000000, -1.000000000000000000, -0.000000000000000000 ) ) ;
#307 = UNCERTAINTY_MEASURE_WITH_UNIT (LENGTH_MEASURE( 1.000000000000000082E-05 ), #273, 'distance_accuracy_value', 'NONE');
#308 = STYLED_ITEM ( 'NONE', ( #80 ), #167 ) ;
#309 = MECHANICAL_DESIGN_GEOMETRIC_PRESENTATION_REPRESENTATION (  '', ( #265 ), #49 ) ;
ENDSEC;
END-ISO-10303-21;
