ISO-10303-21;
HEADER;
FILE_DESCRIPTION (( 'STEP AP214' ),
    '1' );
FILE_NAME ('59711.STEP',
    '2023-07-24T15:27:17',
    ( '' ),
    ( '' ),
    'SwSTEP 2.0',
    'SolidWorks 2023',
    '' );
FILE_SCHEMA (( 'AUTOMOTIVE_DESIGN' ));
ENDSEC;

DATA;
#1 = SURFACE_SIDE_STYLE ('',( #351 ) ) ;
#2 = AXIS2_PLACEMENT_3D ( 'NONE', #43, #132, #255 ) ;
#3 = PRODUCT_DEFINITION_FORMATION_WITH_SPECIFIED_SOURCE ( 'ANY', '', #305, .NOT_KNOWN. ) ;
#4 = EDGE_CURVE ( 'NONE', #111, #273, #73, .T. ) ;
#5 = FILL_AREA_STYLE ('',( #266 ) ) ;
#6 = PRESENTATION_STYLE_ASSIGNMENT (( #244 ) ) ;
#7 = DIRECTION ( 'NONE',  ( 0.000000000000000000, 0.000000000000000000, -1.000000000000000000 ) ) ;
#8 = CARTESIAN_POINT ( 'NONE',  ( 0.000000000000000000, 0.000000000000000000, 0.000000000000000000 ) ) ;
#9 = EDGE_CURVE ( 'NONE', #365, #92, #58, .T. ) ;
#10 = SURFACE_SIDE_STYLE ('',( #360 ) ) ;
#11 = COLOUR_RGB ( '',1.000000000000000000, 0.000000000000000000, 0.000000000000000000 ) ;
#12 = CIRCLE ( 'NONE', #202, 5.999999999999994671 ) ;
#13 = FACE_OUTER_BOUND ( 'NONE', #219, .T. ) ;
#14 = FACE_OUTER_BOUND ( 'NONE', #144, .T. ) ;
#15 = ORIENTED_EDGE ( 'NONE', *, *, #4, .T. ) ;
#16 = CARTESIAN_POINT ( 'NONE',  ( 7.041719095097280880E-16, 0.000000000000000000, 5.500000000000000000 ) ) ;
#17 = EDGE_LOOP ( 'NONE', ( #97, #91, #254, #335 ) ) ;
#18 = DIRECTION ( 'NONE',  ( -0.000000000000000000, -1.000000000000000000, -0.000000000000000000 ) ) ;
#19 = STYLED_ITEM ( 'NONE', ( #141 ), #206 ) ;
#20 = ADVANCED_FACE ( 'NONE', ( #135 ), #258, .T. ) ;
#21 = AXIS2_PLACEMENT_3D ( 'NONE', #8, #108, #238 ) ;
#22 = EDGE_CURVE ( 'NONE', #250, #92, #29, .T. ) ;
#23 = ORIENTED_EDGE ( 'NONE', *, *, #38, .F. ) ;
#24 = PRESENTATION_LAYER_ASSIGNMENT (  '', '', ( #41 ) ) ;
#25 =( GEOMETRIC_REPRESENTATION_CONTEXT ( 3 ) GLOBAL_UNCERTAINTY_ASSIGNED_CONTEXT ( ( #203 ) ) GLOBAL_UNIT_ASSIGNED_CONTEXT ( ( #123, #127, #159 ) ) REPRESENTATION_CONTEXT ( 'NONE', 'WORKASPACE' ) );
#26 = PRESENTATION_STYLE_ASSIGNMENT (( #260 ) ) ;
#27 = DIRECTION ( 'NONE',  ( -1.000000000000000000, 0.000000000000000000, 0.000000000000000000 ) ) ;
#28 = MANIFOLD_SOLID_BREP ( 'Revolve - Cutting Edge', #226 ) ;
#29 = LINE ( 'NONE', #168, #55 ) ;
#30 =( GEOMETRIC_REPRESENTATION_CONTEXT ( 3 ) GLOBAL_UNCERTAINTY_ASSIGNED_CONTEXT ( ( #100 ) ) GLOBAL_UNIT_ASSIGNED_CONTEXT ( ( #54, #103, #205 ) ) REPRESENTATION_CONTEXT ( 'NONE', 'WORKASPACE' ) );
#31 = PRESENTATION_LAYER_ASSIGNMENT (  '', '', ( #19 ) ) ;
#32 = FILL_AREA_STYLE_COLOUR ( '', #11 ) ;
#33 = CARTESIAN_POINT ( 'NONE',  ( 5.421010862427522170E-15, 18.00000000000000000, 0.000000000000000000 ) ) ;
#34 = SURFACE_STYLE_USAGE ( .BOTH. , #10 ) ;
#35 = COLOUR_RGB ( '',0.7921568627450980005, 0.8196078431372548767, 0.9333333333333333481 ) ;
#36 =( NAMED_UNIT ( * ) PLANE_ANGLE_UNIT ( ) SI_UNIT ( $, .RADIAN. ) );
#37 =( NAMED_UNIT ( * ) SI_UNIT ( $, .STERADIAN. ) SOLID_ANGLE_UNIT ( ) );
#38 = EDGE_CURVE ( 'NONE', #92, #365, #247, .T. ) ;
#39 = MANIFOLD_SOLID_BREP ( 'Revolve - Tool Body (Straight Shanked)', #303 ) ;
#40 = STYLED_ITEM ( 'NONE', ( #269 ), #39 ) ;
#41 = STYLED_ITEM ( 'NONE', ( #6 ), #209 ) ;
#42 = CARTESIAN_POINT ( 'NONE',  ( 0.000000000000000000, 18.00000000000000000, 0.000000000000000000 ) ) ;
#43 = CARTESIAN_POINT ( 'NONE',  ( 0.000000000000000000, 0.5000000000000000000, 0.000000000000000000 ) ) ;
#44 = EDGE_CURVE ( 'NONE', #187, #365, #79, .T. ) ;
#45 = SURFACE_STYLE_FILL_AREA ( #78 ) ;
#46 = STYLED_ITEM ( 'NONE', ( #321 ), #28 ) ;
#47 =( GEOMETRIC_REPRESENTATION_CONTEXT ( 3 ) GLOBAL_UNCERTAINTY_ASSIGNED_CONTEXT ( ( #345 ) ) GLOBAL_UNIT_ASSIGNED_CONTEXT ( ( #142, #36, #324 ) ) REPRESENTATION_CONTEXT ( 'NONE', 'WORKASPACE' ) );
#48 = AXIS2_PLACEMENT_3D ( 'NONE', #308, #246, #151 ) ;
#49 = DIRECTION ( 'NONE',  ( -1.000000000000000000, -1.208874916035850209E-16, 0.000000000000000000 ) ) ;
#50 = EDGE_CURVE ( 'NONE', #111, #122, #51, .T. ) ;
#51 = LINE ( 'NONE', #325, #222 ) ;
#52 = CARTESIAN_POINT ( 'NONE',  ( 0.000000000000000000, 0.5000000000000000000, 0.000000000000000000 ) ) ;
#53 = DIRECTION ( 'NONE',  ( 1.000000000000000000, 0.000000000000000000, -1.224646799147353207E-16 ) ) ;
#54 =( LENGTH_UNIT ( ) NAMED_UNIT ( * ) SI_UNIT ( .MILLI., .METRE. ) );
#55 = VECTOR ( 'NONE', #330, 1000.000000000000000 ) ;
#56 = DIRECTION ( 'NONE',  ( 0.000000000000000000, 0.000000000000000000, 1.000000000000000000 ) ) ;
#57 = STYLED_ITEM ( 'NONE', ( #102 ), #99 ) ;
#58 = CIRCLE ( 'NONE', #285, 6.000000000000001776 ) ;
#59 = SURFACE_SIDE_STYLE ('',( #83 ) ) ;
#60 = SURFACE_SIDE_STYLE ('',( #241 ) ) ;
#61 = CARTESIAN_POINT ( 'NONE',  ( 0.000000000000000000, 0.000000000000000000, 0.000000000000000000 ) ) ;
#62 = CARTESIAN_POINT ( 'NONE',  ( 6.000000000000000000, 18.00000000000000355, 7.347880794884119736E-16 ) ) ;
#63 = DIRECTION ( 'NONE',  ( 0.000000000000000000, 0.000000000000000000, -1.000000000000000000 ) ) ;
#64 = COLOUR_RGB ( '',1.000000000000000000, 0.000000000000000000, 0.000000000000000000 ) ;
#65 = EDGE_LOOP ( 'NONE', ( #215, #184 ) ) ;
#66 = DIRECTION ( 'NONE',  ( -1.208874916035850209E-16, 1.000000000000000000, -0.000000000000000000 ) ) ;
#67 = ORIENTED_EDGE ( 'NONE', *, *, #50, .F. ) ;
#68 = CARTESIAN_POINT ( 'NONE',  ( 7.347880794884119736E-16, 0.000000000000000000, 6.000000000000000000 ) ) ;
#69 = EDGE_CURVE ( 'NONE', #320, #282, #225, .T. ) ;
#70 = COLOUR_RGB ( '',1.000000000000000000, 0.000000000000000000, 0.000000000000000000 ) ;
#71 = UNCERTAINTY_MEASURE_WITH_UNIT (LENGTH_MEASURE( 1.000000000000000082E-05 ), #178, 'distance_accuracy_value', 'NONE');
#72 = EDGE_LOOP ( 'NONE', ( #240, #155 ) ) ;
#73 = CIRCLE ( 'NONE', #264, 6.000000000000000000 ) ;
#74 = UNCERTAINTY_MEASURE_WITH_UNIT (LENGTH_MEASURE( 1.000000000000000082E-05 ), #204, 'distance_accuracy_value', 'NONE');
#75 = ORIENTED_EDGE ( 'NONE', *, *, #296, .F. ) ;
#76 =( GEOMETRIC_REPRESENTATION_CONTEXT ( 3 ) GLOBAL_UNCERTAINTY_ASSIGNED_CONTEXT ( ( #197 ) ) GLOBAL_UNIT_ASSIGNED_CONTEXT ( ( #217, #272, #281 ) ) REPRESENTATION_CONTEXT ( 'NONE', 'WORKASPACE' ) );
#77 = AXIS2_PLACEMENT_3D ( 'NONE', #152, #18, #311 ) ;
#78 = FILL_AREA_STYLE ('',( #95 ) ) ;
#79 = LINE ( 'NONE', #259, #248 ) ;
#80 = DIRECTION ( 'NONE',  ( -1.000000000000000000, 0.000000000000000000, 0.000000000000000000 ) ) ;
#81 =( LENGTH_UNIT ( ) NAMED_UNIT ( * ) SI_UNIT ( .MILLI., .METRE. ) );
#82 = CARTESIAN_POINT ( 'NONE',  ( 0.000000000000000000, 18.00000000000000000, 0.000000000000000000 ) ) ;
#83 = SURFACE_STYLE_FILL_AREA ( #302 ) ;
#84 = LINE ( 'NONE', #68, #229 ) ;
#85 = STYLED_ITEM ( 'NONE', ( #287 ), #359 ) ;
#86 = SURFACE_STYLE_FILL_AREA ( #242 ) ;
#87 = ORIENTED_EDGE ( 'NONE', *, *, #271, .F. ) ;
#88 = CYLINDRICAL_SURFACE ( 'NONE', #274, 5.999999999999998224 ) ;
#89 = STYLED_ITEM ( 'NONE', ( #26 ), #20 ) ;
#90 = CIRCLE ( 'NONE', #137, 5.999999999999994671 ) ;
#91 = ORIENTED_EDGE ( 'NONE', *, *, #170, .T. ) ;
#92 = VERTEX_POINT ( 'NONE', #129 ) ;
#93 = CARTESIAN_POINT ( 'NONE',  ( -6.000000000000003553, 75.00000000000000000, 0.000000000000000000 ) ) ;
#94 = PRODUCT_RELATED_PRODUCT_CATEGORY ( 'part', '', ( #305 ) ) ;
#95 = FILL_AREA_STYLE_COLOUR ( '', #70 ) ;
#96 = AXIS2_PLACEMENT_3D ( 'NONE', #326, #199, #322 ) ;
#97 = ORIENTED_EDGE ( 'NONE', *, *, #69, .F. ) ;
#98 = ORIENTED_EDGE ( 'NONE', *, *, #271, .T. ) ;
#99 = ADVANCED_FACE ( 'NONE', ( #171 ), #298, .T. ) ;
#100 = UNCERTAINTY_MEASURE_WITH_UNIT (LENGTH_MEASURE( 1.000000000000000082E-05 ), #54, 'distance_accuracy_value', 'NONE');
#101 = AXIS2_PLACEMENT_3D ( 'NONE', #161, #291, #182 ) ;
#102 = PRESENTATION_STYLE_ASSIGNMENT (( #104 ) ) ;
#103 =( NAMED_UNIT ( * ) PLANE_ANGLE_UNIT ( ) SI_UNIT ( $, .RADIAN. ) );
#104 = SURFACE_STYLE_USAGE ( .BOTH. , #370 ) ;
#105 = DIRECTION ( 'NONE',  ( -1.208874916035850209E-16, 1.000000000000000000, -0.000000000000000000 ) ) ;
#106 = DIRECTION ( 'NONE',  ( -1.208874916035850209E-16, 1.000000000000000000, -0.000000000000000000 ) ) ;
#107 = DIRECTION ( 'NONE',  ( 1.000000000000000000, 0.000000000000000000, 0.000000000000000000 ) ) ;
#108 = DIRECTION ( 'NONE',  ( -0.000000000000000000, -1.000000000000000000, -0.000000000000000000 ) ) ;
#109 = DIRECTION ( 'NONE',  ( 0.000000000000000000, 0.000000000000000000, 1.000000000000000000 ) ) ;
#110 = FILL_AREA_STYLE ('',( #113 ) ) ;
#111 = VERTEX_POINT ( 'NONE', #230 ) ;
#112 = FACE_OUTER_BOUND ( 'NONE', #319, .T. ) ;
#113 = FILL_AREA_STYLE_COLOUR ( '', #252 ) ;
#114 = EDGE_CURVE ( 'NONE', #187, #250, #12, .T. ) ;
#115 = CARTESIAN_POINT ( 'NONE',  ( 0.000000000000000000, 0.000000000000000000, -5.500000000000000000 ) ) ;
#116 = ORIENTED_EDGE ( 'NONE', *, *, #9, .F. ) ;
#117 = EDGE_CURVE ( 'NONE', #273, #320, #84, .T. ) ;
#118 = CARTESIAN_POINT ( 'NONE',  ( -1.469576158976823750E-15, 75.00000000000000000, 0.000000000000000000 ) ) ;
#119 = EDGE_LOOP ( 'NONE', ( #128, #220 ) ) ;
#120 = AXIS2_PLACEMENT_3D ( 'NONE', #33, #164, #49 ) ;
#121 =( NAMED_UNIT ( * ) PLANE_ANGLE_UNIT ( ) SI_UNIT ( $, .RADIAN. ) );
#122 = VERTEX_POINT ( 'NONE', #158 ) ;
#123 =( LENGTH_UNIT ( ) NAMED_UNIT ( * ) SI_UNIT ( .MILLI., .METRE. ) );
#124 = EDGE_LOOP ( 'NONE', ( #15, #342, #87, #67 ) ) ;
#125 = COLOUR_RGB ( '',1.000000000000000000, 0.000000000000000000, 0.000000000000000000 ) ;
#126 = CIRCLE ( 'NONE', #191, 6.000000000000000000 ) ;
#127 =( NAMED_UNIT ( * ) PLANE_ANGLE_UNIT ( ) SI_UNIT ( $, .RADIAN. ) );
#128 = ORIENTED_EDGE ( 'NONE', *, *, #4, .F. ) ;
#129 = CARTESIAN_POINT ( 'NONE',  ( 6.000000000000000000, 75.00000000000000000, 7.347880794884119736E-16 ) ) ;
#130 = APPLICATION_CONTEXT ( 'automotive_design' ) ;
#131 = CARTESIAN_POINT ( 'NONE',  ( -1.469576158976823750E-15, 75.00000000000000000, 0.000000000000000000 ) ) ;
#132 = DIRECTION ( 'NONE',  ( -0.000000000000000000, -1.000000000000000000, -0.000000000000000000 ) ) ;
#133 = PRODUCT_DEFINITION ( 'UNKNOWN', '', #3, #280 ) ;
#134 = FILL_AREA_STYLE_COLOUR ( '', #314 ) ;
#135 = FACE_OUTER_BOUND ( 'NONE', #119, .T. ) ;
#136 = PRESENTATION_LAYER_ASSIGNMENT (  '', '', ( #46 ) ) ;
#137 = AXIS2_PLACEMENT_3D ( 'NONE', #337, #66, #189 ) ;
#138 = DIRECTION ( 'NONE',  ( 0.000000000000000000, 0.000000000000000000, -1.000000000000000000 ) ) ;
#139 = SURFACE_STYLE_USAGE ( .BOTH. , #59 ) ;
#140 =( LENGTH_UNIT ( ) NAMED_UNIT ( * ) SI_UNIT ( .MILLI., .METRE. ) );
#141 = PRESENTATION_STYLE_ASSIGNMENT (( #34 ) ) ;
#142 =( LENGTH_UNIT ( ) NAMED_UNIT ( * ) SI_UNIT ( .MILLI., .METRE. ) );
#143 =( NAMED_UNIT ( * ) SI_UNIT ( $, .STERADIAN. ) SOLID_ANGLE_UNIT ( ) );
#144 = EDGE_LOOP ( 'NONE', ( #286, #75 ) ) ;
#145 = PRODUCT_DEFINITION_SHAPE ( 'NONE', 'NONE',  #133 ) ;
#146 = APPLICATION_PROTOCOL_DEFINITION ( 'draft international standard', 'automotive_design', 1998, #130 ) ;
#147 = AXIS2_PLACEMENT_3D ( 'NONE', #348, #53, #196 ) ;
#148 = CYLINDRICAL_SURFACE ( 'NONE', #96, 5.999999999999998224 ) ;
#149 = EDGE_LOOP ( 'NONE', ( #358, #361, #192, #249 ) ) ;
#150 = DIRECTION ( 'NONE',  ( 0.000000000000000000, 0.000000000000000000, -1.000000000000000000 ) ) ;
#151 = DIRECTION ( 'NONE',  ( 0.000000000000000000, 0.000000000000000000, -1.000000000000000000 ) ) ;
#152 = CARTESIAN_POINT ( 'NONE',  ( 0.000000000000000000, 0.000000000000000000, 0.000000000000000000 ) ) ;
#153 = AXIS2_PLACEMENT_3D ( 'NONE', #201, #207, #27 ) ;
#154 = PRESENTATION_LAYER_ASSIGNMENT (  '', '', ( #57 ) ) ;
#155 = ORIENTED_EDGE ( 'NONE', *, *, #38, .T. ) ;
#156 = AXIS2_PLACEMENT_3D ( 'NONE', #307, #109, #107 ) ;
#157 = EDGE_CURVE ( 'NONE', #273, #111, #355, .T. ) ;
#158 = CARTESIAN_POINT ( 'NONE',  ( 0.000000000000000000, 0.5000000000000000000, -6.000000000000000000 ) ) ;
#159 =( NAMED_UNIT ( * ) SI_UNIT ( $, .STERADIAN. ) SOLID_ANGLE_UNIT ( ) );
#160 = ADVANCED_BREP_SHAPE_REPRESENTATION ( '59711', ( #28, #39, #156 ), #310 ) ;
#161 = CARTESIAN_POINT ( 'NONE',  ( 0.000000000000000000, 0.5000000000000000000, 0.000000000000000000 ) ) ;
#162 = AXIS2_PLACEMENT_3D ( 'NONE', #339, #366, #369 ) ;
#163 = ORIENTED_EDGE ( 'NONE', *, *, #44, .F. ) ;
#164 = DIRECTION ( 'NONE',  ( -1.208874916035850209E-16, 1.000000000000000000, 0.000000000000000000 ) ) ;
#165 = MECHANICAL_DESIGN_GEOMETRIC_PRESENTATION_REPRESENTATION (  '', ( #57 ), #344 ) ;
#166 = FACE_OUTER_BOUND ( 'NONE', #72, .T. ) ;
#167 = FILL_AREA_STYLE ('',( #32 ) ) ;
#168 = CARTESIAN_POINT ( 'NONE',  ( 5.999999999999996447, 75.00000000000000000, 7.347880794884117764E-16 ) ) ;
#169 = DIRECTION ( 'NONE',  ( -1.000000000000000000, 0.000000000000000000, 0.000000000000000000 ) ) ;
#170 = EDGE_CURVE ( 'NONE', #320, #122, #126, .T. ) ;
#171 = FACE_OUTER_BOUND ( 'NONE', #124, .T. ) ;
#172 = SHAPE_DEFINITION_REPRESENTATION ( #145, #160 ) ;
#173 = FILL_AREA_STYLE_COLOUR ( '', #200 ) ;
#174 = CARTESIAN_POINT ( 'NONE',  ( 7.347880794884119736E-16, 18.00000000000000000, 6.000000000000000000 ) ) ;
#175 = AXIS2_PLACEMENT_3D ( 'NONE', #275, #313, #186 ) ;
#176 = FILL_AREA_STYLE ('',( #304 ) ) ;
#177 = CIRCLE ( 'NONE', #77, 5.500000000000000000 ) ;
#178 =( LENGTH_UNIT ( ) NAMED_UNIT ( * ) SI_UNIT ( .MILLI., .METRE. ) );
#179 =( NAMED_UNIT ( * ) PLANE_ANGLE_UNIT ( ) SI_UNIT ( $, .RADIAN. ) );
#180 = APPLICATION_PROTOCOL_DEFINITION ( 'draft international standard', 'automotive_design', 1998, #316 ) ;
#181 = ADVANCED_FACE ( 'NONE', ( #268 ), #216, .T. ) ;
#182 = DIRECTION ( 'NONE',  ( 0.000000000000000000, 0.000000000000000000, -1.000000000000000000 ) ) ;
#183 = PLANE ( 'NONE',  #301 ) ;
#184 = ORIENTED_EDGE ( 'NONE', *, *, #340, .T. ) ;
#185 = DIRECTION ( 'NONE',  ( -1.208874916035850209E-16, 1.000000000000000000, -0.000000000000000000 ) ) ;
#186 = DIRECTION ( 'NONE',  ( 0.000000000000000000, 0.000000000000000000, -1.000000000000000000 ) ) ;
#187 = VERTEX_POINT ( 'NONE', #211 ) ;
#188 = ORIENTED_EDGE ( 'NONE', *, *, #22, .T. ) ;
#189 = DIRECTION ( 'NONE',  ( -1.000000000000000000, 0.000000000000000000, 0.000000000000000000 ) ) ;
#190 = DIRECTION ( 'NONE',  ( -0.000000000000000000, -1.000000000000000000, -0.000000000000000000 ) ) ;
#191 = AXIS2_PLACEMENT_3D ( 'NONE', #52, #299, #138 ) ;
#192 = ORIENTED_EDGE ( 'NONE', *, *, #50, .T. ) ;
#193 = UNCERTAINTY_MEASURE_WITH_UNIT (LENGTH_MEASURE( 1.000000000000000082E-05 ), #81, 'distance_accuracy_value', 'NONE');
#194 =( GEOMETRIC_REPRESENTATION_CONTEXT ( 3 ) GLOBAL_UNCERTAINTY_ASSIGNED_CONTEXT ( ( #262 ) ) GLOBAL_UNIT_ASSIGNED_CONTEXT ( ( #212, #179, #236 ) ) REPRESENTATION_CONTEXT ( 'NONE', 'WORKASPACE' ) );
#195 = ORIENTED_EDGE ( 'NONE', *, *, #296, .T. ) ;
#196 = DIRECTION ( 'NONE',  ( -1.224646799147353454E-16, 0.000000000000000000, -1.000000000000000000 ) ) ;
#197 = UNCERTAINTY_MEASURE_WITH_UNIT (LENGTH_MEASURE( 1.000000000000000082E-05 ), #217, 'distance_accuracy_value', 'NONE');
#198 =( NAMED_UNIT ( * ) PLANE_ANGLE_UNIT ( ) SI_UNIT ( $, .RADIAN. ) );
#199 = DIRECTION ( 'NONE',  ( -1.208874916035850209E-16, 1.000000000000000000, -0.000000000000000000 ) ) ;
#200 = COLOUR_RGB ( '',0.7921568627450980005, 0.8196078431372548767, 0.9333333333333333481 ) ;
#201 = CARTESIAN_POINT ( 'NONE',  ( -1.469576158976823750E-15, 75.00000000000000000, 0.000000000000000000 ) ) ;
#202 = AXIS2_PLACEMENT_3D ( 'NONE', #341, #277, #169 ) ;
#203 = UNCERTAINTY_MEASURE_WITH_UNIT (LENGTH_MEASURE( 1.000000000000000082E-05 ), #123, 'distance_accuracy_value', 'NONE');
#204 =( LENGTH_UNIT ( ) NAMED_UNIT ( * ) SI_UNIT ( .MILLI., .METRE. ) );
#205 =( NAMED_UNIT ( * ) SI_UNIT ( $, .STERADIAN. ) SOLID_ANGLE_UNIT ( ) );
#206 = ADVANCED_FACE ( 'NONE', ( #270 ), #353, .T. ) ;
#207 = DIRECTION ( 'NONE',  ( -1.208874916035850209E-16, 1.000000000000000000, -0.000000000000000000 ) ) ;
#208 = MECHANICAL_DESIGN_GEOMETRIC_PRESENTATION_REPRESENTATION (  '', ( #290 ), #47 ) ;
#209 = ADVANCED_FACE ( 'NONE', ( #239 ), #183, .T. ) ;
#210 = PRODUCT_CONTEXT ( 'NONE', #130, 'mechanical' ) ;
#211 = CARTESIAN_POINT ( 'NONE',  ( -5.999999999999989342, 18.00000000000000355, 0.000000000000000000 ) ) ;
#212 =( LENGTH_UNIT ( ) NAMED_UNIT ( * ) SI_UNIT ( .MILLI., .METRE. ) );
#213 = DIRECTION ( 'NONE',  ( -1.000000000000000000, 0.000000000000000000, 0.000000000000000000 ) ) ;
#214 = SURFACE_SIDE_STYLE ('',( #86 ) ) ;
#215 = ORIENTED_EDGE ( 'NONE', *, *, #317, .T. ) ;
#216 = TOROIDAL_SURFACE ( 'NONE', #175, 5.500000000000000000, 0.5000000000000002220 ) ;
#217 =( LENGTH_UNIT ( ) NAMED_UNIT ( * ) SI_UNIT ( .MILLI., .METRE. ) );
#218 = VERTEX_POINT ( 'NONE', #115 ) ;
#219 = EDGE_LOOP ( 'NONE', ( #245, #195, #243, #23 ) ) ;
#220 = ORIENTED_EDGE ( 'NONE', *, *, #157, .F. ) ;
#221 = PRESENTATION_LAYER_ASSIGNMENT (  '', '', ( #89 ) ) ;
#222 = VECTOR ( 'NONE', #233, 1000.000000000000000 ) ;
#223 = SURFACE_SIDE_STYLE ('',( #45 ) ) ;
#224 = PLANE ( 'NONE',  #120 ) ;
#225 = CIRCLE ( 'NONE', #147, 0.5000000000000004441 ) ;
#226 = CLOSED_SHELL ( 'NONE', ( #99, #359, #209, #181, #206, #20 ) ) ;
#227 = FILL_AREA_STYLE ('',( #134 ) ) ;
#228 = DIRECTION ( 'NONE',  ( 0.000000000000000000, -0.000000000000000000, 1.000000000000000000 ) ) ;
#229 = VECTOR ( 'NONE', #190, 1000.000000000000000 ) ;
#230 = CARTESIAN_POINT ( 'NONE',  ( 0.000000000000000000, 18.00000000000000000, -6.000000000000000000 ) ) ;
#231 = SURFACE_STYLE_FILL_AREA ( #167 ) ;
#232 = CARTESIAN_POINT ( 'NONE',  ( 0.000000000000000000, 0.5000000000000000000, -5.500000000000000000 ) ) ;
#233 = DIRECTION ( 'NONE',  ( -0.000000000000000000, -1.000000000000000000, -0.000000000000000000 ) ) ;
#234 = DIRECTION ( 'NONE',  ( 0.000000000000000000, 1.000000000000000000, 0.000000000000000000 ) ) ;
#235 = DIRECTION ( 'NONE',  ( -0.000000000000000000, -1.000000000000000000, -0.000000000000000000 ) ) ;
#236 =( NAMED_UNIT ( * ) SI_UNIT ( $, .STERADIAN. ) SOLID_ANGLE_UNIT ( ) );
#237 = MECHANICAL_DESIGN_GEOMETRIC_PRESENTATION_REPRESENTATION (  '', ( #41 ), #194 ) ;
#238 = DIRECTION ( 'NONE',  ( 0.000000000000000000, 0.000000000000000000, -1.000000000000000000 ) ) ;
#239 = FACE_OUTER_BOUND ( 'NONE', #65, .T. ) ;
#240 = ORIENTED_EDGE ( 'NONE', *, *, #9, .T. ) ;
#241 = SURFACE_STYLE_FILL_AREA ( #176 ) ;
#242 = FILL_AREA_STYLE ('',( #329 ) ) ;
#243 = ORIENTED_EDGE ( 'NONE', *, *, #44, .T. ) ;
#244 = SURFACE_STYLE_USAGE ( .BOTH. , #214 ) ;
#245 = ORIENTED_EDGE ( 'NONE', *, *, #22, .F. ) ;
#246 = DIRECTION ( 'NONE',  ( -0.000000000000000000, -1.000000000000000000, -0.000000000000000000 ) ) ;
#247 = CIRCLE ( 'NONE', #153, 6.000000000000001776 ) ;
#248 = VECTOR ( 'NONE', #106, 1000.000000000000000 ) ;
#249 = ORIENTED_EDGE ( 'NONE', *, *, #170, .F. ) ;
#250 = VERTEX_POINT ( 'NONE', #62 ) ;
#251 = EDGE_CURVE ( 'NONE', #122, #218, #338, .T. ) ;
#252 = COLOUR_RGB ( '',1.000000000000000000, 0.000000000000000000, 0.000000000000000000 ) ;
#253 = ADVANCED_FACE ( 'NONE', ( #13 ), #148, .T. ) ;
#254 = ORIENTED_EDGE ( 'NONE', *, *, #251, .T. ) ;
#255 = DIRECTION ( 'NONE',  ( 0.000000000000000000, 0.000000000000000000, -1.000000000000000000 ) ) ;
#256 = PRESENTATION_LAYER_ASSIGNMENT (  '', '', ( #40 ) ) ;
#257 = AXIS2_PLACEMENT_3D ( 'NONE', #356, #306, #63 ) ;
#258 = PLANE ( 'NONE',  #354 ) ;
#259 = CARTESIAN_POINT ( 'NONE',  ( -6.000000000000000000, 75.00000000000000000, 0.000000000000000000 ) ) ;
#260 = SURFACE_STYLE_USAGE ( .BOTH. , #327 ) ;
#261 = ADVANCED_FACE ( 'NONE', ( #166 ), #332, .F. ) ;
#262 = UNCERTAINTY_MEASURE_WITH_UNIT (LENGTH_MEASURE( 1.000000000000000082E-05 ), #212, 'distance_accuracy_value', 'NONE');
#263 =( NAMED_UNIT ( * ) SI_UNIT ( $, .STERADIAN. ) SOLID_ANGLE_UNIT ( ) );
#264 = AXIS2_PLACEMENT_3D ( 'NONE', #42, #292, #7 ) ;
#265 = AXIS2_PLACEMENT_3D ( 'NONE', #232, #278, #56 ) ;
#266 = FILL_AREA_STYLE_COLOUR ( '', #35 ) ;
#267 = PRESENTATION_LAYER_ASSIGNMENT (  '', '', ( #85 ) ) ;
#268 = FACE_OUTER_BOUND ( 'NONE', #17, .T. ) ;
#269 = PRESENTATION_STYLE_ASSIGNMENT (( #139 ) ) ;
#270 = FACE_OUTER_BOUND ( 'NONE', #149, .T. ) ;
#271 = EDGE_CURVE ( 'NONE', #122, #320, #350, .T. ) ;
#272 =( NAMED_UNIT ( * ) PLANE_ANGLE_UNIT ( ) SI_UNIT ( $, .RADIAN. ) );
#273 = VERTEX_POINT ( 'NONE', #174 ) ;
#274 = AXIS2_PLACEMENT_3D ( 'NONE', #118, #185, #213 ) ;
#275 = CARTESIAN_POINT ( 'NONE',  ( 0.000000000000000000, 0.5000000000000000000, 0.000000000000000000 ) ) ;
#276 = MECHANICAL_DESIGN_GEOMETRIC_PRESENTATION_REPRESENTATION (  '', ( #85 ), #25 ) ;
#277 = DIRECTION ( 'NONE',  ( -1.208874916035850209E-16, 1.000000000000000000, -0.000000000000000000 ) ) ;
#278 = DIRECTION ( 'NONE',  ( -1.000000000000000000, 0.000000000000000000, 0.000000000000000000 ) ) ;
#279 =( NAMED_UNIT ( * ) SI_UNIT ( $, .STERADIAN. ) SOLID_ANGLE_UNIT ( ) );
#280 = PRODUCT_DEFINITION_CONTEXT ( 'detailed design', #316, 'design' ) ;
#281 =( NAMED_UNIT ( * ) SI_UNIT ( $, .STERADIAN. ) SOLID_ANGLE_UNIT ( ) );
#282 = VERTEX_POINT ( 'NONE', #16 ) ;
#283 = ORIENTED_EDGE ( 'NONE', *, *, #114, .T. ) ;
#284 = PRESENTATION_LAYER_ASSIGNMENT (  '', '', ( #290 ) ) ;
#285 = AXIS2_PLACEMENT_3D ( 'NONE', #131, #105, #80 ) ;
#286 = ORIENTED_EDGE ( 'NONE', *, *, #114, .F. ) ;
#287 = PRESENTATION_STYLE_ASSIGNMENT (( #288 ) ) ;
#288 = SURFACE_STYLE_USAGE ( .BOTH. , #223 ) ;
#289 = EDGE_LOOP ( 'NONE', ( #98, #315, #346, #334 ) ) ;
#290 = STYLED_ITEM ( 'NONE', ( #309 ), #181 ) ;
#291 = DIRECTION ( 'NONE',  ( -0.000000000000000000, -1.000000000000000000, -0.000000000000000000 ) ) ;
#292 = DIRECTION ( 'NONE',  ( -0.000000000000000000, -1.000000000000000000, -0.000000000000000000 ) ) ;
#293 = ADVANCED_FACE ( 'NONE', ( #112 ), #88, .T. ) ;
#294 = TOROIDAL_SURFACE ( 'NONE', #101, 5.500000000000000000, 0.5000000000000002220 ) ;
#295 = SURFACE_STYLE_USAGE ( .BOTH. , #1 ) ;
#296 = EDGE_CURVE ( 'NONE', #250, #187, #90, .T. ) ;
#297 =( NAMED_UNIT ( * ) PLANE_ANGLE_UNIT ( ) SI_UNIT ( $, .RADIAN. ) );
#298 = CYLINDRICAL_SURFACE ( 'NONE', #21, 6.000000000000000000 ) ;
#299 = DIRECTION ( 'NONE',  ( -0.000000000000000000, -1.000000000000000000, -0.000000000000000000 ) ) ;
#300 = SURFACE_STYLE_FILL_AREA ( #227 ) ;
#301 = AXIS2_PLACEMENT_3D ( 'NONE', #61, #333, #150 ) ;
#302 = FILL_AREA_STYLE ('',( #173 ) ) ;
#303 = CLOSED_SHELL ( 'NONE', ( #293, #352, #253, #261 ) ) ;
#304 = FILL_AREA_STYLE_COLOUR ( '', #64 ) ;
#305 = PRODUCT ( '59711', '59711', '', ( #210 ) ) ;
#306 = DIRECTION ( 'NONE',  ( -0.000000000000000000, -1.000000000000000000, -0.000000000000000000 ) ) ;
#307 = CARTESIAN_POINT ( 'NONE',  ( 0.000000000000000000, 0.000000000000000000, 0.000000000000000000 ) ) ;
#308 = CARTESIAN_POINT ( 'NONE',  ( 0.000000000000000000, 0.000000000000000000, 0.000000000000000000 ) ) ;
#309 = PRESENTATION_STYLE_ASSIGNMENT (( #357 ) ) ;
#310 =( GEOMETRIC_REPRESENTATION_CONTEXT ( 3 ) GLOBAL_UNCERTAINTY_ASSIGNED_CONTEXT ( ( #347 ) ) GLOBAL_UNIT_ASSIGNED_CONTEXT ( ( #140, #121, #37 ) ) REPRESENTATION_CONTEXT ( 'NONE', 'WORKASPACE' ) );
#311 = DIRECTION ( 'NONE',  ( 0.000000000000000000, 0.000000000000000000, -1.000000000000000000 ) ) ;
#312 = MECHANICAL_DESIGN_GEOMETRIC_PRESENTATION_REPRESENTATION (  '', ( #40 ), #364 ) ;
#313 = DIRECTION ( 'NONE',  ( -0.000000000000000000, -1.000000000000000000, -0.000000000000000000 ) ) ;
#314 = COLOUR_RGB ( '',1.000000000000000000, 0.000000000000000000, 0.000000000000000000 ) ;
#315 = ORIENTED_EDGE ( 'NONE', *, *, #69, .T. ) ;
#316 = APPLICATION_CONTEXT ( 'automotive_design' ) ;
#317 = EDGE_CURVE ( 'NONE', #218, #282, #318, .T. ) ;
#318 = CIRCLE ( 'NONE', #48, 5.500000000000000000 ) ;
#319 = EDGE_LOOP ( 'NONE', ( #283, #188, #116, #163 ) ) ;
#320 = VERTEX_POINT ( 'NONE', #363 ) ;
#321 = PRESENTATION_STYLE_ASSIGNMENT (( #295 ) ) ;
#322 = DIRECTION ( 'NONE',  ( -1.000000000000000000, 0.000000000000000000, 0.000000000000000000 ) ) ;
#323 = AXIS2_PLACEMENT_3D ( 'NONE', #82, #235, #328 ) ;
#324 =( NAMED_UNIT ( * ) SI_UNIT ( $, .STERADIAN. ) SOLID_ANGLE_UNIT ( ) );
#325 = CARTESIAN_POINT ( 'NONE',  ( 0.000000000000000000, 0.000000000000000000, -6.000000000000000000 ) ) ;
#326 = CARTESIAN_POINT ( 'NONE',  ( -1.469576158976823750E-15, 75.00000000000000000, 0.000000000000000000 ) ) ;
#327 = SURFACE_SIDE_STYLE ('',( #231 ) ) ;
#328 = DIRECTION ( 'NONE',  ( 0.000000000000000000, 0.000000000000000000, -1.000000000000000000 ) ) ;
#329 = FILL_AREA_STYLE_COLOUR ( '', #125 ) ;
#330 = DIRECTION ( 'NONE',  ( -1.208874916035850209E-16, 1.000000000000000000, -0.000000000000000000 ) ) ;
#331 = MECHANICAL_DESIGN_GEOMETRIC_PRESENTATION_REPRESENTATION (  '', ( #89 ), #343 ) ;
#332 = PLANE ( 'NONE',  #162 ) ;
#333 = DIRECTION ( 'NONE',  ( 0.000000000000000000, -1.000000000000000000, -0.000000000000000000 ) ) ;
#334 = ORIENTED_EDGE ( 'NONE', *, *, #251, .F. ) ;
#335 = ORIENTED_EDGE ( 'NONE', *, *, #340, .F. ) ;
#336 = FACE_OUTER_BOUND ( 'NONE', #289, .T. ) ;
#337 = CARTESIAN_POINT ( 'NONE',  ( 5.421010862427522170E-15, 18.00000000000000355, 0.000000000000000000 ) ) ;
#338 = CIRCLE ( 'NONE', #265, 0.5000000000000004441 ) ;
#339 = CARTESIAN_POINT ( 'NONE',  ( 6.000000000000000000, 75.00000000000000000, 0.000000000000000000 ) ) ;
#340 = EDGE_CURVE ( 'NONE', #282, #218, #177, .T. ) ;
#341 = CARTESIAN_POINT ( 'NONE',  ( 5.421010862427522170E-15, 18.00000000000000355, 0.000000000000000000 ) ) ;
#342 = ORIENTED_EDGE ( 'NONE', *, *, #117, .T. ) ;
#343 =( GEOMETRIC_REPRESENTATION_CONTEXT ( 3 ) GLOBAL_UNCERTAINTY_ASSIGNED_CONTEXT ( ( #193 ) ) GLOBAL_UNIT_ASSIGNED_CONTEXT ( ( #81, #198, #263 ) ) REPRESENTATION_CONTEXT ( 'NONE', 'WORKASPACE' ) );
#344 =( GEOMETRIC_REPRESENTATION_CONTEXT ( 3 ) GLOBAL_UNCERTAINTY_ASSIGNED_CONTEXT ( ( #74 ) ) GLOBAL_UNIT_ASSIGNED_CONTEXT ( ( #204, #297, #143 ) ) REPRESENTATION_CONTEXT ( 'NONE', 'WORKASPACE' ) );
#345 = UNCERTAINTY_MEASURE_WITH_UNIT (LENGTH_MEASURE( 1.000000000000000082E-05 ), #142, 'distance_accuracy_value', 'NONE');
#346 = ORIENTED_EDGE ( 'NONE', *, *, #317, .F. ) ;
#347 = UNCERTAINTY_MEASURE_WITH_UNIT (LENGTH_MEASURE( 1.000000000000000082E-05 ), #140, 'distance_accuracy_value', 'NONE');
#348 = CARTESIAN_POINT ( 'NONE',  ( 6.735557395310442023E-16, 0.5000000000000000000, 5.500000000000000000 ) ) ;
#349 =( NAMED_UNIT ( * ) PLANE_ANGLE_UNIT ( ) SI_UNIT ( $, .RADIAN. ) );
#350 = CIRCLE ( 'NONE', #2, 6.000000000000000000 ) ;
#351 = SURFACE_STYLE_FILL_AREA ( #5 ) ;
#352 = ADVANCED_FACE ( 'NONE', ( #14 ), #224, .F. ) ;
#353 = CYLINDRICAL_SURFACE ( 'NONE', #257, 6.000000000000000000 ) ;
#354 = AXIS2_PLACEMENT_3D ( 'NONE', #368, #234, #228 ) ;
#355 = CIRCLE ( 'NONE', #323, 6.000000000000000000 ) ;
#356 = CARTESIAN_POINT ( 'NONE',  ( 0.000000000000000000, 0.000000000000000000, 0.000000000000000000 ) ) ;
#357 = SURFACE_STYLE_USAGE ( .BOTH. , #60 ) ;
#358 = ORIENTED_EDGE ( 'NONE', *, *, #117, .F. ) ;
#359 = ADVANCED_FACE ( 'NONE', ( #336 ), #294, .T. ) ;
#360 = SURFACE_STYLE_FILL_AREA ( #110 ) ;
#361 = ORIENTED_EDGE ( 'NONE', *, *, #157, .T. ) ;
#362 = MECHANICAL_DESIGN_GEOMETRIC_PRESENTATION_REPRESENTATION (  '', ( #46 ), #30 ) ;
#363 = CARTESIAN_POINT ( 'NONE',  ( 7.347880794884119736E-16, 0.5000000000000000000, 6.000000000000000000 ) ) ;
#364 =( GEOMETRIC_REPRESENTATION_CONTEXT ( 3 ) GLOBAL_UNCERTAINTY_ASSIGNED_CONTEXT ( ( #71 ) ) GLOBAL_UNIT_ASSIGNED_CONTEXT ( ( #178, #349, #279 ) ) REPRESENTATION_CONTEXT ( 'NONE', 'WORKASPACE' ) );
#365 = VERTEX_POINT ( 'NONE', #93 ) ;
#366 = DIRECTION ( 'NONE',  ( 1.208874916035850209E-16, -1.000000000000000000, 0.000000000000000000 ) ) ;
#367 = MECHANICAL_DESIGN_GEOMETRIC_PRESENTATION_REPRESENTATION (  '', ( #19 ), #76 ) ;
#368 = CARTESIAN_POINT ( 'NONE',  ( 0.000000000000000000, 18.00000000000000000, 0.000000000000000000 ) ) ;
#369 = DIRECTION ( 'NONE',  ( 1.000000000000000000, 1.208874916035850209E-16, 0.000000000000000000 ) ) ;
#370 = SURFACE_SIDE_STYLE ('',( #300 ) ) ;
ENDSEC;
END-ISO-10303-21;
