ISO-10303-21;
HEADER;
FILE_DESCRIPTION (( 'STEP AP214' ),
    '1' );
FILE_NAME ('Micro_DMM-200-490X.STEP',
    '2021-09-02T16:36:40',
    ( '' ),
    ( '' ),
    'SwSTEP 2.0',
    'SolidWorks 2020',
    '' );
FILE_SCHEMA (( 'AUTOMOTIVE_DESIGN' ));
ENDSEC;

DATA;
#1 = DIRECTION ( 'NONE',  ( -0.0000000000000000000, -0.0000000000000000000, -1.000000000000000000 ) ) ;
#2 = AXIS2_PLACEMENT_3D ( 'NONE', #297, #66, #46 ) ;
#3 = DIRECTION ( 'NONE',  ( 1.000000000000000000, 0.0000000000000000000, 0.0000000000000000000 ) ) ;
#4 = DIRECTION ( 'NONE',  ( -0.0000000000000000000, -0.0000000000000000000, -1.000000000000000000 ) ) ;
#5 = DIRECTION ( 'NONE',  ( 0.0000000000000000000, 0.0000000000000000000, 1.000000000000000000 ) ) ;
#6 = ADVANCED_BREP_SHAPE_REPRESENTATION ( 'Micro_DMM-200-490X', ( #270, #231 ), #192 ) ;
#7 = AXIS2_PLACEMENT_3D ( 'NONE', #321, #221, #90 ) ;
#8 = PRODUCT_DEFINITION_FORMATION_WITH_SPECIFIED_SOURCE ( 'ANY', '', #145, .NOT_KNOWN. ) ;
#9 = LINE ( 'NONE', #64, #113 ) ;
#10 = VERTEX_POINT ( 'NONE', #312 ) ;
#11 = EDGE_LOOP ( 'NONE', ( #303, #253, #186, #240 ) ) ;
#12 = DIRECTION ( 'NONE',  ( -0.0000000000000000000, -0.0000000000000000000, -1.000000000000000000 ) ) ;
#13 = ORIENTED_EDGE ( 'NONE', *, *, #30, .F. ) ;
#14 = CARTESIAN_POINT ( 'NONE',  ( -0.3937009999999999676, 0.0000000000000000000, 4.079488000000000447 ) ) ;
#15 = CLOSED_SHELL ( 'NONE', ( #283, #126, #314, #140, #273, #298, #181, #151, #319, #76, #245 ) ) ;
#16 = DIRECTION ( 'NONE',  ( -1.000000000000000000, 0.0000000000000000000, 0.0000000000000000000 ) ) ;
#17 = EDGE_LOOP ( 'NONE', ( #227, #214, #180, #33 ) ) ;
#18 = DIRECTION ( 'NONE',  ( -0.0000000000000000000, -0.0000000000000000000, -1.000000000000000000 ) ) ;
#19 = FILL_AREA_STYLE ('',( #48 ) ) ;
#20 = CIRCLE ( 'NONE', #63, 0.3937009999999999676 ) ;
#21 = FACE_OUTER_BOUND ( 'NONE', #11, .T. ) ;
#22 = PRESENTATION_LAYER_ASSIGNMENT (  '', '', ( #209 ) ) ;
#23 = CARTESIAN_POINT ( 'NONE',  ( 0.0000000000000000000, 0.0000000000000000000, 1.707404996040164512E-17 ) ) ;
#24 = LINE ( 'NONE', #114, #58 ) ;
#25 = FACE_OUTER_BOUND ( 'NONE', #313, .T. ) ;
#26 = AXIS2_PLACEMENT_3D ( 'NONE', #269, #193, #299 ) ;
#27 = PRODUCT_DEFINITION ( 'UNKNOWN', '', #8, #185 ) ;
#28 = PRESENTATION_STYLE_ASSIGNMENT (( #279 ) ) ;
#29 = DIRECTION ( 'NONE',  ( -0.0000000000000000000, -0.0000000000000000000, -1.000000000000000000 ) ) ;
#30 = EDGE_CURVE ( 'NONE', #287, #184, #262, .T. ) ;
#31 = VECTOR ( 'NONE', #244, 39.37007874015748143 ) ;
#32 =( LENGTH_UNIT ( ) NAMED_UNIT ( * ) SI_UNIT ( $, .METRE. ) );
#33 = ORIENTED_EDGE ( 'NONE', *, *, #51, .F. ) ;
#34 = LINE ( 'NONE', #38, #82 ) ;
#35 = DIRECTION ( 'NONE',  ( -0.0000000000000000000, -0.0000000000000000000, -1.000000000000000000 ) ) ;
#36 = DIRECTION ( 'NONE',  ( -1.000000000000000000, 0.0000000000000000000, 0.0000000000000000000 ) ) ;
#37 = ORIENTED_EDGE ( 'NONE', *, *, #163, .T. ) ;
#38 = CARTESIAN_POINT ( 'NONE',  ( 0.3787010000000002319, 4.637749674839021182E-17, 4.094488000000000127 ) ) ;
#39 = ORIENTED_EDGE ( 'NONE', *, *, #60, .F. ) ;
#40 = DIRECTION ( 'NONE',  ( 0.0000000000000000000, 0.0000000000000000000, -1.000000000000000000 ) ) ;
#41 = VERTEX_POINT ( 'NONE', #158 ) ;
#42 = EDGE_CURVE ( 'NONE', #41, #258, #266, .T. ) ;
#43 = ORIENTED_EDGE ( 'NONE', *, *, #311, .T. ) ;
#44 = DIRECTION ( 'NONE',  ( 0.0000000000000000000, 0.0000000000000000000, 1.000000000000000000 ) ) ;
#45 = AXIS2_PLACEMENT_3D ( 'NONE', #223, #275, #171 ) ;
#46 = DIRECTION ( 'NONE',  ( -1.000000000000000000, 0.0000000000000000000, 0.0000000000000000000 ) ) ;
#47 = FACE_OUTER_BOUND ( 'NONE', #285, .T. ) ;
#48 = FILL_AREA_STYLE_COLOUR ( '', #239 ) ;
#49 = DIRECTION ( 'NONE',  ( -0.0000000000000000000, -0.0000000000000000000, -1.000000000000000000 ) ) ;
#50 = CIRCLE ( 'NONE', #129, 0.3937009999999999676 ) ;
#51 = EDGE_CURVE ( 'NONE', #111, #59, #320, .T. ) ;
#52 = CARTESIAN_POINT ( 'NONE',  ( -0.3937009999999999676, 0.0000000000000000000, 4.094488000000000127 ) ) ;
#53 = SURFACE_SIDE_STYLE ('',( #176 ) ) ;
#54 = AXIS2_PLACEMENT_3D ( 'NONE', #232, #18, #190 ) ;
#55 = CARTESIAN_POINT ( 'NONE',  ( 0.3937009999999999676, 4.821446694711121291E-17, 1.771654000000000062 ) ) ;
#56 = VERTEX_POINT ( 'NONE', #237 ) ;
#57 = EDGE_CURVE ( 'NONE', #287, #111, #34, .T. ) ;
#58 = VECTOR ( 'NONE', #164, 39.37007874015748143 ) ;
#59 = VERTEX_POINT ( 'NONE', #14 ) ;
#60 = EDGE_CURVE ( 'NONE', #258, #41, #257, .T. ) ;
#61 = EDGE_LOOP ( 'NONE', ( #13, #157, #264, #260 ) ) ;
#62 = ORIENTED_EDGE ( 'NONE', *, *, #327, .T. ) ;
#63 = AXIS2_PLACEMENT_3D ( 'NONE', #127, #183, #282 ) ;
#64 = CARTESIAN_POINT ( 'NONE',  ( -0.3936510000000001397, 0.0000000000000000000, 0.0000000000000000000 ) ) ;
#65 = CARTESIAN_POINT ( 'NONE',  ( 0.3936510000000000287, 0.0000000000000000000, 0.3861509999999985232 ) ) ;
#66 = DIRECTION ( 'NONE',  ( -0.0000000000000000000, -0.0000000000000000000, -1.000000000000000000 ) ) ;
#67 = AXIS2_PLACEMENT_3D ( 'NONE', #172, #226, #102 ) ;
#68 = CARTESIAN_POINT ( 'NONE',  ( 0.007499999999999999722, 0.0000000000000000000, 1.707404996040164512E-17 ) ) ;
#69 = SURFACE_SIDE_STYLE ('',( #118 ) ) ;
#70 = LINE ( 'NONE', #97, #263 ) ;
#71 = CONICAL_SURFACE ( 'NONE', #161, 0.007499999999999999722, 0.7853981633974502774 ) ;
#72 = LINE ( 'NONE', #52, #165 ) ;
#73 =( NAMED_UNIT ( * ) PLANE_ANGLE_UNIT ( ) SI_UNIT ( $, .RADIAN. ) );
#74 = ORIENTED_EDGE ( 'NONE', *, *, #290, .F. ) ;
#75 = CYLINDRICAL_SURFACE ( 'NONE', #109, 0.3936510000000001397 ) ;
#76 = ADVANCED_FACE ( 'NONE', ( #254 ), #182, .T. ) ;
#77 = DIRECTION ( 'NONE',  ( 1.000000000000000000, 0.0000000000000000000, 0.0000000000000000000 ) ) ;
#78 = CARTESIAN_POINT ( 'NONE',  ( 0.0000000000000000000, 0.0000000000000000000, 0.3861509999999985232 ) ) ;
#79 = DIRECTION ( 'NONE',  ( -1.000000000000000000, 0.0000000000000000000, 0.0000000000000000000 ) ) ;
#80 = UNCERTAINTY_MEASURE_WITH_UNIT (LENGTH_MEASURE( 1.000000000000000082E-05 ), #91, 'distance_accuracy_value', 'NONE');
#81 = ORIENTED_EDGE ( 'NONE', *, *, #225, .F. ) ;
#82 = VECTOR ( 'NONE', #131, 39.37007874015748143 ) ;
#83 = DIRECTION ( 'NONE',  ( 0.0000000000000000000, 0.0000000000000000000, 1.000000000000000000 ) ) ;
#84 = ORIENTED_EDGE ( 'NONE', *, *, #251, .F. ) ;
#85 = AXIS2_PLACEMENT_3D ( 'NONE', #95, #5, #203 ) ;
#86 = PLANE ( 'NONE',  #96 ) ;
#87 = DIMENSIONAL_EXPONENTS ( 1.000000000000000000, 0.0000000000000000000, 0.0000000000000000000, 0.0000000000000000000, 0.0000000000000000000, 0.0000000000000000000, 0.0000000000000000000 ) ;
#88 = DIRECTION ( 'NONE',  ( -0.0000000000000000000, 0.0000000000000000000, -1.000000000000000000 ) ) ;
#89 = EDGE_CURVE ( 'NONE', #59, #111, #20, .T. ) ;
#90 = DIRECTION ( 'NONE',  ( 1.000000000000000000, 0.0000000000000000000, -0.0000000000000000000 ) ) ;
#91 =( CONVERSION_BASED_UNIT ( 'INCH', #328 ) LENGTH_UNIT ( ) NAMED_UNIT ( #87 ) );
#92 = PRODUCT_DEFINITION_SHAPE ( 'NONE', 'NONE',  #27 ) ;
#93 = SHAPE_DEFINITION_REPRESENTATION ( #92, #6 ) ;
#94 =( NAMED_UNIT ( * ) SI_UNIT ( $, .STERADIAN. ) SOLID_ANGLE_UNIT ( ) );
#95 = CARTESIAN_POINT ( 'NONE',  ( 0.0000000000000000000, 0.0000000000000000000, 1.707404996040164512E-17 ) ) ;
#96 = AXIS2_PLACEMENT_3D ( 'NONE', #216, #88, #199 ) ;
#97 = CARTESIAN_POINT ( 'NONE',  ( 0.3936510000000001397, 4.820834371311549033E-17, 0.0000000000000000000 ) ) ;
#98 = EDGE_CURVE ( 'NONE', #10, #56, #301, .T. ) ;
#99 = ORIENTED_EDGE ( 'NONE', *, *, #136, .T. ) ;
#100 = PRODUCT_CONTEXT ( 'NONE', #159, 'mechanical' ) ;
#101 = LINE ( 'NONE', #146, #296 ) ;
#102 = DIRECTION ( 'NONE',  ( 1.000000000000000000, 0.0000000000000000000, -0.0000000000000000000 ) ) ;
#103 = FACE_BOUND ( 'NONE', #153, .T. ) ;
#104 = CARTESIAN_POINT ( 'NONE',  ( 0.0000000000000000000, 0.0000000000000000000, 4.094488000000000127 ) ) ;
#105 = DIRECTION ( 'NONE',  ( 0.0000000000000000000, 0.0000000000000000000, 1.000000000000000000 ) ) ;
#106 = VERTEX_POINT ( 'NONE', #55 ) ;
#107 = DIRECTION ( 'NONE',  ( -1.000000000000000000, 0.0000000000000000000, 0.0000000000000000000 ) ) ;
#108 = ORIENTED_EDGE ( 'NONE', *, *, #311, .F. ) ;
#109 = AXIS2_PLACEMENT_3D ( 'NONE', #271, #49, #304 ) ;
#110 = CARTESIAN_POINT ( 'NONE',  ( 0.0000000000000000000, 0.0000000000000000000, 0.0000000000000000000 ) ) ;
#111 = VERTEX_POINT ( 'NONE', #152 ) ;
#112 =( NAMED_UNIT ( * ) PLANE_ANGLE_UNIT ( ) SI_UNIT ( $, .RADIAN. ) );
#113 = VECTOR ( 'NONE', #35, 39.37007874015748143 ) ;
#114 = CARTESIAN_POINT ( 'NONE',  ( -0.3787010000000002319, 0.0000000000000000000, 4.094488000000000127 ) ) ;
#115 = LINE ( 'NONE', #68, #208 ) ;
#116 = PLANE ( 'NONE',  #7 ) ;
#117 = AXIS2_PLACEMENT_3D ( 'NONE', #78, #178, #280 ) ;
#118 = SURFACE_STYLE_FILL_AREA ( #19 ) ;
#119 = COLOUR_RGB ( '',0.7921568627450980005, 0.8196078431372548767, 0.9333333333333333481 ) ;
#120 = DIRECTION ( 'NONE',  ( -0.7071067811865489050, 8.659560562354950115E-17, 0.7071067811865461294 ) ) ;
#121 = DIRECTION ( 'NONE',  ( 0.0000000000000000000, 0.0000000000000000000, 1.000000000000000000 ) ) ;
#122 = AXIS2_PLACEMENT_3D ( 'NONE', #104, #83, #309 ) ;
#123 = CARTESIAN_POINT ( 'NONE',  ( -0.3937009999999999676, 0.0000000000000000000, 1.771654000000000062 ) ) ;
#124 = ORIENTED_EDGE ( 'NONE', *, *, #174, .T. ) ;
#125 = LENGTH_MEASURE_WITH_UNIT ( LENGTH_MEASURE( 0.02539999999999999897 ), #200 );
#126 = ADVANCED_FACE ( 'NONE', ( #252 ), #71, .T. ) ;
#127 = CARTESIAN_POINT ( 'NONE',  ( 0.0000000000000000000, 0.0000000000000000000, 4.079488000000000447 ) ) ;
#128 = CIRCLE ( 'NONE', #278, 0.3936510000000001952 ) ;
#129 = AXIS2_PLACEMENT_3D ( 'NONE', #168, #29, #150 ) ;
#130 = ORIENTED_EDGE ( 'NONE', *, *, #174, .F. ) ;
#131 = DIRECTION ( 'NONE',  ( 0.7071067811865491270, 8.659560562354952580E-17, -0.7071067811865459074 ) ) ;
#132 = EDGE_LOOP ( 'NONE', ( #160, #133, #74, #318 ) ) ;
#133 = ORIENTED_EDGE ( 'NONE', *, *, #204, .T. ) ;
#134 = ORIENTED_EDGE ( 'NONE', *, *, #42, .F. ) ;
#135 = FACE_OUTER_BOUND ( 'NONE', #132, .T. ) ;
#136 = EDGE_CURVE ( 'NONE', #56, #10, #128, .T. ) ;
#137 = DIRECTION ( 'NONE',  ( 1.000000000000000000, 0.0000000000000000000, 0.0000000000000000000 ) ) ;
#138 = DIMENSIONAL_EXPONENTS ( 1.000000000000000000, 0.0000000000000000000, 0.0000000000000000000, 0.0000000000000000000, 0.0000000000000000000, 0.0000000000000000000, 0.0000000000000000000 ) ;
#139 = FACE_OUTER_BOUND ( 'NONE', #210, .T. ) ;
#140 = ADVANCED_FACE ( 'NONE', ( #135 ), #188, .T. ) ;
#141 = CARTESIAN_POINT ( 'NONE',  ( -0.007499999999999999722, 2.456341440623800160E-17, 1.707404996040164512E-17 ) ) ;
#142 = PRESENTATION_STYLE_ASSIGNMENT (( #195 ) ) ;
#143 = EDGE_CURVE ( 'NONE', #10, #41, #9, .T. ) ;
#144 = AXIS2_PLACEMENT_3D ( 'NONE', #207, #329, #308 ) ;
#145 = PRODUCT ( 'Micro_DMM-200-490X', 'Micro_DMM-200-490X', '', ( #100 ) ) ;
#146 = CARTESIAN_POINT ( 'NONE',  ( -0.007499999999999999722, 9.184850993605147975E-19, 1.707404996040164512E-17 ) ) ;
#147 =( CONVERSION_BASED_UNIT ( 'INCH', #125 ) LENGTH_UNIT ( ) NAMED_UNIT ( #138 ) );
#148 = FACE_OUTER_BOUND ( 'NONE', #256, .T. ) ;
#149 = ORIENTED_EDGE ( 'NONE', *, *, #98, .T. ) ;
#150 = DIRECTION ( 'NONE',  ( -1.000000000000000000, 0.0000000000000000000, 0.0000000000000000000 ) ) ;
#151 = ADVANCED_FACE ( 'NONE', ( #103, #25 ), #86, .T. ) ;
#152 = CARTESIAN_POINT ( 'NONE',  ( 0.3937009999999999676, 4.821446694711121291E-17, 4.079488000000000447 ) ) ;
#153 = EDGE_LOOP ( 'NONE', ( #286, #215 ) ) ;
#154 = VERTEX_POINT ( 'NONE', #141 ) ;
#155 = DIMENSIONAL_EXPONENTS ( 1.000000000000000000, 0.0000000000000000000, 0.0000000000000000000, 0.0000000000000000000, 0.0000000000000000000, 0.0000000000000000000, 0.0000000000000000000 ) ;
#156 = CONICAL_SURFACE ( 'NONE', #26, 0.3787010000000002319, 0.7853981633974506105 ) ;
#157 = ORIENTED_EDGE ( 'NONE', *, *, #57, .T. ) ;
#158 = CARTESIAN_POINT ( 'NONE',  ( -0.3936510000000000287, 4.820834371311548417E-17, 0.3861509999999985232 ) ) ;
#159 = APPLICATION_CONTEXT ( 'automotive_design' ) ;
#160 = ORIENTED_EDGE ( 'NONE', *, *, #89, .T. ) ;
#161 = AXIS2_PLACEMENT_3D ( 'NONE', #238, #105, #211 ) ;
#162 = DIRECTION ( 'NONE',  ( -0.0000000000000000000, -0.0000000000000000000, -1.000000000000000000 ) ) ;
#163 = EDGE_CURVE ( 'NONE', #184, #287, #289, .T. ) ;
#164 = DIRECTION ( 'NONE',  ( -0.7071067811865491270, 0.0000000000000000000, -0.7071067811865459074 ) ) ;
#165 = VECTOR ( 'NONE', #4, 39.37007874015748143 ) ;
#166 = DIRECTION ( 'NONE',  ( -0.0000000000000000000, -0.0000000000000000000, -1.000000000000000000 ) ) ;
#167 = CARTESIAN_POINT ( 'NONE',  ( 0.0000000000000000000, 0.0000000000000000000, 4.094488000000000127 ) ) ;
#168 = CARTESIAN_POINT ( 'NONE',  ( 0.0000000000000000000, 0.0000000000000000000, 1.771654000000000062 ) ) ;
#169 = AXIS2_PLACEMENT_3D ( 'NONE', #110, #281, #36 ) ;
#170 = MECHANICAL_DESIGN_GEOMETRIC_PRESENTATION_REPRESENTATION (  '', ( #209 ), #202 ) ;
#171 = DIRECTION ( 'NONE',  ( -1.000000000000000000, 0.0000000000000000000, 0.0000000000000000000 ) ) ;
#172 = CARTESIAN_POINT ( 'NONE',  ( 0.0000000000000000000, 0.0000000000000000000, 4.094488000000000127 ) ) ;
#173 = ORIENTED_EDGE ( 'NONE', *, *, #42, .T. ) ;
#174 = EDGE_CURVE ( 'NONE', #206, #154, #307, .T. ) ;
#175 = ORIENTED_EDGE ( 'NONE', *, *, #322, .T. ) ;
#176 = SURFACE_STYLE_FILL_AREA ( #276 ) ;
#177 = AXIS2_PLACEMENT_3D ( 'NONE', #167, #44, #137 ) ;
#178 = DIRECTION ( 'NONE',  ( -0.0000000000000000000, -0.0000000000000000000, -1.000000000000000000 ) ) ;
#179 = LENGTH_MEASURE_WITH_UNIT ( LENGTH_MEASURE( 0.02539999999999999897 ), #32 );
#180 = ORIENTED_EDGE ( 'NONE', *, *, #187, .T. ) ;
#181 = ADVANCED_FACE ( 'NONE', ( #325 ), #156, .T. ) ;
#182 = CYLINDRICAL_SURFACE ( 'NONE', #169, 0.3936510000000001397 ) ;
#183 = DIRECTION ( 'NONE',  ( 0.0000000000000000000, 0.0000000000000000000, -1.000000000000000000 ) ) ;
#184 = VERTEX_POINT ( 'NONE', #196 ) ;
#185 = PRODUCT_DEFINITION_CONTEXT ( 'detailed design', #248, 'design' ) ;
#186 = ORIENTED_EDGE ( 'NONE', *, *, #294, .T. ) ;
#187 = EDGE_CURVE ( 'NONE', #184, #59, #24, .T. ) ;
#188 = CYLINDRICAL_SURFACE ( 'NONE', #54, 0.3937009999999999676 ) ;
#189 = UNCERTAINTY_MEASURE_WITH_UNIT (LENGTH_MEASURE( 1.000000000000000082E-05 ), #147, 'distance_accuracy_value', 'NONE');
#190 = DIRECTION ( 'NONE',  ( -1.000000000000000000, 0.0000000000000000000, 0.0000000000000000000 ) ) ;
#191 = AXIS2_PLACEMENT_3D ( 'NONE', #23, #218, #198 ) ;
#192 =( GEOMETRIC_REPRESENTATION_CONTEXT ( 3 ) GLOBAL_UNCERTAINTY_ASSIGNED_CONTEXT ( ( #189 ) ) GLOBAL_UNIT_ASSIGNED_CONTEXT ( ( #147, #205, #306 ) ) REPRESENTATION_CONTEXT ( 'NONE', 'WORKASPACE' ) );
#193 = DIRECTION ( 'NONE',  ( 0.0000000000000000000, 0.0000000000000000000, -1.000000000000000000 ) ) ;
#194 = EDGE_LOOP ( 'NONE', ( #37, #234 ) ) ;
#195 = SURFACE_STYLE_USAGE ( .BOTH. , #69 ) ;
#196 = CARTESIAN_POINT ( 'NONE',  ( -0.3787010000000002319, 0.0000000000000000000, 4.094488000000000127 ) ) ;
#197 = PRESENTATION_LAYER_ASSIGNMENT (  '', '', ( #213 ) ) ;
#198 = DIRECTION ( 'NONE',  ( -1.000000000000000000, 0.0000000000000000000, 0.0000000000000000000 ) ) ;
#199 = DIRECTION ( 'NONE',  ( -1.000000000000000000, 0.0000000000000000000, 0.0000000000000000000 ) ) ;
#200 =( LENGTH_UNIT ( ) NAMED_UNIT ( * ) SI_UNIT ( $, .METRE. ) );
#201 =( GEOMETRIC_REPRESENTATION_CONTEXT ( 3 ) GLOBAL_UNCERTAINTY_ASSIGNED_CONTEXT ( ( #80 ) ) GLOBAL_UNIT_ASSIGNED_CONTEXT ( ( #91, #112, #265 ) ) REPRESENTATION_CONTEXT ( 'NONE', 'WORKASPACE' ) );
#202 =( GEOMETRIC_REPRESENTATION_CONTEXT ( 3 ) GLOBAL_UNCERTAINTY_ASSIGNED_CONTEXT ( ( #324 ) ) GLOBAL_UNIT_ASSIGNED_CONTEXT ( ( #255, #73, #94 ) ) REPRESENTATION_CONTEXT ( 'NONE', 'WORKASPACE' ) );
#203 = DIRECTION ( 'NONE',  ( 1.000000000000000000, 0.0000000000000000000, 0.0000000000000000000 ) ) ;
#204 = EDGE_CURVE ( 'NONE', #111, #106, #291, .T. ) ;
#205 =( NAMED_UNIT ( * ) PLANE_ANGLE_UNIT ( ) SI_UNIT ( $, .RADIAN. ) );
#206 = VERTEX_POINT ( 'NONE', #295 ) ;
#207 = CARTESIAN_POINT ( 'NONE',  ( 0.0000000000000000000, 0.0000000000000000000, 4.094488000000000127 ) ) ;
#208 = VECTOR ( 'NONE', #267, 39.37007874015748143 ) ;
#209 = STYLED_ITEM ( 'NONE', ( #28 ), #6 ) ;
#210 = EDGE_LOOP ( 'NONE', ( #149, #62, #134, #212 ) ) ;
#211 = DIRECTION ( 'NONE',  ( 1.000000000000000000, 0.0000000000000000000, 0.0000000000000000000 ) ) ;
#212 = ORIENTED_EDGE ( 'NONE', *, *, #143, .F. ) ;
#213 = STYLED_ITEM ( 'NONE', ( #142 ), #270 ) ;
#214 = ORIENTED_EDGE ( 'NONE', *, *, #163, .F. ) ;
#215 = ORIENTED_EDGE ( 'NONE', *, *, #136, .F. ) ;
#216 = CARTESIAN_POINT ( 'NONE',  ( 0.3936510000000001952, 0.0000000000000000000, 1.771654000000000062 ) ) ;
#217 = AXIS2_PLACEMENT_3D ( 'NONE', #235, #277, #107 ) ;
#218 = DIRECTION ( 'NONE',  ( -0.0000000000000000000, -0.0000000000000000000, -1.000000000000000000 ) ) ;
#219 = EDGE_LOOP ( 'NONE', ( #261, #99, #236, #39 ) ) ;
#220 = DIRECTION ( 'NONE',  ( -1.000000000000000000, 0.0000000000000000000, 0.0000000000000000000 ) ) ;
#221 = DIRECTION ( 'NONE',  ( 0.0000000000000000000, 0.0000000000000000000, 1.000000000000000000 ) ) ;
#222 = CONICAL_SURFACE ( 'NONE', #144, 0.3787010000000002319, 0.7853981633974506105 ) ;
#223 = CARTESIAN_POINT ( 'NONE',  ( 0.0000000000000000000, 0.0000000000000000000, 1.771654000000000062 ) ) ;
#224 = APPLICATION_PROTOCOL_DEFINITION ( 'draft international standard', 'automotive_design', 1998, #159 ) ;
#225 = EDGE_CURVE ( 'NONE', #206, #258, #115, .T. ) ;
#226 = DIRECTION ( 'NONE',  ( 0.0000000000000000000, 0.0000000000000000000, 1.000000000000000000 ) ) ;
#227 = ORIENTED_EDGE ( 'NONE', *, *, #57, .F. ) ;
#228 = FACE_OUTER_BOUND ( 'NONE', #194, .T. ) ;
#229 = ORIENTED_EDGE ( 'NONE', *, *, #251, .T. ) ;
#230 = CONICAL_SURFACE ( 'NONE', #85, 0.007499999999999999722, 0.7853981633974502774 ) ;
#231 = AXIS2_PLACEMENT_3D ( 'NONE', #246, #121, #3 ) ;
#232 = CARTESIAN_POINT ( 'NONE',  ( 0.0000000000000000000, 0.0000000000000000000, 4.094488000000000127 ) ) ;
#233 = ORIENTED_EDGE ( 'NONE', *, *, #60, .T. ) ;
#234 = ORIENTED_EDGE ( 'NONE', *, *, #30, .T. ) ;
#235 = CARTESIAN_POINT ( 'NONE',  ( 0.0000000000000000000, 0.0000000000000000000, 1.771654000000000062 ) ) ;
#236 = ORIENTED_EDGE ( 'NONE', *, *, #143, .T. ) ;
#237 = CARTESIAN_POINT ( 'NONE',  ( 0.3936510000000001952, 4.820834371311550266E-17, 1.771654000000000062 ) ) ;
#238 = CARTESIAN_POINT ( 'NONE',  ( 0.0000000000000000000, 0.0000000000000000000, 1.707404996040164512E-17 ) ) ;
#239 = COLOUR_RGB ( '',0.7921568627450980005, 0.8196078431372548767, 0.9333333333333333481 ) ;
#240 = ORIENTED_EDGE ( 'NONE', *, *, #322, .F. ) ;
#241 = CARTESIAN_POINT ( 'NONE',  ( 0.0000000000000000000, 0.0000000000000000000, 1.771654000000000062 ) ) ;
#242 = EDGE_LOOP ( 'NONE', ( #84, #43, #173, #81 ) ) ;
#243 = CARTESIAN_POINT ( 'NONE',  ( 0.0000000000000000000, 0.0000000000000000000, 1.707404996040164512E-17 ) ) ;
#244 = DIRECTION ( 'NONE',  ( -0.0000000000000000000, -0.0000000000000000000, -1.000000000000000000 ) ) ;
#245 = ADVANCED_FACE ( 'NONE', ( #47 ), #116, .F. ) ;
#246 = CARTESIAN_POINT ( 'NONE',  ( 0.0000000000000000000, 0.0000000000000000000, 0.0000000000000000000 ) ) ;
#247 =( LENGTH_UNIT ( ) NAMED_UNIT ( * ) SI_UNIT ( $, .METRE. ) );
#248 = APPLICATION_CONTEXT ( 'automotive_design' ) ;
#249 = CIRCLE ( 'NONE', #45, 0.3937009999999999676 ) ;
#250 = FILL_AREA_STYLE_COLOUR ( '', #119 ) ;
#251 = EDGE_CURVE ( 'NONE', #154, #206, #326, .T. ) ;
#252 = FACE_OUTER_BOUND ( 'NONE', #242, .T. ) ;
#253 = ORIENTED_EDGE ( 'NONE', *, *, #51, .T. ) ;
#254 = FACE_OUTER_BOUND ( 'NONE', #219, .T. ) ;
#255 =( CONVERSION_BASED_UNIT ( 'INCH', #179 ) LENGTH_UNIT ( ) NAMED_UNIT ( #155 ) );
#256 = EDGE_LOOP ( 'NONE', ( #108, #130, #310, #233 ) ) ;
#257 = CIRCLE ( 'NONE', #117, 0.3936510000000000287 ) ;
#258 = VERTEX_POINT ( 'NONE', #65 ) ;
#259 = CARTESIAN_POINT ( 'NONE',  ( 0.0000000000000000000, 0.0000000000000000000, 4.079488000000000447 ) ) ;
#260 = ORIENTED_EDGE ( 'NONE', *, *, #187, .F. ) ;
#261 = ORIENTED_EDGE ( 'NONE', *, *, #327, .F. ) ;
#262 = CIRCLE ( 'NONE', #122, 0.3787010000000002319 ) ;
#263 = VECTOR ( 'NONE', #1, 39.37007874015748143 ) ;
#264 = ORIENTED_EDGE ( 'NONE', *, *, #89, .F. ) ;
#265 =( NAMED_UNIT ( * ) SI_UNIT ( $, .STERADIAN. ) SOLID_ANGLE_UNIT ( ) );
#266 = CIRCLE ( 'NONE', #272, 0.3936510000000000287 ) ;
#267 = DIRECTION ( 'NONE',  ( 0.7071067811865489050, 0.0000000000000000000, 0.7071067811865461294 ) ) ;
#268 = APPLICATION_PROTOCOL_DEFINITION ( 'draft international standard', 'automotive_design', 1998, #248 ) ;
#269 = CARTESIAN_POINT ( 'NONE',  ( 0.0000000000000000000, 0.0000000000000000000, 4.094488000000000127 ) ) ;
#270 = MANIFOLD_SOLID_BREP ( 'Cut-Revolve4', #15 ) ;
#271 = CARTESIAN_POINT ( 'NONE',  ( 0.0000000000000000000, 0.0000000000000000000, 0.0000000000000000000 ) ) ;
#272 = AXIS2_PLACEMENT_3D ( 'NONE', #305, #12, #79 ) ;
#273 = ADVANCED_FACE ( 'NONE', ( #21 ), #293, .T. ) ;
#274 = PLANE ( 'NONE',  #67 ) ;
#275 = DIRECTION ( 'NONE',  ( -0.0000000000000000000, -0.0000000000000000000, -1.000000000000000000 ) ) ;
#276 = FILL_AREA_STYLE ('',( #250 ) ) ;
#277 = DIRECTION ( 'NONE',  ( -0.0000000000000000000, -0.0000000000000000000, -1.000000000000000000 ) ) ;
#278 = AXIS2_PLACEMENT_3D ( 'NONE', #241, #162, #16 ) ;
#279 = SURFACE_STYLE_USAGE ( .BOTH. , #53 ) ;
#280 = DIRECTION ( 'NONE',  ( -1.000000000000000000, 0.0000000000000000000, 0.0000000000000000000 ) ) ;
#281 = DIRECTION ( 'NONE',  ( -0.0000000000000000000, -0.0000000000000000000, -1.000000000000000000 ) ) ;
#282 = DIRECTION ( 'NONE',  ( 1.000000000000000000, 0.0000000000000000000, 0.0000000000000000000 ) ) ;
#283 = ADVANCED_FACE ( 'NONE', ( #139 ), #75, .T. ) ;
#284 = AXIS2_PLACEMENT_3D ( 'NONE', #243, #166, #220 ) ;
#285 = EDGE_LOOP ( 'NONE', ( #124, #229 ) ) ;
#286 = ORIENTED_EDGE ( 'NONE', *, *, #98, .F. ) ;
#287 = VERTEX_POINT ( 'NONE', #302 ) ;
#288 = AXIS2_PLACEMENT_3D ( 'NONE', #259, #40, #77 ) ;
#289 = CIRCLE ( 'NONE', #177, 0.3787010000000002319 ) ;
#290 = EDGE_CURVE ( 'NONE', #317, #106, #249, .T. ) ;
#291 = LINE ( 'NONE', #323, #31 ) ;
#292 = ORIENTED_EDGE ( 'NONE', *, *, #290, .T. ) ;
#293 = CYLINDRICAL_SURFACE ( 'NONE', #2, 0.3937009999999999676 ) ;
#294 = EDGE_CURVE ( 'NONE', #59, #317, #72, .T. ) ;
#295 = CARTESIAN_POINT ( 'NONE',  ( 0.007499999999999999722, 0.0000000000000000000, 1.707404996040164512E-17 ) ) ;
#296 = VECTOR ( 'NONE', #120, 39.37007874015748143 ) ;
#297 = CARTESIAN_POINT ( 'NONE',  ( 0.0000000000000000000, 0.0000000000000000000, 4.094488000000000127 ) ) ;
#298 = ADVANCED_FACE ( 'NONE', ( #228 ), #274, .T. ) ;
#299 = DIRECTION ( 'NONE',  ( -1.000000000000000000, 0.0000000000000000000, 0.0000000000000000000 ) ) ;
#300 = FACE_OUTER_BOUND ( 'NONE', #61, .T. ) ;
#301 = CIRCLE ( 'NONE', #217, 0.3936510000000001952 ) ;
#302 = CARTESIAN_POINT ( 'NONE',  ( 0.3787010000000002319, 4.729598184775070620E-17, 4.094488000000000127 ) ) ;
#303 = ORIENTED_EDGE ( 'NONE', *, *, #204, .F. ) ;
#304 = DIRECTION ( 'NONE',  ( -1.000000000000000000, 0.0000000000000000000, 0.0000000000000000000 ) ) ;
#305 = CARTESIAN_POINT ( 'NONE',  ( 0.0000000000000000000, 0.0000000000000000000, 0.3861509999999985232 ) ) ;
#306 =( NAMED_UNIT ( * ) SI_UNIT ( $, .STERADIAN. ) SOLID_ANGLE_UNIT ( ) );
#307 = CIRCLE ( 'NONE', #284, 0.007499999999999999722 ) ;
#308 = DIRECTION ( 'NONE',  ( -1.000000000000000000, 0.0000000000000000000, 0.0000000000000000000 ) ) ;
#309 = DIRECTION ( 'NONE',  ( 1.000000000000000000, 0.0000000000000000000, 0.0000000000000000000 ) ) ;
#310 = ORIENTED_EDGE ( 'NONE', *, *, #225, .T. ) ;
#311 = EDGE_CURVE ( 'NONE', #154, #41, #101, .T. ) ;
#312 = CARTESIAN_POINT ( 'NONE',  ( -0.3936510000000001952, 0.0000000000000000000, 1.771654000000000062 ) ) ;
#313 = EDGE_LOOP ( 'NONE', ( #292, #175 ) ) ;
#314 = ADVANCED_FACE ( 'NONE', ( #300 ), #222, .T. ) ;
#315 = MECHANICAL_DESIGN_GEOMETRIC_PRESENTATION_REPRESENTATION (  '', ( #213 ), #201 ) ;
#316 = PRODUCT_RELATED_PRODUCT_CATEGORY ( 'part', '', ( #145 ) ) ;
#317 = VERTEX_POINT ( 'NONE', #123 ) ;
#318 = ORIENTED_EDGE ( 'NONE', *, *, #294, .F. ) ;
#319 = ADVANCED_FACE ( 'NONE', ( #148 ), #230, .T. ) ;
#320 = CIRCLE ( 'NONE', #288, 0.3937009999999999676 ) ;
#321 = CARTESIAN_POINT ( 'NONE',  ( 0.0000000000000000000, 0.0000000000000000000, 0.0000000000000000000 ) ) ;
#322 = EDGE_CURVE ( 'NONE', #106, #317, #50, .T. ) ;
#323 = CARTESIAN_POINT ( 'NONE',  ( 0.3937009999999999676, 4.821446694711121291E-17, 4.094488000000000127 ) ) ;
#324 = UNCERTAINTY_MEASURE_WITH_UNIT (LENGTH_MEASURE( 1.000000000000000082E-05 ), #255, 'distance_accuracy_value', 'NONE');
#325 = FACE_OUTER_BOUND ( 'NONE', #17, .T. ) ;
#326 = CIRCLE ( 'NONE', #191, 0.007499999999999999722 ) ;
#327 = EDGE_CURVE ( 'NONE', #56, #258, #70, .T. ) ;
#328 = LENGTH_MEASURE_WITH_UNIT ( LENGTH_MEASURE( 0.02539999999999999897 ), #247 );
#329 = DIRECTION ( 'NONE',  ( 0.0000000000000000000, 0.0000000000000000000, -1.000000000000000000 ) ) ;
ENDSEC;
END-ISO-10303-21;
