ISO-10303-21;
HEADER;
FILE_DESCRIPTION (( 'STEP AP214' ),
    '1' );
FILE_NAME ('Micro_RME-022-2X.STEP',
    '2021-09-01T22:51:50',
    ( '' ),
    ( '' ),
    'SwSTEP 2.0',
    'SolidWorks 2020',
    '' );
FILE_SCHEMA (( 'AUTOMOTIVE_DESIGN' ));
ENDSEC;

DATA;
#1 = EDGE_LOOP ( 'NONE', ( #232, #16, #184, #161 ) ) ;
#2 = VERTEX_POINT ( 'NONE', #231 ) ;
#3 = DIRECTION ( 'NONE',  ( 1.000000000000000000, 0.0000000000000000000, 0.0000000000000000000 ) ) ;
#4 = EDGE_CURVE ( 'NONE', #284, #202, #46, .T. ) ;
#5 = CARTESIAN_POINT ( 'NONE',  ( 0.0000000000000000000, 0.0000000000000000000, 1.485000000000000764 ) ) ;
#6 = VERTEX_POINT ( 'NONE', #50 ) ;
#7 = DIRECTION ( 'NONE',  ( 0.0000000000000000000, 0.0000000000000000000, -1.000000000000000000 ) ) ;
#8 = UNCERTAINTY_MEASURE_WITH_UNIT (LENGTH_MEASURE( 1.000000000000000082E-05 ), #17, 'distance_accuracy_value', 'NONE');
#9 = DIRECTION ( 'NONE',  ( 0.0000000000000000000, 0.0000000000000000000, -1.000000000000000000 ) ) ;
#10 =( NAMED_UNIT ( * ) PLANE_ANGLE_UNIT ( ) SI_UNIT ( $, .RADIAN. ) );
#11 = AXIS2_PLACEMENT_3D ( 'NONE', #80, #198, #295 ) ;
#12 = CARTESIAN_POINT ( 'NONE',  ( -0.01098899999999998836, 1.345764367583026016E-18, 0.06600000000000000311 ) ) ;
#13 =( LENGTH_UNIT ( ) NAMED_UNIT ( * ) SI_UNIT ( $, .METRE. ) );
#14 = DIRECTION ( 'NONE',  ( -0.7071067811865462405, 0.0000000000000000000, -0.7071067811865486830 ) ) ;
#15 = DIRECTION ( 'NONE',  ( -1.000000000000000000, 0.0000000000000000000, 0.0000000000000000000 ) ) ;
#16 = ORIENTED_EDGE ( 'NONE', *, *, #177, .T. ) ;
#17 =( CONVERSION_BASED_UNIT ( 'INCH', #82 ) LENGTH_UNIT ( ) NAMED_UNIT ( #273 ) );
#18 = EDGE_LOOP ( 'NONE', ( #87, #94, #155, #130 ) ) ;
#19 = DIRECTION ( 'NONE',  ( -1.000000000000000000, 0.0000000000000000000, 1.224646799147353454E-16 ) ) ;
#20 = VECTOR ( 'NONE', #167, 39.37007874015748143 ) ;
#21 = APPLICATION_PROTOCOL_DEFINITION ( 'draft international standard', 'automotive_design', 1998, #133 ) ;
#22 = VERTEX_POINT ( 'NONE', #134 ) ;
#23 = CARTESIAN_POINT ( 'NONE',  ( 0.06250000000000002776, 7.654042494670959086E-18, 1.500000000000000222 ) ) ;
#24 = ORIENTED_EDGE ( 'NONE', *, *, #4, .T. ) ;
#25 = PRODUCT_DEFINITION ( 'UNKNOWN', '', #55, #269 ) ;
#26 = CIRCLE ( 'NONE', #100, 0.06250000000000002776 ) ;
#27 = LENGTH_MEASURE_WITH_UNIT ( LENGTH_MEASURE( 0.02539999999999999897 ), #179 );
#28 = ORIENTED_EDGE ( 'NONE', *, *, #93, .F. ) ;
#29 = ORIENTED_EDGE ( 'NONE', *, *, #246, .T. ) ;
#30 = EDGE_CURVE ( 'NONE', #69, #284, #104, .T. ) ;
#31 = CARTESIAN_POINT ( 'NONE',  ( -0.01098899999999999530, 0.0000000000000000000, 2.691528735166052031E-18 ) ) ;
#32 = AXIS2_PLACEMENT_3D ( 'NONE', #147, #277, #19 ) ;
#33 = CARTESIAN_POINT ( 'NONE',  ( 8.082668874372533300E-18, 0.0000000000000000000, 0.06600000000000000311 ) ) ;
#34 = PRESENTATION_STYLE_ASSIGNMENT (( #73 ) ) ;
#35 = DIRECTION ( 'NONE',  ( -1.000000000000000000, 0.0000000000000000000, 0.0000000000000000000 ) ) ;
#36 = EDGE_CURVE ( 'NONE', #181, #202, #26, .T. ) ;
#37 = CARTESIAN_POINT ( 'NONE',  ( 0.0000000000000000000, 0.0000000000000000000, 1.500000000000000222 ) ) ;
#38 = CARTESIAN_POINT ( 'NONE',  ( 0.0000000000000000000, 0.0000000000000000000, 0.0000000000000000000 ) ) ;
#39 = CARTESIAN_POINT ( 'NONE',  ( 0.06250000000000006939, 7.654042494670963708E-18, 0.3581333978103264370 ) ) ;
#40 = CONICAL_SURFACE ( 'NONE', #125, 0.01098899999999999703, 0.1745329251994338637 ) ;
#41 = FACE_OUTER_BOUND ( 'NONE', #1, .T. ) ;
#42 = EDGE_CURVE ( 'NONE', #85, #47, #212, .T. ) ;
#43 = PLANE ( 'NONE',  #76 ) ;
#44 = ORIENTED_EDGE ( 'NONE', *, *, #150, .T. ) ;
#45 = FILL_AREA_STYLE ('',( #278 ) ) ;
#46 = LINE ( 'NONE', #23, #227 ) ;
#47 = VERTEX_POINT ( 'NONE', #53 ) ;
#48 = PRODUCT_CONTEXT ( 'NONE', #296, 'mechanical' ) ;
#49 = ADVANCED_FACE ( 'NONE', ( #263 ), #68, .T. ) ;
#50 = CARTESIAN_POINT ( 'NONE',  ( -0.04750000000000064587, 0.0000000000000000000, 1.500000000000000222 ) ) ;
#51 = CLOSED_SHELL ( 'NONE', ( #256, #141, #75, #192, #290, #220, #158, #49, #196, #200 ) ) ;
#52 =( NAMED_UNIT ( * ) PLANE_ANGLE_UNIT ( ) SI_UNIT ( $, .RADIAN. ) );
#53 = CARTESIAN_POINT ( 'NONE',  ( 0.01098899999999999530, 1.345764367583025823E-18, 0.0000000000000000000 ) ) ;
#54 = AXIS2_PLACEMENT_3D ( 'NONE', #70, #159, #261 ) ;
#55 = PRODUCT_DEFINITION_FORMATION_WITH_SPECIFIED_SOURCE ( 'ANY', '', #102, .NOT_KNOWN. ) ;
#56 = DIRECTION ( 'NONE',  ( 1.224646799147353454E-16, 0.0000000000000000000, 1.000000000000000000 ) ) ;
#57 = CARTESIAN_POINT ( 'NONE',  ( 0.04750000000000064587, 6.735557395310483192E-18, 1.500000000000000222 ) ) ;
#58 = LINE ( 'NONE', #60, #20 ) ;
#59 =( GEOMETRIC_REPRESENTATION_CONTEXT ( 3 ) GLOBAL_UNCERTAINTY_ASSIGNED_CONTEXT ( ( #8 ) ) GLOBAL_UNIT_ASSIGNED_CONTEXT ( ( #17, #126, #174 ) ) REPRESENTATION_CONTEXT ( 'NONE', 'WORKASPACE' ) );
#60 = CARTESIAN_POINT ( 'NONE',  ( -0.01098899999999999530, 0.0000000000000000000, 1.345764367583026016E-18 ) ) ;
#61 = CARTESIAN_POINT ( 'NONE',  ( -0.06250000000000002776, 0.0000000000000000000, 1.485000000000000764 ) ) ;
#62 = DIRECTION ( 'NONE',  ( -1.224646799147353454E-16, -0.0000000000000000000, -1.000000000000000000 ) ) ;
#63 = CONICAL_SURFACE ( 'NONE', #101, 0.04750000000000064587, 0.7853981633974466137 ) ;
#64 = DIRECTION ( 'NONE',  ( 1.000000000000000000, 0.0000000000000000000, -0.0000000000000000000 ) ) ;
#65 = FACE_OUTER_BOUND ( 'NONE', #204, .T. ) ;
#66 = ORIENTED_EDGE ( 'NONE', *, *, #42, .T. ) ;
#67 = ORIENTED_EDGE ( 'NONE', *, *, #42, .F. ) ;
#68 = CONICAL_SURFACE ( 'NONE', #81, 0.01098899999999999703, 0.1745329251994338637 ) ;
#69 = VERTEX_POINT ( 'NONE', #61 ) ;
#70 = CARTESIAN_POINT ( 'NONE',  ( 1.648086025167115131E-34, 0.0000000000000000000, 1.345764367583026016E-18 ) ) ;
#71 = VERTEX_POINT ( 'NONE', #57 ) ;
#72 = LINE ( 'NONE', #288, #281 ) ;
#73 = SURFACE_STYLE_USAGE ( .BOTH. , #242 ) ;
#74 = DIRECTION ( 'NONE',  ( -0.1736481776669311639, 2.126576849575783008E-17, 0.9848077530122080203 ) ) ;
#75 = ADVANCED_FACE ( 'NONE', ( #193 ), #124, .T. ) ;
#76 = AXIS2_PLACEMENT_3D ( 'NONE', #249, #79, #64 ) ;
#77 = DIRECTION ( 'NONE',  ( 0.0000000000000000000, 0.0000000000000000000, -1.000000000000000000 ) ) ;
#78 = DIRECTION ( 'NONE',  ( 0.0000000000000000000, 0.0000000000000000000, 1.000000000000000000 ) ) ;
#79 = DIRECTION ( 'NONE',  ( 0.0000000000000000000, 0.0000000000000000000, 1.000000000000000000 ) ) ;
#80 = CARTESIAN_POINT ( 'NONE',  ( 0.0000000000000000000, 0.0000000000000000000, 1.500000000000000222 ) ) ;
#81 = AXIS2_PLACEMENT_3D ( 'NONE', #236, #56, #237 ) ;
#82 = LENGTH_MEASURE_WITH_UNIT ( LENGTH_MEASURE( 0.02539999999999999897 ), #13 );
#83 = EDGE_CURVE ( 'NONE', #22, #181, #194, .T. ) ;
#84 = DIRECTION ( 'NONE',  ( 1.000000000000000000, 0.0000000000000000000, 0.0000000000000000000 ) ) ;
#85 = VERTEX_POINT ( 'NONE', #31 ) ;
#86 = STYLED_ITEM ( 'NONE', ( #152 ), #238 ) ;
#87 = ORIENTED_EDGE ( 'NONE', *, *, #128, .F. ) ;
#88 = ORIENTED_EDGE ( 'NONE', *, *, #138, .F. ) ;
#89 = CIRCLE ( 'NONE', #235, 0.01098899999999999703 ) ;
#90 = COLOUR_RGB ( '',0.7921568627450980005, 0.8196078431372548767, 0.9333333333333333481 ) ;
#91 =( NAMED_UNIT ( * ) SI_UNIT ( $, .STERADIAN. ) SOLID_ANGLE_UNIT ( ) );
#92 = DIRECTION ( 'NONE',  ( -1.224646799147353454E-16, -0.0000000000000000000, -1.000000000000000000 ) ) ;
#93 = EDGE_CURVE ( 'NONE', #6, #71, #257, .T. ) ;
#94 = ORIENTED_EDGE ( 'NONE', *, *, #83, .T. ) ;
#95 = EDGE_LOOP ( 'NONE', ( #229, #28, #298, #255 ) ) ;
#96 = VECTOR ( 'NONE', #247, 39.37007874015748143 ) ;
#97 = CARTESIAN_POINT ( 'NONE',  ( 0.04750000000000064587, 5.817072295950006528E-18, 1.500000000000000222 ) ) ;
#98 = CARTESIAN_POINT ( 'NONE',  ( 0.0000000000000000000, 0.0000000000000000000, 1.500000000000000222 ) ) ;
#99 = CARTESIAN_POINT ( 'NONE',  ( 0.0000000000000000000, 0.0000000000000000000, 1.500000000000000222 ) ) ;
#100 = AXIS2_PLACEMENT_3D ( 'NONE', #135, #92, #283 ) ;
#101 = AXIS2_PLACEMENT_3D ( 'NONE', #142, #7, #35 ) ;
#102 = PRODUCT ( 'Micro_RME-022-2X', 'Micro_RME-022-2X', '', ( #48 ) ) ;
#103 =( NAMED_UNIT ( * ) SI_UNIT ( $, .STERADIAN. ) SOLID_ANGLE_UNIT ( ) );
#104 = CIRCLE ( 'NONE', #187, 0.06250000000000002776 ) ;
#105 = DIRECTION ( 'NONE',  ( -1.224646799147353454E-16, -0.0000000000000000000, -1.000000000000000000 ) ) ;
#106 = DIRECTION ( 'NONE',  ( 1.000000000000000000, 0.0000000000000000000, -0.0000000000000000000 ) ) ;
#107 = UNCERTAINTY_MEASURE_WITH_UNIT (LENGTH_MEASURE( 1.000000000000000082E-05 ), #206, 'distance_accuracy_value', 'NONE');
#108 = LINE ( 'NONE', #275, #143 ) ;
#109 = CIRCLE ( 'NONE', #252, 0.01098899999999999530 ) ;
#110 = ORIENTED_EDGE ( 'NONE', *, *, #30, .T. ) ;
#111 = ORIENTED_EDGE ( 'NONE', *, *, #83, .F. ) ;
#112 = DIRECTION ( 'NONE',  ( 0.0000000000000000000, 0.0000000000000000000, -1.000000000000000000 ) ) ;
#113 = AXIS2_PLACEMENT_3D ( 'NONE', #38, #292, #122 ) ;
#114 = AXIS2_PLACEMENT_3D ( 'NONE', #171, #145, #106 ) ;
#115 = ORIENTED_EDGE ( 'NONE', *, *, #186, .F. ) ;
#116 = ORIENTED_EDGE ( 'NONE', *, *, #119, .T. ) ;
#117 = DIRECTION ( 'NONE',  ( -1.224646799147353454E-16, -0.0000000000000000000, -1.000000000000000000 ) ) ;
#118 = CARTESIAN_POINT ( 'NONE',  ( 8.082668874372533300E-18, 0.0000000000000000000, 0.06600000000000000311 ) ) ;
#119 = EDGE_CURVE ( 'NONE', #2, #22, #197, .T. ) ;
#120 = CARTESIAN_POINT ( 'NONE',  ( 0.0000000000000000000, 0.0000000000000000000, 1.500000000000000222 ) ) ;
#121 = CYLINDRICAL_SURFACE ( 'NONE', #32, 0.01098899999999999530 ) ;
#122 = DIRECTION ( 'NONE',  ( -1.000000000000000000, 0.0000000000000000000, 1.224646799147353454E-16 ) ) ;
#123 = FACE_OUTER_BOUND ( 'NONE', #127, .T. ) ;
#124 = CONICAL_SURFACE ( 'NONE', #217, 0.04750000000000064587, 0.7853981633974466137 ) ;
#125 = AXIS2_PLACEMENT_3D ( 'NONE', #118, #219, #243 ) ;
#126 =( NAMED_UNIT ( * ) PLANE_ANGLE_UNIT ( ) SI_UNIT ( $, .RADIAN. ) );
#127 = EDGE_LOOP ( 'NONE', ( #280, #153 ) ) ;
#128 = EDGE_CURVE ( 'NONE', #22, #2, #89, .T. ) ;
#129 = DIRECTION ( 'NONE',  ( 0.0000000000000000000, 0.0000000000000000000, 1.000000000000000000 ) ) ;
#130 = ORIENTED_EDGE ( 'NONE', *, *, #294, .F. ) ;
#131 = APPLICATION_PROTOCOL_DEFINITION ( 'draft international standard', 'automotive_design', 1998, #296 ) ;
#132 = EDGE_LOOP ( 'NONE', ( #258, #116, #44, #178 ) ) ;
#133 = APPLICATION_CONTEXT ( 'automotive_design' ) ;
#134 = CARTESIAN_POINT ( 'NONE',  ( -0.01098899999999998836, 4.499903431126993417E-18, 0.06600000000000000311 ) ) ;
#135 = CARTESIAN_POINT ( 'NONE',  ( 4.385869192961820901E-17, 0.0000000000000000000, 0.3581333978103264370 ) ) ;
#136 = CARTESIAN_POINT ( 'NONE',  ( 0.0000000000000000000, 0.0000000000000000000, 0.0000000000000000000 ) ) ;
#137 = ORIENTED_EDGE ( 'NONE', *, *, #30, .F. ) ;
#138 = EDGE_CURVE ( 'NONE', #69, #181, #72, .T. ) ;
#139 = DIRECTION ( 'NONE',  ( 0.7071067811865462405, 8.659560562354916834E-17, -0.7071067811865486830 ) ) ;
#140 = SURFACE_STYLE_FILL_AREA ( #264 ) ;
#141 = ADVANCED_FACE ( 'NONE', ( #214 ), #40, .T. ) ;
#142 = CARTESIAN_POINT ( 'NONE',  ( 0.0000000000000000000, 0.0000000000000000000, 1.500000000000000222 ) ) ;
#143 = VECTOR ( 'NONE', #14, 39.37007874015748854 ) ;
#144 = CARTESIAN_POINT ( 'NONE',  ( 0.06250000000000002776, 7.654042494670959086E-18, 1.485000000000000764 ) ) ;
#145 = DIRECTION ( 'NONE',  ( 0.0000000000000000000, 0.0000000000000000000, 1.000000000000000000 ) ) ;
#146 = PRODUCT_RELATED_PRODUCT_CATEGORY ( 'part', '', ( #102 ) ) ;
#147 = CARTESIAN_POINT ( 'NONE',  ( 0.0000000000000000000, 0.0000000000000000000, 0.0000000000000000000 ) ) ;
#148 = LINE ( 'NONE', #293, #96 ) ;
#149 = COLOUR_RGB ( '',0.7921568627450980005, 0.8196078431372548767, 0.9333333333333333481 ) ;
#150 = EDGE_CURVE ( 'NONE', #22, #85, #58, .T. ) ;
#151 = UNCERTAINTY_MEASURE_WITH_UNIT (LENGTH_MEASURE( 1.000000000000000082E-05 ), #268, 'distance_accuracy_value', 'NONE');
#152 = PRESENTATION_STYLE_ASSIGNMENT (( #260 ) ) ;
#153 = ORIENTED_EDGE ( 'NONE', *, *, #186, .T. ) ;
#154 = DIRECTION ( 'NONE',  ( 1.000000000000000000, 0.0000000000000000000, 0.0000000000000000000 ) ) ;
#155 = ORIENTED_EDGE ( 'NONE', *, *, #36, .T. ) ;
#156 = AXIS2_PLACEMENT_3D ( 'NONE', #120, #213, #172 ) ;
#157 = ORIENTED_EDGE ( 'NONE', *, *, #294, .T. ) ;
#158 = ADVANCED_FACE ( 'NONE', ( #190 ), #63, .T. ) ;
#159 = DIRECTION ( 'NONE',  ( -1.224646799147353454E-16, -0.0000000000000000000, -1.000000000000000000 ) ) ;
#160 = SURFACE_STYLE_FILL_AREA ( #45 ) ;
#161 = ORIENTED_EDGE ( 'NONE', *, *, #279, .F. ) ;
#162 = VECTOR ( 'NONE', #74, 39.37007874015747433 ) ;
#163 = AXIS2_PLACEMENT_3D ( 'NONE', #136, #129, #154 ) ;
#164 = DIRECTION ( 'NONE',  ( -1.000000000000000000, 0.0000000000000000000, 0.0000000000000000000 ) ) ;
#165 = EDGE_CURVE ( 'NONE', #71, #284, #266, .T. ) ;
#166 = DIRECTION ( 'NONE',  ( 1.000000000000000000, 0.0000000000000000000, 0.0000000000000000000 ) ) ;
#167 = DIRECTION ( 'NONE',  ( -1.224646799147353454E-16, -0.0000000000000000000, -1.000000000000000000 ) ) ;
#168 = MECHANICAL_DESIGN_GEOMETRIC_PRESENTATION_REPRESENTATION (  '', ( #299 ), #241 ) ;
#169 = LENGTH_MEASURE_WITH_UNIT ( LENGTH_MEASURE( 0.02539999999999999897 ), #170 );
#170 =( LENGTH_UNIT ( ) NAMED_UNIT ( * ) SI_UNIT ( $, .METRE. ) );
#171 = CARTESIAN_POINT ( 'NONE',  ( 0.0000000000000000000, 0.0000000000000000000, 1.500000000000000222 ) ) ;
#172 = DIRECTION ( 'NONE',  ( 1.000000000000000000, 0.0000000000000000000, 0.0000000000000000000 ) ) ;
#173 = DIMENSIONAL_EXPONENTS ( 1.000000000000000000, 0.0000000000000000000, 0.0000000000000000000, 0.0000000000000000000, 0.0000000000000000000, 0.0000000000000000000, 0.0000000000000000000 ) ;
#174 =( NAMED_UNIT ( * ) SI_UNIT ( $, .STERADIAN. ) SOLID_ANGLE_UNIT ( ) );
#175 = CYLINDRICAL_SURFACE ( 'NONE', #11, 0.06250000000000002776 ) ;
#176 = CIRCLE ( 'NONE', #203, 0.06250000000000002776 ) ;
#177 = EDGE_CURVE ( 'NONE', #284, #69, #176, .T. ) ;
#178 = ORIENTED_EDGE ( 'NONE', *, *, #215, .F. ) ;
#179 =( LENGTH_UNIT ( ) NAMED_UNIT ( * ) SI_UNIT ( $, .METRE. ) );
#180 = EDGE_LOOP ( 'NONE', ( #66, #182 ) ) ;
#181 = VERTEX_POINT ( 'NONE', #287 ) ;
#182 = ORIENTED_EDGE ( 'NONE', *, *, #215, .T. ) ;
#183 = MANIFOLD_SOLID_BREP ( 'Cut-Revolve1', #51 ) ;
#184 = ORIENTED_EDGE ( 'NONE', *, *, #138, .T. ) ;
#185 = EDGE_LOOP ( 'NONE', ( #115, #282, #137, #210 ) ) ;
#186 = EDGE_CURVE ( 'NONE', #71, #6, #230, .T. ) ;
#187 = AXIS2_PLACEMENT_3D ( 'NONE', #5, #112, #3 ) ;
#188 = CARTESIAN_POINT ( 'NONE',  ( 8.082668874372533300E-18, 0.0000000000000000000, 0.06600000000000000311 ) ) ;
#189 = DIRECTION ( 'NONE',  ( -1.224646799147353454E-16, -0.0000000000000000000, -1.000000000000000000 ) ) ;
#190 = FACE_OUTER_BOUND ( 'NONE', #95, .T. ) ;
#191 =( GEOMETRIC_REPRESENTATION_CONTEXT ( 3 ) GLOBAL_UNCERTAINTY_ASSIGNED_CONTEXT ( ( #107 ) ) GLOBAL_UNIT_ASSIGNED_CONTEXT ( ( #206, #52, #91 ) ) REPRESENTATION_CONTEXT ( 'NONE', 'WORKASPACE' ) );
#192 = ADVANCED_FACE ( 'NONE', ( #65 ), #228, .T. ) ;
#193 = FACE_OUTER_BOUND ( 'NONE', #185, .T. ) ;
#194 = LINE ( 'NONE', #12, #162 ) ;
#195 = LINE ( 'NONE', #248, #251 ) ;
#196 = ADVANCED_FACE ( 'NONE', ( #223 ), #121, .T. ) ;
#197 = CIRCLE ( 'NONE', #224, 0.01098899999999999703 ) ;
#198 = DIRECTION ( 'NONE',  ( -0.0000000000000000000, -0.0000000000000000000, -1.000000000000000000 ) ) ;
#199 = CARTESIAN_POINT ( 'NONE',  ( 4.385869192961820901E-17, 0.0000000000000000000, 0.3581333978103264370 ) ) ;
#200 = ADVANCED_FACE ( 'NONE', ( #221 ), #43, .F. ) ;
#201 = DIRECTION ( 'NONE',  ( -1.000000000000000000, 0.0000000000000000000, 1.224646799147353454E-16 ) ) ;
#202 = VERTEX_POINT ( 'NONE', #39 ) ;
#203 = AXIS2_PLACEMENT_3D ( 'NONE', #240, #77, #216 ) ;
#204 = EDGE_LOOP ( 'NONE', ( #110, #24, #226, #88 ) ) ;
#205 = EDGE_LOOP ( 'NONE', ( #286, #29, #67, #233 ) ) ;
#206 =( CONVERSION_BASED_UNIT ( 'INCH', #27 ) LENGTH_UNIT ( ) NAMED_UNIT ( #173 ) );
#207 = EDGE_LOOP ( 'NONE', ( #111, #209, #157, #250 ) ) ;
#208 = SHAPE_DEFINITION_REPRESENTATION ( #271, #238 ) ;
#209 = ORIENTED_EDGE ( 'NONE', *, *, #119, .F. ) ;
#210 = ORIENTED_EDGE ( 'NONE', *, *, #274, .F. ) ;
#211 = DIRECTION ( 'NONE',  ( -1.000000000000000000, 0.0000000000000000000, 0.0000000000000000000 ) ) ;
#212 = CIRCLE ( 'NONE', #54, 0.01098899999999999530 ) ;
#213 = DIRECTION ( 'NONE',  ( 0.0000000000000000000, 0.0000000000000000000, 1.000000000000000000 ) ) ;
#214 = FACE_OUTER_BOUND ( 'NONE', #18, .T. ) ;
#215 = EDGE_CURVE ( 'NONE', #47, #85, #109, .T. ) ;
#216 = DIRECTION ( 'NONE',  ( 1.000000000000000000, 0.0000000000000000000, 0.0000000000000000000 ) ) ;
#217 = AXIS2_PLACEMENT_3D ( 'NONE', #99, #9, #291 ) ;
#218 = VECTOR ( 'NONE', #139, 39.37007874015748854 ) ;
#219 = DIRECTION ( 'NONE',  ( 1.224646799147353454E-16, 0.0000000000000000000, 1.000000000000000000 ) ) ;
#220 = ADVANCED_FACE ( 'NONE', ( #123 ), #225, .T. ) ;
#221 = FACE_OUTER_BOUND ( 'NONE', #180, .T. ) ;
#222 = DIMENSIONAL_EXPONENTS ( 1.000000000000000000, 0.0000000000000000000, 0.0000000000000000000, 0.0000000000000000000, 0.0000000000000000000, 0.0000000000000000000, 0.0000000000000000000 ) ;
#223 = FACE_OUTER_BOUND ( 'NONE', #132, .T. ) ;
#224 = AXIS2_PLACEMENT_3D ( 'NONE', #188, #189, #211 ) ;
#225 = PLANE ( 'NONE',  #114 ) ;
#226 = ORIENTED_EDGE ( 'NONE', *, *, #36, .F. ) ;
#227 = VECTOR ( 'NONE', #259, 39.37007874015748143 ) ;
#228 = CYLINDRICAL_SURFACE ( 'NONE', #245, 0.06250000000000002776 ) ;
#229 = ORIENTED_EDGE ( 'NONE', *, *, #165, .F. ) ;
#230 = CIRCLE ( 'NONE', #156, 0.04750000000000064587 ) ;
#231 = CARTESIAN_POINT ( 'NONE',  ( 0.01098900000000000571, 0.0000000000000000000, 0.06600000000000000311 ) ) ;
#232 = ORIENTED_EDGE ( 'NONE', *, *, #4, .F. ) ;
#233 = ORIENTED_EDGE ( 'NONE', *, *, #150, .F. ) ;
#234 = SURFACE_SIDE_STYLE ('',( #160 ) ) ;
#235 = AXIS2_PLACEMENT_3D ( 'NONE', #33, #117, #164 ) ;
#236 = CARTESIAN_POINT ( 'NONE',  ( 8.082668874372533300E-18, 0.0000000000000000000, 0.06600000000000000311 ) ) ;
#237 = DIRECTION ( 'NONE',  ( 1.000000000000000000, 0.0000000000000000000, 0.0000000000000000000 ) ) ;
#238 = ADVANCED_BREP_SHAPE_REPRESENTATION ( 'Micro_RME-022-2X', ( #183, #163 ), #59 ) ;
#239 = FILL_AREA_STYLE_COLOUR ( '', #149 ) ;
#240 = CARTESIAN_POINT ( 'NONE',  ( 0.0000000000000000000, 0.0000000000000000000, 1.485000000000000764 ) ) ;
#241 =( GEOMETRIC_REPRESENTATION_CONTEXT ( 3 ) GLOBAL_UNCERTAINTY_ASSIGNED_CONTEXT ( ( #151 ) ) GLOBAL_UNIT_ASSIGNED_CONTEXT ( ( #268, #10, #103 ) ) REPRESENTATION_CONTEXT ( 'NONE', 'WORKASPACE' ) );
#242 = SURFACE_SIDE_STYLE ('',( #140 ) ) ;
#243 = DIRECTION ( 'NONE',  ( 1.000000000000000000, 0.0000000000000000000, 0.0000000000000000000 ) ) ;
#244 = AXIS2_PLACEMENT_3D ( 'NONE', #98, #78, #166 ) ;
#245 = AXIS2_PLACEMENT_3D ( 'NONE', #37, #254, #15 ) ;
#246 = EDGE_CURVE ( 'NONE', #2, #47, #195, .T. ) ;
#247 = DIRECTION ( 'NONE',  ( 0.1736481776669313581, 0.0000000000000000000, 0.9848077530122077983 ) ) ;
#248 = CARTESIAN_POINT ( 'NONE',  ( 0.01098899999999999530, 1.345764367583025823E-18, -1.345764367583026016E-18 ) ) ;
#249 = CARTESIAN_POINT ( 'NONE',  ( 0.0000000000000000000, 0.0000000000000000000, 0.0000000000000000000 ) ) ;
#250 = ORIENTED_EDGE ( 'NONE', *, *, #279, .T. ) ;
#251 = VECTOR ( 'NONE', #62, 39.37007874015748143 ) ;
#252 = AXIS2_PLACEMENT_3D ( 'NONE', #270, #253, #201 ) ;
#253 = DIRECTION ( 'NONE',  ( -1.224646799147353454E-16, -0.0000000000000000000, -1.000000000000000000 ) ) ;
#254 = DIRECTION ( 'NONE',  ( -0.0000000000000000000, -0.0000000000000000000, -1.000000000000000000 ) ) ;
#255 = ORIENTED_EDGE ( 'NONE', *, *, #177, .F. ) ;
#256 = ADVANCED_FACE ( 'NONE', ( #297 ), #272, .T. ) ;
#257 = CIRCLE ( 'NONE', #244, 0.04750000000000064587 ) ;
#258 = ORIENTED_EDGE ( 'NONE', *, *, #246, .F. ) ;
#259 = DIRECTION ( 'NONE',  ( -0.0000000000000000000, -0.0000000000000000000, -1.000000000000000000 ) ) ;
#260 = SURFACE_STYLE_USAGE ( .BOTH. , #234 ) ;
#261 = DIRECTION ( 'NONE',  ( -1.000000000000000000, 0.0000000000000000000, 1.224646799147353454E-16 ) ) ;
#262 = PRESENTATION_LAYER_ASSIGNMENT (  '', '', ( #299 ) ) ;
#263 = FACE_OUTER_BOUND ( 'NONE', #207, .T. ) ;
#264 = FILL_AREA_STYLE ('',( #239 ) ) ;
#265 = DIRECTION ( 'NONE',  ( -0.0000000000000000000, -0.0000000000000000000, -1.000000000000000000 ) ) ;
#266 = LINE ( 'NONE', #97, #218 ) ;
#267 = MECHANICAL_DESIGN_GEOMETRIC_PRESENTATION_REPRESENTATION (  '', ( #86 ), #191 ) ;
#268 =( CONVERSION_BASED_UNIT ( 'INCH', #169 ) LENGTH_UNIT ( ) NAMED_UNIT ( #222 ) );
#269 = PRODUCT_DEFINITION_CONTEXT ( 'detailed design', #133, 'design' ) ;
#270 = CARTESIAN_POINT ( 'NONE',  ( 1.648086025167115131E-34, 0.0000000000000000000, 1.345764367583026016E-18 ) ) ;
#271 = PRODUCT_DEFINITION_SHAPE ( 'NONE', 'NONE',  #25 ) ;
#272 = CYLINDRICAL_SURFACE ( 'NONE', #113, 0.01098899999999999530 ) ;
#273 = DIMENSIONAL_EXPONENTS ( 1.000000000000000000, 0.0000000000000000000, 0.0000000000000000000, 0.0000000000000000000, 0.0000000000000000000, 0.0000000000000000000, 0.0000000000000000000 ) ;
#274 = EDGE_CURVE ( 'NONE', #6, #69, #108, .T. ) ;
#275 = CARTESIAN_POINT ( 'NONE',  ( -0.04750000000000064587, 0.0000000000000000000, 1.500000000000000222 ) ) ;
#276 = AXIS2_PLACEMENT_3D ( 'NONE', #199, #105, #84 ) ;
#277 = DIRECTION ( 'NONE',  ( -1.224646799147353454E-16, -0.0000000000000000000, -1.000000000000000000 ) ) ;
#278 = FILL_AREA_STYLE_COLOUR ( '', #90 ) ;
#279 = EDGE_CURVE ( 'NONE', #202, #181, #289, .T. ) ;
#280 = ORIENTED_EDGE ( 'NONE', *, *, #93, .T. ) ;
#281 = VECTOR ( 'NONE', #265, 39.37007874015748143 ) ;
#282 = ORIENTED_EDGE ( 'NONE', *, *, #165, .T. ) ;
#283 = DIRECTION ( 'NONE',  ( 1.000000000000000000, 0.0000000000000000000, 0.0000000000000000000 ) ) ;
#284 = VERTEX_POINT ( 'NONE', #144 ) ;
#285 = PRESENTATION_LAYER_ASSIGNMENT (  '', '', ( #86 ) ) ;
#286 = ORIENTED_EDGE ( 'NONE', *, *, #128, .T. ) ;
#287 = CARTESIAN_POINT ( 'NONE',  ( -0.06249999999999997918, 0.0000000000000000000, 0.3581333978103264370 ) ) ;
#288 = CARTESIAN_POINT ( 'NONE',  ( -0.06250000000000002776, 0.0000000000000000000, 1.500000000000000222 ) ) ;
#289 = CIRCLE ( 'NONE', #276, 0.06250000000000002776 ) ;
#290 = ADVANCED_FACE ( 'NONE', ( #41 ), #175, .T. ) ;
#291 = DIRECTION ( 'NONE',  ( -1.000000000000000000, 0.0000000000000000000, 0.0000000000000000000 ) ) ;
#292 = DIRECTION ( 'NONE',  ( -1.224646799147353454E-16, -0.0000000000000000000, -1.000000000000000000 ) ) ;
#293 = CARTESIAN_POINT ( 'NONE',  ( 0.01098900000000000571, 0.0000000000000000000, 0.06600000000000000311 ) ) ;
#294 = EDGE_CURVE ( 'NONE', #2, #202, #148, .T. ) ;
#295 = DIRECTION ( 'NONE',  ( -1.000000000000000000, 0.0000000000000000000, 0.0000000000000000000 ) ) ;
#296 = APPLICATION_CONTEXT ( 'automotive_design' ) ;
#297 = FACE_OUTER_BOUND ( 'NONE', #205, .T. ) ;
#298 = ORIENTED_EDGE ( 'NONE', *, *, #274, .T. ) ;
#299 = STYLED_ITEM ( 'NONE', ( #34 ), #183 ) ;
ENDSEC;
END-ISO-10303-21;
